  0
SECTION
  2
HEADER
  9
$ACADVER
  1
AC1009
  9
$INSBASE
 10
0.0
 20
0.0
 30
0.0
  9
$EXTMIN
 10
304.77484603772882
 20
121.4995646619432
 30
0.0
  9
$EXTMAX
 10
500.78484603772881
 20
405.49956466194323
 30
0.0
  9
$LIMMIN
 10
0.0
 20
0.0
  9
$LIMMAX
 10
420.0
 20
297.0
  9
$ORTHOMODE
 70
     0
  9
$REGENMODE
 70
     1
  9
$FILLMODE
 70
     1
  9
$QTEXTMODE
 70
     0
  9
$MIRRTEXT
 70
     1
  9
$DRAGMODE
 70
     2
  9
$LTSCALE
 40
1.0
  9
$OSMODE
 70
    39
  9
$ATTMODE
 70
     1
  9
$TEXTSIZE
 40
2.5
  9
$TRACEWID
 40
1.0
  9
$TEXTSTYLE
  7
STANDARD
  9
$CLAYER
  8
0
  9
$CELTYPE
  6
BYLAYER
  9
$CECOLOR
 62
   256
  9
$DIMSCALE
 40
1.0
  9
$DIMASZ
 40
2.5
  9
$DIMEXO
 40
0.0
  9
$DIMDLI
 40
7.0
  9
$DIMRND
 40
0.0
  9
$DIMDLE
 40
0.0
  9
$DIMEXE
 40
1.0
  9
$DIMTP
 40
0.1
  9
$DIMTM
 40
0.1
  9
$DIMTXT
 40
3.5
  9
$DIMCEN
 40
0.0
  9
$DIMTSZ
 40
0.0
  9
$DIMTOL
 70
     0
  9
$DIMLIM
 70
     0
  9
$DIMTIH
 70
     0
  9
$DIMTOH
 70
     0
  9
$DIMSE1
 70
     0
  9
$DIMSE2
 70
     0
  9
$DIMTAD
 70
     1
  9
$DIMZIN
 70
     0
  9
$DIMBLK
  1

  9
$DIMASO
 70
     1
  9
$DIMSHO
 70
     1
  9
$DIMPOST
  1
<>
  9
$DIMAPOST
  1
"
  9
$DIMALT
 70
     0
  9
$DIMALTD
 70
     2
  9
$DIMALTF
 40
0.0393701
  9
$DIMLFAC
 40
1.0
  9
$DIMTOFL
 70
     1
  9
$DIMTVP
 40
0.0
  9
$DIMTIX
 70
     0
  9
$DIMSOXD
 70
     0
  9
$DIMSAH
 70
     0
  9
$DIMBLK1
  1

  9
$DIMBLK2
  1

  9
$DIMSTYLE
  2
GEN-ISO
  9
$DIMCLRD
 70
     3
  9
$DIMCLRE
 70
     3
  9
$DIMCLRT
 70
     3
  9
$DIMTFAC
 40
0.71
  9
$DIMGAP
 40
0.6
  9
$LUNITS
 70
     2
  9
$LUPREC
 70
     2
  9
$SKETCHINC
 40
1.0
  9
$FILLETRAD
 40
0.0
  9
$AUNITS
 70
     0
  9
$AUPREC
 70
     0
  9
$MENU
  1
.
  9
$ELEVATION
 40
0.0
  9
$PELEVATION
 40
0.0
  9
$THICKNESS
 40
0.0
  9
$LIMCHECK
 70
     0
  9
$BLIPMODE
 70
     0
  9
$CHAMFERA
 40
10.0
  9
$CHAMFERB
 40
10.0
  9
$SKPOLY
 70
     0
  9
$TDCREATE
 40
2452007.7783458219
  9
$TDUPDATE
 40
2456744.5053674891
  9
$TDINDWG
 40
0.5094425231
  9
$TDUSRTIMER
 40
0.5094425231
  9
$USRTIMER
 70
     1
  9
$ANGBASE
 50
0.0
  9
$ANGDIR
 70
     0
  9
$PDMODE
 70
     0
  9
$PDSIZE
 40
0.0
  9
$PLINEWID
 40
0.0
  9
$COORDS
 70
     1
  9
$SPLFRAME
 70
     0
  9
$SPLINETYPE
 70
     6
  9
$SPLINESEGS
 70
     8
  9
$ATTDIA
 70
     0
  9
$ATTREQ
 70
     1
  9
$HANDLING
 70
     1
  9
$HANDSEED
  5
4545
  9
$SURFTAB1
 70
     6
  9
$SURFTAB2
 70
     6
  9
$SURFTYPE
 70
     6
  9
$SURFU
 70
     6
  9
$SURFV
 70
     6
  9
$UCSNAME
  2

  9
$UCSORG
 10
0.0
 20
0.0
 30
0.0
  9
$UCSXDIR
 10
1.0
 20
0.0
 30
0.0
  9
$UCSYDIR
 10
0.0
 20
1.0
 30
0.0
  9
$PUCSNAME
  2

  9
$PUCSORG
 10
0.0
 20
0.0
 30
0.0
  9
$PUCSXDIR
 10
1.0
 20
0.0
 30
0.0
  9
$PUCSYDIR
 10
0.0
 20
1.0
 30
0.0
  9
$USERI1
 70
     0
  9
$USERI2
 70
     0
  9
$USERI3
 70
     0
  9
$USERI4
 70
     0
  9
$USERI5
 70
     0
  9
$USERR1
 40
0.0
  9
$USERR2
 40
0.0
  9
$USERR3
 40
0.0
  9
$USERR4
 40
0.0
  9
$USERR5
 40
0.0
  9
$WORLDVIEW
 70
     1
  9
$SHADEDGE
 70
     3
  9
$SHADEDIF
 70
    70
  9
$TILEMODE
 70
     1
  9
$MAXACTVP
 70
    64
  9
$PLIMCHECK
 70
     0
  9
$PEXTMIN
 10
-145.51728296973101
 20
-100.9923473003192
 30
0.0
  9
$PEXTMAX
 10
64.482717030268986
 20
196.0076526996807
 30
0.0
  9
$PLIMMIN
 10
-150.80743842540889
 20
-108.5813486640122
  9
$PLIMMAX
 10
69.868876692724626
 20
203.5059145893683
  9
$UNITMODE
 70
     0
  9
$VISRETAIN
 70
     1
  9
$PLINEGEN
 70
     0
  9
$PSLTSCALE
 70
     1
  0
ENDSEC
  0
SECTION
  2
TABLES
  0
TABLE
  2
VPORT
 70
     1
  0
VPORT
  2
*ACTIVE
 70
     0
 10
0.0
 20
0.0
 11
1.0
 21
1.0
 12
549.37865418124738
 22
263.7502785380259
 13
0.0
 23
0.0
 14
10.0
 24
10.0
 15
10.0
 25
10.0
 16
0.0
 26
0.0
 36
1.0
 17
0.0
 27
0.0
 37
0.0
 40
306.99747866057891
 41
1.6603375527426161
 42
50.0
 43
0.0
 44
0.0
 50
0.0
 51
0.0
 71
     0
 72
   100
 73
     1
 74
     3
 75
     0
 76
     0
 77
     0
 78
     0
  0
ENDTAB
  0
TABLE
  2
LTYPE
 70
    15
  0
LTYPE
  2
CONTINUOUS
 70
     0
  3
Solid line
 72
    65
 73
     0
 40
0.0
  0
LTYPE
  2
GEN3
 70
     0
  3
-- -- -- -- -- -- -- -- -- -- -- -- -- -- --
 72
    65
 73
     2
 40
6.25
 49
4.75
 49
-1.5
  0
LTYPE
  2
GEN7
 70
     0
  3
____ . ____ . ____ . ____ . ____ . ____ . ____
 72
    65
 73
     4
 40
13.75
 49
9.75
 49
-1.5
 49
1.0
 49
-1.5
  0
LTYPE
  2
GEN3A
 70
     0
  3
 - - - - -
 72
    65
 73
     2
 40
3.125
 49
2.25
 49
-0.875
  0
LTYPE
  2
GEN7A
 70
     0
  3
__ . __ . __
 72
    65
 73
     4
 40
6.875
 49
4.75
 49
-0.875
 49
0.375
 49
-0.875
  0
LTYPE
  2
GEN4A
 70
     0
  3
_____ . . _____ . . _____ . . ____ .. ____
 72
    65
 73
     6
 40
16.25
 49
9.75
 49
-1.5
 49
1.0
 49
-1.5
 49
1.0
 49
-1.5
  0
LTYPE
  2
AM_ISO02W050
 70
     0
  3
__ __ __ __ __ __ __ __ __ __ __ __ __ __ __
 72
    65
 73
     2
 40
7.5
 49
6.0
 49
-1.5
  0
LTYPE
  2
GENZIGZAG
 70
     0
  3
/\/-/\/-/\/-/\/-/\/-/\/
 72
    65
 73
     2
 40
12.0001
 49
0.0001
 49
-12.0
  0
LTYPE
  2
ACISOWELD
 70
     0
  3
_ _ _ _ _
 72
    65
 73
     2
 40
2.0
 49
2.0
 49
-1.0
  0
LTYPE
  2
ACISOTGB
 70
     0
  3
__ . . __ . .
 72
    65
 73
     6
 40
9.0
 49
4.0
 49
-1.0
 49
1.0
 49
-1.0
 49
1.0
 49
-1.0
  0
LTYPE
  2
ACISOTGL
 70
     0
  3
_ _ _ _ _
 72
    65
 73
     2
 40
3.0
 49
2.0
 49
-1.0
  0
LTYPE
  2
CENTER
 70
     0
  3
__ . __
 72
    65
 73
     4
 40
7.0
 49
4.0
 49
-1.0
 49
1.0
 49
-1.0
  0
LTYPE
  2
PHANTOM2
 70
     0
  3
Phantom (.5x) ___ _ _ ___ _ _ ___ _ _ ___ _ _
 72
    65
 73
     6
 40
1.25
 49
0.625
 49
-0.125
 49
0.125
 49
-0.125
 49
0.125
 49
-0.125
  0
LTYPE
  2
ACANSTGB
 70
     0
  3
__ . . __ . .
 72
    65
 73
     6
 40
0.35433070866
 49
0.15748031496
 49
-0.03937007874
 49
0.03937007874
 49
-0.03937007874
 49
0.03937007874
 49
-0.03937007874
  0
LTYPE
  2
ACANSTGL
 70
     0
  3
_ _ _ _ _
 72
    65
 73
     2
 40
0.11811023622
 49
0.07874015748
 49
-0.03937007874
  0
ENDTAB
  0
TABLE
  2
LAYER
 70
    10
  0
LAYER
  2
0
 70
     0
 62
     7
  6
CONTINUOUS
  0
LAYER
  2
DEFPOINTS
 70
     0
 62
     7
  6
CONTINUOUS
  0
LAYER
  2
VIEW
 70
     0
 62
     1
  6
CONTINUOUS
  0
LAYER
  2
5
 70
     0
 62
     3
  6
CONTINUOUS
  0
LAYER
  2
7
 70
     0
 62
     4
  6
GEN7
  0
LAYER
  2
7A
 70
     0
 62
     4
  6
GEN7A
  0
LAYER
  2
RAHM2
 70
     0
 62
     1
  6
CONTINUOUS
  0
LAYER
  2
KOPF
 70
     0
 62
     3
  6
CONTINUOUS
  0
LAYER
  2
AM_BL
 70
     0
 62
     7
  6
CONTINUOUS
  0
LAYER
  2
8
 70
     0
 62
     1
  6
CONTINUOUS
  0
ENDTAB
  0
TABLE
  2
STYLE
 70
     6
  0
STYLE
  2
STANDARD
 70
     0
 40
0.0
 41
1.0
 50
0.0
 71
     0
 42
2.5
  3
geniso.shx
  4

  0
STYLE
  2

 70
     1
 40
0.0
 41
1.0
 50
0.0
 71
     0
 42
3.5
  3
genltshp.shx
  4

  0
STYLE
  2
ACISOTS
 70
     0
 40
1.0
 41
1.0
 50
0.0
 71
     0
 42
2.5
  3
isocp.shx
  4

  0
STYLE
  2
ACISOGDT
 70
     0
 40
0.0
 41
1.0
 50
0.0
 71
     0
 42
2.5
  3
amgdt.shx
  4

  0
STYLE
  2
ACANSTS
 70
     0
 40
1.0
 41
1.0
 50
0.0
 71
     0
 42
2.5
  3
romans.shx
  4

  0
STYLE
  2
ACANSGDT
 70
     0
 40
0.0
 41
1.0
 50
0.0
 71
     0
 42
2.5
  3
amgdtans.shx
  4

  0
ENDTAB
  0
TABLE
  2
VIEW
 70
     6
  0
VIEW
  2
AM_VIEW1
 70
     1
 40
210.0
 10
26.983098658533841
 20
209.99779259018121
 41
350.97674418604652
 11
0.0
 21
0.0
 31
1.0
 12
0.0
 22
0.0
 32
0.0
 42
50.0
 43
0.0
 44
0.0
 50
0.0
 71
     0
  0
VIEW
  2
AM_VIEW2
 70
     1
 40
210.0
 10
270.00635447248732
 20
209.99779259018121
 41
350.97674418604652
 11
0.0
 21
0.0
 31
1.0
 12
0.0
 22
0.0
 32
0.0
 42
50.0
 43
0.0
 44
0.0
 50
0.0
 71
     0
  0
VIEW
  2
AM_VIEW3
 70
     1
 40
210.0
 10
26.983098658533841
 20
-0.0022074098188227
 41
350.97674418604652
 11
0.0
 21
0.0
 31
1.0
 12
0.0
 22
0.0
 32
0.0
 42
50.0
 43
0.0
 44
0.0
 50
0.0
 71
     0
  0
VIEW
  2
AM_VIEW4
 70
     1
 40
210.0
 10
270.00635447248732
 20
-0.0022074098188227
 41
350.97674418604652
 11
0.0
 21
0.0
 31
1.0
 12
0.0
 22
0.0
 32
0.0
 42
50.0
 43
0.0
 44
0.0
 50
0.0
 71
     0
  0
VIEW
  2
AM_VIEW5
 70
     1
 40
210.0
 10
148.49472656551049
 20
104.99779259018121
 41
350.97674418604652
 11
0.0
 21
0.0
 31
1.0
 12
0.0
 22
0.0
 32
0.0
 42
50.0
 43
0.0
 44
0.0
 50
0.0
 71
     0
  0
VIEW
  2
AM_VIEW6
 70
     1
 40
419.99579999999997
 10
148.49472656551049
 20
104.99779259018121
 41
701.94646883720918
 11
0.0
 21
0.0
 31
1.0
 12
0.0
 22
0.0
 32
0.0
 42
50.0
 43
0.0
 44
0.0
 50
0.0
 71
     0
  0
ENDTAB
  0
TABLE
  2
UCS
 70
     0
  0
ENDTAB
  0
TABLE
  2
APPID
 70
   281
  0
APPID
  2
ACAD
 70
     0
  0
APPID
  2
MCAD_NO_VIS
 70
     0
  0
APPID
  2
ACAD_TEMP_GRAPHIC
 70
     0
  0
APPID
  2
AD_DRAW
 70
     0
  0
APPID
  2
DESIGNERASSEMBLIES
 70
     0
  0
APPID
  2
ASURF_PCURVE_APPNAME
 70
     0
  0
APPID
  2
GENIUS_GENCFG_13
 70
     0
  0
APPID
  2
GENIUS_GENCFG0_13
 70
     0
  0
APPID
  2
GENIUS_GENCFG1_13
 70
     0
  0
APPID
  2
GENIUS_GENCFG2_13
 70
     0
  0
APPID
  2
GENIUS_GENCFG3_13
 70
     0
  0
APPID
  2
GENIUS_GENCFG4_13
 70
     0
  0
APPID
  2
GENIUS_GEVCFG0_13
 70
     0
  0
APPID
  2
GENIUS_GENBLLY_14
 70
     0
  0
APPID
  2
GENIUS_GENOENT_13
 70
     0
  0
APPID
  2
GENIUS_GENODEF_13
 70
     0
  0
APPID
  2
GENIUS_GENOBJ-N-TIT_13
 70
     0
  0
APPID
  2
GENIUS_GENTITLE_13
 70
     0
  0
APPID
  2
GENIUS_GENOREF_13
 70
     0
  0
APPID
  2
GENIUS_GENOLIS_13
 70
     0
  0
APPID
  2
GENIUS_GENZVEED_13
 70
     0
  0
APPID
  2
GENIUS_GENOBJ-N-SDF_13
 70
     0
  0
APPID
  2
GENIUS_GENSCREG_13
 70
     0
  0
APPID
  2
GENIUS_GENOBJ-N-CRS_13
 70
     0
  0
APPID
  2
GEV_VCCNULL_SWITCH_OFF
 70
     0
  0
APPID
  2
GENIUS_GENDTOL_13
 70
     0
  0
APPID
  2
GENIUS_GENOBJ-N-FIL_13
 70
     0
  0
APPID
  2
GENIUS_GEFCFG0_13
 70
     0
  0
APPID
  2
GEVID928746246
 70
     0
  0
APPID
  2
GEVDC
 70
     0
  0
APPID
  2
GEVPT
 70
     0
  0
APPID
  2
GEVIT
 70
     0
  0
APPID
  2
VCC
 70
     0
  0
APPID
  2
GENBH
 70
     0
  0
APPID
  2
GEVMK
 70
     0
  0
APPID
  2
GENIUS_GENBH_13
 70
     0
  0
APPID
  2
GENIUS_GENOBJ-NBEHI-BHF_13
 70
     0
  0
APPID
  2
GENIUS_GENOBJ-NBEHI-BHB_13
 70
     0
  0
APPID
  2
GENIUS_GENOBJ-F-PART_13
 70
     0
  0
APPID
  2
GENIUS_GEFSTDP_13
 70
     0
  0
APPID
  2
GENIUS_GEFPARTINS_13
 70
     0
  0
APPID
  2
GENIUS_GENTRA_14
 70
     0
  0
APPID
  2
GEVID928746247
 70
     0
  0
APPID
  2
GEVID928746248
 70
     0
  0
APPID
  2
GENIUS_GENOBJ-N-CEN_13
 70
     0
  0
APPID
  2
GENIUS_GENFIL_13
 70
     0
  0
APPID
  2
GENIUS_GENOBJ-N-CHA_13
 70
     0
  0
APPID
  2
GEVID928753621
 70
     0
  0
APPID
  2
GENIUS_GENOBJ-F-DESC_13
 70
     0
  0
APPID
  2
GENIUS_GEFDESC_14
 70
     0
  0
APPID
  2
GENIUS_GENOBJ-F-FEAT_13
 70
     0
  0
APPID
  2
GENIUS_GEFFEAT_14
 70
     0
  0
APPID
  2
GEVID928753718
 70
     0
  0
APPID
  2
GEVID928753720
 70
     0
  0
APPID
  2
GEVID928753722
 70
     0
  0
APPID
  2
GEVID928753622
 70
     0
  0
APPID
  2
GEVID928753623
 70
     0
  0
APPID
  2
GEVID928818995
 70
     0
  0
APPID
  2
GEVID928818996
 70
     0
  0
APPID
  2
GEVID928818997
 70
     0
  0
APPID
  2
GENIUS_GENOBJ-F-ROD_13
 70
     0
  0
APPID
  2
GENIUS_GENOBJ-F-SPR_13
 70
     0
  0
APPID
  2
GENIUS_GEFSPRING_13
 70
     0
  0
APPID
  2
GENIUS_GEFSPRINGP_13
 70
     0
  0
APPID
  2
GEVID928904029
 70
     0
  0
APPID
  2
GEVID928904030
 70
     0
  0
APPID
  2
GEVID928904031
 70
     0
  0
APPID
  2
GEVID928904032
 70
     0
  0
APPID
  2
GEVID928904033
 70
     0
  0
APPID
  2
GEVID928904034
 70
     0
  0
APPID
  2
GEVID928904035
 70
     0
  0
APPID
  2
GEVID928904036
 70
     0
  0
APPID
  2
GEVID928910790
 70
     0
  0
APPID
  2
GEVID928910791
 70
     0
  0
APPID
  2
GEVID928910792
 70
     0
  0
APPID
  2
GEVID928911471
 70
     0
  0
APPID
  2
GEVID928912316
 70
     0
  0
APPID
  2
GENIUS_GENOBJ-N-HTC_13
 70
     0
  0
APPID
  2
GENIUS_GENHATCH_13
 70
     0
  0
APPID
  2
GEVID928933901
 70
     0
  0
APPID
  2
GEVID928933902
 70
     0
  0
APPID
  2
GEVID928933903
 70
     0
  0
APPID
  2
GEVID928933904
 70
     0
  0
APPID
  2
GEVID928934579
 70
     0
  0
APPID
  2
GEVID928933906
 70
     0
  0
APPID
  2
GEVCON
 70
     0
  0
APPID
  2
GENIUS_GENINF13_13
 70
     0
  0
APPID
  2
GENIUS_GENOBJ-N-INFOPT_13
 70
     0
  0
APPID
  2
GENIUS_GENOBJ-N-RSSYM_13
 70
     0
  0
APPID
  2
GENIUS_GENSYMENT_13
 70
     0
  0
APPID
  2
GENIUS_GENSCSYM_13
 70
     0
  0
APPID
  2
GENIUS_GEFINFNAM_13
 70
     0
  0
APPID
  2
GEVID928933907
 70
     0
  0
APPID
  2
GEVID928933908
 70
     0
  0
APPID
  2
GEVID928933909
 70
     0
  0
APPID
  2
GEVID928935373
 70
     0
  0
APPID
  2
GEVID928935471
 70
     0
  0
APPID
  2
GEVID928933910
 70
     0
  0
APPID
  2
GEVID928936518
 70
     0
  0
APPID
  2
GEVID928936519
 70
     0
  0
APPID
  2
GEVID928933911
 70
     0
  0
APPID
  2
GEVID928933912
 70
     0
  0
APPID
  2
GEVID928933913
 70
     0
  0
APPID
  2
GEVID928933914
 70
     0
  0
APPID
  2
GEVID928933915
 70
     0
  0
APPID
  2
GEVID928933916
 70
     0
  0
APPID
  2
GEVID928933917
 70
     0
  0
APPID
  2
GEVID928933918
 70
     0
  0
APPID
  2
GEVID928933919
 70
     0
  0
APPID
  2
GEVID928933920
 70
     0
  0
APPID
  2
GENIUS_GENDREL_13
 70
     0
  0
APPID
  2
GEVID928933921
 70
     0
  0
APPID
  2
GEVID928933922
 70
     0
  0
APPID
  2
GEVID928933923
 70
     0
  0
APPID
  2
GEVID928933924
 70
     0
  0
APPID
  2
GENIUS_GENHINW_13
 70
     0
  0
APPID
  2
GENIUS_FIRSTVISTXT_14
 70
     0
  0
APPID
  2
GENIUS_GENOBJ-N-LEADER_13
 70
     0
  0
APPID
  2
GEVID929100357
 70
     0
  0
APPID
  2
GEVID929100358
 70
     0
  0
APPID
  2
GEVID929100359
 70
     0
  0
APPID
  2
GEVID929100360
 70
     0
  0
APPID
  2
GEVID929100361
 70
     0
  0
APPID
  2
GEVID929100362
 70
     0
  0
APPID
  2
GEVID929101388
 70
     0
  0
APPID
  2
GEVID929101389
 70
     0
  0
APPID
  2
GEVID929101390
 70
     0
  0
APPID
  2
GEVID929101391
 70
     0
  0
APPID
  2
GEVID929101392
 70
     0
  0
APPID
  2
GEVID929101393
 70
     0
  0
APPID
  2
GEVID929101528
 70
     0
  0
APPID
  2
GEVID929101607
 70
     0
  0
APPID
  2
GEVID929102040
 70
     0
  0
APPID
  2
GEVID929105762
 70
     0
  0
APPID
  2
GEVID929105763
 70
     0
  0
APPID
  2
GEVID929105766
 70
     0
  0
APPID
  2
GEVID929105843
 70
     0
  0
APPID
  2
GEVID929105935
 70
     0
  0
APPID
  2
GEVID929106969
 70
     0
  0
APPID
  2
GEVID929106970
 70
     0
  0
APPID
  2
GEVID929106971
 70
     0
  0
APPID
  2
GEVID929106972
 70
     0
  0
APPID
  2
GEVID929106973
 70
     0
  0
APPID
  2
GEVID929106974
 70
     0
  0
APPID
  2
GEVID929106975
 70
     0
  0
APPID
  2
GEVID929106976
 70
     0
  0
APPID
  2
GEVID929106977
 70
     0
  0
APPID
  2
GEVID929107035
 70
     0
  0
APPID
  2
GEVID929107036
 70
     0
  0
APPID
  2
GEVID929107037
 70
     0
  0
APPID
  2
GEVID929107489
 70
     0
  0
APPID
  2
GEVID929107490
 70
     0
  0
APPID
  2
GENIUS_GENDIM_13
 70
     0
  0
APPID
  2
GENIUS_GENOBJ-N-DIM_13
 70
     0
  0
APPID
  2
GEVID929102041
 70
     0
  0
APPID
  2
GEVID929102042
 70
     0
  0
APPID
  2
GEVID929171771
 70
     0
  0
APPID
  2
GEVID929171772
 70
     0
  0
APPID
  2
GENIUS_GE3CFG0_13
 70
     0
  0
APPID
  2
GENIUS_GE3SECT_13
 70
     0
  0
APPID
  2
GENIUS_GENREC_14
 70
     0
  0
APPID
  2
GENIUS_GENOBJ-N-REC_13
 70
     0
  0
APPID
  2
ACATTRIBSERVICES
 70
     0
  0
APPID
  2
GENIUS_GENSCREG_15
 70
     0
  0
APPID
  2
GENIUS_GENOBJ-N-DIMLI_13
 70
     0
  0
APPID
  2
GEVID995284313
 70
     0
  0
APPID
  2
GEVID995284327
 70
     0
  0
APPID
  2
GEVID995284331
 70
     0
  0
APPID
  2
GEVID995284334
 70
     0
  0
APPID
  2
GEVID995284337
 70
     0
  0
APPID
  2
GEVID995284339
 70
     0
  0
APPID
  2
GEVID995284341
 70
     0
  0
APPID
  2
GEVID995284343
 70
     0
  0
APPID
  2
GEVID995284349
 70
     0
  0
APPID
  2
GEVID995284354
 70
     0
  0
APPID
  2
GEVID995284361
 70
     0
  0
APPID
  2
GEVID995284364
 70
     0
  0
APPID
  2
GEVID995284372
 70
     0
  0
APPID
  2
GEVID995284375
 70
     0
  0
APPID
  2
GEVID995284378
 70
     0
  0
APPID
  2
GEVID995284383
 70
     0
  0
APPID
  2
GEVID995284386
 70
     0
  0
APPID
  2
GEVID995284390
 70
     0
  0
APPID
  2
GEVID995284393
 70
     0
  0
APPID
  2
GEVID995284396
 70
     0
  0
APPID
  2
GEVID995284399
 70
     0
  0
APPID
  2
GEVID995284403
 70
     0
  0
APPID
  2
GEVID995284415
 70
     0
  0
APPID
  2
GEVID995284417
 70
     0
  0
APPID
  2
GEVID995284423
 70
     0
  0
APPID
  2
GEVID995284426
 70
     0
  0
APPID
  2
GEVID995284437
 70
     0
  0
APPID
  2
GEVID995284442
 70
     0
  0
APPID
  2
GEVID995284444
 70
     0
  0
APPID
  2
GEVID995284447
 70
     0
  0
APPID
  2
GEVID995284450
 70
     0
  0
APPID
  2
GEVID995284455
 70
     0
  0
APPID
  2
GEVID995284459
 70
     0
  0
APPID
  2
GEVID995284462
 70
     0
  0
APPID
  2
GEVID995284466
 70
     0
  0
APPID
  2
GEVID995284469
 70
     0
  0
APPID
  2
GEVID995284511
 70
     0
  0
APPID
  2
GEVID995284557
 70
     0
  0
APPID
  2
GEVID995284314
 70
     0
  0
APPID
  2
GEVID995285645
 70
     0
  0
APPID
  2
GEVID995285646
 70
     0
  0
APPID
  2
GEVID995285647
 70
     0
  0
APPID
  2
GEVID995285648
 70
     0
  0
APPID
  2
GEVID995285649
 70
     0
  0
APPID
  2
GEVID995285650
 70
     0
  0
APPID
  2
GEVID995285651
 70
     0
  0
APPID
  2
GEVID995285652
 70
     0
  0
APPID
  2
GEVID995285653
 70
     0
  0
APPID
  2
GEVID995285654
 70
     0
  0
APPID
  2
GEVID995285907
 70
     0
  0
APPID
  2
GEVID1019120722
 70
     0
  0
APPID
  2
GEVID1019120723
 70
     0
  0
APPID
  2
GEVID1019120724
 70
     0
  0
APPID
  2
GEVID1019120725
 70
     0
  0
APPID
  2
GEVID1019120726
 70
     0
  0
APPID
  2
GEVID1019120727
 70
     0
  0
APPID
  2
GEVID1019120728
 70
     0
  0
APPID
  2
GEVID1019120729
 70
     0
  0
APPID
  2
GEVID1019120730
 70
     0
  0
APPID
  2
GEVID1019120731
 70
     0
  0
APPID
  2
GEVID1019120732
 70
     0
  0
APPID
  2
GEVID1019120733
 70
     0
  0
APPID
  2
GEVID1019120734
 70
     0
  0
APPID
  2
GEVID1019120735
 70
     0
  0
APPID
  2
GEVID1019120736
 70
     0
  0
APPID
  2
GEVID1019120737
 70
     0
  0
APPID
  2
GEVID1019120738
 70
     0
  0
APPID
  2
GEVID1019120739
 70
     0
  0
APPID
  2
GEVID1019120740
 70
     0
  0
APPID
  2
GEVID1019120741
 70
     0
  0
APPID
  2
GEVID1019120742
 70
     0
  0
APPID
  2
GEVID1019120743
 70
     0
  0
APPID
  2
GEVID1019120744
 70
     0
  0
APPID
  2
GEVID1019120745
 70
     0
  0
APPID
  2
GEVID1019120746
 70
     0
  0
APPID
  2
GEVID1019120747
 70
     0
  0
APPID
  2
GEVID1019120748
 70
     0
  0
APPID
  2
GEVID1019120749
 70
     0
  0
APPID
  2
GEVID1019120750
 70
     0
  0
APPID
  2
GEVID1019120751
 70
     0
  0
APPID
  2
GEVID1019120752
 70
     0
  0
APPID
  2
GEVID1019120753
 70
     0
  0
APPID
  2
GEVID1019120754
 70
     0
  0
APPID
  2
GEVID1019120755
 70
     0
  0
APPID
  2
GEVID1019120756
 70
     0
  0
APPID
  2
GEVID1019120757
 70
     0
  0
APPID
  2
GEVID1019120758
 70
     0
  0
APPID
  2
GEVID1019120759
 70
     0
  0
APPID
  2
GEVID1019120760
 70
     0
  0
APPID
  2
GEVID1019120761
 70
     0
  0
APPID
  2
GEVID1019120762
 70
     0
  0
APPID
  2
GEVID1019120763
 70
     0
  0
APPID
  2
GEVID1019120764
 70
     0
  0
APPID
  2
GEVID1019120765
 70
     0
  0
APPID
  2
GEVID1019120766
 70
     0
  0
APPID
  2
GEVID1019120767
 70
     0
  0
APPID
  2
GEVID1019120768
 70
     0
  0
APPID
  2
GEVID1019120769
 70
     0
  0
APPID
  2
GEVID1019120770
 70
     0
  0
APPID
  2
GEVID1019120771
 70
     0
  0
APPID
  2
GEVID1019120772
 70
     0
  0
APPID
  2
GEVRADREF
 70
     0
  0
APPID
  2
GEVID1019120853
 70
     0
  0
APPID
  2
DCO15
 70
     0
  0
APPID
  2
ACAD_DIMASSOC_CALC_DIMLFAC
 70
     0
  0
APPID
  2
ACAD_DIMASSOC_DIMLFAC
 70
     0
  0
APPID
  2
ACAD_DIMASSOC_OVERRIDDEN_D
 70
     0
  0
APPID
  2
GENIUS_GENDIMSH_14
 70
     0
  0
APPID
  2
GEVID1102671489
 70
     0
  0
APPID
  2
GEVID1102671490
 70
     0
  0
APPID
  2
GEVID1102671491
 70
     0
  0
APPID
  2
GEVID1102671492
 70
     0
  0
APPID
  2
GEVID1102671493
 70
     0
  0
APPID
  2
GEVID1102671494
 70
     0
  0
APPID
  2
ACAD_NAV_VCDISPLAY
 70
     0
  0
APPID
  2
ACAD_MLEADERVER
 70
     0
  0
ENDTAB
  0
TABLE
  2
DIMSTYLE
 70
    14
  0
DIMSTYLE
  2
GEN-ISO
 70
     0
  3
<>
  4
"
  5

  6

  7

 40
1.0
 41
2.5
 42
0.0
 43
7.0
 44
1.0
 45
0.0
 46
0.0
 47
0.1
 48
0.1
140
3.5
141
0.0
142
0.0
143
0.0393701
144
1.0
145
0.0
146
0.71
147
0.6
 71
     0
 72
     0
 73
     0
 74
     0
 75
     0
 76
     0
 77
     1
 78
     0
170
     0
171
     2
172
     1
173
     0
174
     0
175
     0
176
     3
177
     3
178
     3
  0
DIMSTYLE
  2
GEN-ISO$3
 70
     0
  3
<>
  4
"
  5

  6

  7

 40
1.0
 41
2.5
 42
1.0
 43
7.0
 44
1.0
 45
0.0
 46
0.0
 47
0.1
 48
0.1
140
3.5
141
0.0
142
0.0
143
0.0393701
144
1.0
145
0.0
146
0.71
147
0.6
 71
     0
 72
     0
 73
     0
 74
     1
 75
     0
 76
     0
 77
     1
 78
     0
170
     0
171
     2
172
     1
173
     0
174
     0
175
     0
176
     3
177
     3
178
     3
  0
DIMSTYLE
  2
GEN-ISO$4
 70
     0
  3
<>
  4
"
  5

  6

  7

 40
1.0
 41
2.5
 42
1.0
 43
7.0
 44
1.0
 45
0.0
 46
0.0
 47
0.1
 48
0.1
140
3.5
141
0.0
142
0.0
143
0.0393701
144
1.0
145
0.0
146
0.71
147
0.6
 71
     0
 72
     0
 73
     0
 74
     1
 75
     0
 76
     0
 77
     1
 78
     0
170
     0
171
     2
172
     1
173
     0
174
     0
175
     0
176
     3
177
     3
178
     3
  0
DIMSTYLE
  2
GEN-ISO$6
 70
     0
  3
<>
  4
"
  5

  6

  7

 40
1.0
 41
2.5
 42
1.0
 43
7.0
 44
1.0
 45
0.0
 46
0.0
 47
0.1
 48
0.1
140
3.5
141
0.0
142
0.0
143
0.0393701
144
1.0
145
0.0
146
0.71
147
0.6
 71
     0
 72
     0
 73
     0
 74
     0
 75
     0
 76
     0
 77
     0
 78
     0
170
     0
171
     2
172
     1
173
     0
174
     0
175
     0
176
     3
177
     3
178
     3
  0
DIMSTYLE
  2
GEN-ISO-POS
 70
     0
  3
<>
  4
"
  5

  6

  7

 40
1.0
 41
2.5
 42
1.0
 43
7.0
 44
1.0
 45
0.0
 46
0.0
 47
0.1
 48
0.1
140
3.5
141
0.0
142
0.0
143
0.0393701
144
1.0
145
0.0
146
0.71
147
0.6
 71
     0
 72
     0
 73
     0
 74
     0
 75
     0
 76
     0
 77
     1
 78
     0
170
     0
171
     2
172
     1
173
     0
174
     0
175
     0
176
     3
177
     3
178
     3
  0
DIMSTYLE
  2
GEN-ISO-AXE-F
 70
     0
  3
<>
  4
"
  5

  6

  7

 40
1.0
 41
2.5
 42
1.0
 43
7.0
 44
1.0
 45
0.0
 46
0.0
 47
0.1
 48
0.1
140
3.5
141
0.0
142
0.0
143
0.0393701
144
1.0
145
0.0
146
0.71
147
0.6
 71
     0
 72
     0
 73
     0
 74
     0
 75
     1
 76
     1
 77
     1
 78
     0
170
     0
171
     2
172
     1
173
     0
174
     0
175
     0
176
     3
177
     3
178
     3
  0
DIMSTYLE
  2
GEN-ISO-AXE-H
 70
     0
  3
<>
  4
"
  5

  6

  7

 40
1.0
 41
2.5
 42
1.0
 43
7.0
 44
1.0
 45
0.0
 46
0.0
 47
0.1
 48
0.1
140
3.5
141
0.0
142
0.0
143
0.0393701
144
2.0
145
0.0
146
0.71
147
0.6
 71
     0
 72
     0
 73
     0
 74
     0
 75
     1
 76
     1
 77
     1
 78
     0
170
     0
171
     2
172
     1
173
     0
174
     0
175
     0
176
     3
177
     3
178
     3
  0
DIMSTYLE
  2
AM_ANSI
 70
     0
  3

  4
mm
  5

  6

  7

 40
1.0
 41
0.1
 42
0.05
 43
0.5
 44
0.1
 45
0.0
 46
0.0
 47
0.1
 48
0.1
140
0.12
141
0.0
142
0.0
143
25.399999999999999
144
1.0
145
0.0
146
0.71
147
0.06
 71
     0
 72
     0
 73
     1
 74
     1
 75
     0
 76
     0
 77
     0
 78
     7
170
     0
171
     2
172
     0
173
     0
174
     0
175
     0
176
   256
177
   256
178
     2
  0
DIMSTYLE
  2
AM_ANSI$3
 70
     0
  3

  4
mm
  5

  6

  7

 40
1.0
 41
0.1
 42
0.05
 43
0.5
 44
0.1
 45
0.0
 46
0.0
 47
0.1
 48
0.1
140
0.12
141
0.0
142
0.0
143
25.399999999999999
144
1.0
145
0.0
146
0.71
147
0.06
 71
     0
 72
     0
 73
     1
 74
     1
 75
     0
 76
     0
 77
     0
 78
     7
170
     0
171
     2
172
     0
173
     0
174
     0
175
     0
176
   256
177
   256
178
     2
  0
DIMSTYLE
  2
AM_ANSI$4
 70
     0
  3

  4
mm
  5

  6

  7

 40
1.0
 41
0.1
 42
0.05
 43
0.5
 44
0.1
 45
0.0
 46
0.0
 47
0.1
 48
0.1
140
0.12
141
0.0
142
0.0
143
25.399999999999999
144
1.0
145
0.0
146
0.71
147
0.06
 71
     0
 72
     0
 73
     1
 74
     1
 75
     0
 76
     0
 77
     0
 78
     7
170
     0
171
     2
172
     0
173
     0
174
     0
175
     0
176
   256
177
   256
178
     2
  0
DIMSTYLE
  2
AM_ANSI$7
 70
     0
  3

  4
mm
  5

  6

  7

 40
1.0
 41
0.1
 42
0.05
 43
0.5
 44
0.1
 45
0.0
 46
0.0
 47
0.1
 48
0.1
140
0.24
141
0.0
142
0.0
143
25.399999999999999
144
1.0
145
0.0
146
0.71
147
0.06
 71
     0
 72
     0
 73
     1
 74
     1
 75
     0
 76
     0
 77
     0
 78
     7
170
     0
171
     2
172
     0
173
     0
174
     0
175
     0
176
   256
177
   256
178
     2
  0
DIMSTYLE
  2
AM_ANSI$SF
 70
     0
  3

  4
mm
  5

  6

  7

 40
1.0
 41
0.1
 42
0.05
 43
0.5
 44
0.1
 45
0.0
 46
0.0
 47
0.1
 48
0.1
140
0.12
141
0.0
142
0.0
143
25.399999999999999
144
1.0
145
0.0
146
0.71
147
0.06
 71
     0
 72
     0
 73
     1
 74
     1
 75
     1
 76
     1
 77
     0
 78
     7
170
     0
171
     2
172
     0
173
     0
174
     0
175
     0
176
   256
177
   256
178
     2
  0
DIMSTYLE
  2
AM_ANSI$SH
 70
     0
  3

  4
mm
  5

  6

  7

 40
1.0
 41
0.1
 42
0.05
 43
0.5
 44
0.1
 45
0.0
 46
0.0
 47
0.1
 48
0.1
140
0.12
141
0.0
142
0.0
143
25.399999999999999
144
1.0
145
0.0
146
0.71
147
0.06
 71
     0
 72
     0
 73
     1
 74
     1
 75
     1
 76
     1
 77
     0
 78
     7
170
     0
171
     2
172
     0
173
     0
174
     0
175
     0
176
   256
177
   256
178
     2
  0
DIMSTYLE
  2
ISO-25
 70
     0
  3

  4

  5

  6

  7

 40
1.0
 41
2.5
 42
0.625
 43
3.75
 44
1.25
 45
0.0
 46
0.0
 47
0.0
 48
0.0
140
2.5
141
2.5
142
0.0
143
0.03937007874016
144
1.0
145
0.0
146
1.0
147
0.625
 71
     0
 72
     0
 73
     0
 74
     0
 75
     0
 76
     0
 77
     1
 78
     8
170
     0
171
     3
172
     1
173
     0
174
     0
175
     0
176
     0
177
     0
178
     0
  0
ENDTAB
  0
ENDSEC
  0
SECTION
  2
BLOCKS
  0
BLOCK
  8
0
  2
$MODEL_SPACE
 70
     0
 10
0.0
 20
0.0
 30
0.0
  3
$MODEL_SPACE
  1

  0
ENDBLK
  5
21
  8
0
  0
BLOCK
 67
     1
  8
0
  2
$PAPER_SPACE
 70
     0
 10
0.0
 20
0.0
 30
0.0
  3
$PAPER_SPACE
  1

  0
ENDBLK
  5
53
 67
     1
  8
0
  0
BLOCK
  8
0
  2
GEN_A4
 70
     0
 10
0.0
 20
0.0
 30
0.0
  3
GEN_A4
  1

  0
LINE
  5
E02
  8
RAHM2
 10
205.0
 20
287.0
 30
0.0
 11
205.0
 21
292.0
 31
0.0
  0
LINE
  5
E03
  8
RAHM2
 10
0.0
 20
0.0
 30
0.0
 11
210.0
 21
0.0
 31
0.0
  0
LINE
  5
E04
  8
RAHM2
 10
210.0
 20
297.0
 30
0.0
 11
0.0
 21
297.0
 31
0.0
  0
LINE
  5
E05
  8
RAHM2
 10
0.0
 20
297.0
 30
0.0
 11
0.0
 21
0.0
 31
0.0
  0
LINE
  5
E06
  8
0
 10
15.0
 20
5.0
 30
0.0
 11
205.0
 21
5.0
 31
0.0
  0
LINE
  5
E07
  8
0
 10
205.0
 20
5.0
 30
0.0
 11
205.0
 21
287.0
 31
0.0
  0
LINE
  5
E08
  8
RAHM2
 10
205.0
 20
292.0
 30
0.0
 11
15.0
 21
292.0
 31
0.0
  0
LINE
  5
E09
  8
RAHM2
 10
15.0
 20
292.0
 30
0.0
 11
15.0
 21
287.0
 31
0.0
  0
LINE
  5
E0A
  8
RAHM2
 10
62.5
 20
292.0
 30
0.0
 11
62.5
 21
287.0
 31
0.0
  0
TEXT
  5
E0B
  8
RAHM2
 10
37.399999999999999
 20
287.5
 30
0.0
 40
4.0
  1
1
  0
TEXT
  5
E0C
  8
RAHM2
 10
84.900000000000006
 20
287.5
 30
0.0
 40
4.0
  1
2
  0
LINE
  5
E0D
  8
RAHM2
 10
110.0
 20
292.0
 30
0.0
 11
110.0
 21
287.0
 31
0.0
  0
TEXT
  5
E0E
  8
RAHM2
 10
132.40000000000001
 20
287.5
 30
0.0
 40
4.0
  1
3
  0
LINE
  5
E0F
  8
RAHM2
 10
157.5
 20
292.0
 30
0.0
 11
157.5
 21
287.0
 31
0.0
  0
TEXT
  5
E10
  8
RAHM2
 10
179.90000000000001
 20
287.5
 30
0.0
 40
4.0
  1
4
  0
LINE
  5
E11
  8
RAHM2
 10
15.0
 20
292.0
 30
0.0
 11
10.0
 21
292.0
 31
0.0
  0
LINE
  5
E12
  8
0
 10
15.0
 20
287.0
 30
0.0
 11
205.0
 21
287.0
 31
0.0
  0
TEXT
  5
E13
  8
RAHM2
 10
11.15
 20
120.5
 30
0.0
 40
4.0
  1
D
  0
LINE
  5
E14
  8
RAHM2
 10
10.0
 20
146.0
 30
0.0
 11
15.0
 21
146.0
 31
0.0
  0
TEXT
  5
E15
  8
RAHM2
 10
11.15
 20
167.5
 30
0.0
 40
4.0
  1
C
  0
LINE
  5
E16
  8
RAHM2
 10
10.0
 20
193.0
 30
0.0
 11
15.0
 21
193.0
 31
0.0
  0
TEXT
  5
E17
  8
RAHM2
 10
11.15
 20
214.5
 30
0.0
 40
4.0
  1
B
  0
LINE
  5
E18
  8
RAHM2
 10
10.0
 20
240.0
 30
0.0
 11
15.0
 21
240.0
 31
0.0
  0
TEXT
  5
E19
  8
RAHM2
 10
11.15
 20
261.5
 30
0.0
 40
4.0
  1
A
  0
LINE
  5
E1A
  8
RAHM2
 10
10.0
 20
99.0
 30
0.0
 11
15.0
 21
99.0
 31
0.0
  0
LINE
  5
E1B
  8
RAHM2
 10
10.0
 20
99.0
 30
0.0
 11
10.0
 21
292.0
 31
0.0
  0
TEXT
  5
E1C
  8
0
 10
210.0
 20
297.0
 30
0.0
 40
3.5
  1
!GENTITLE-MAX
  0
TEXT
  5
E1D
  8
0
 10
205.0
 20
287.0
 30
0.0
 40
3.5
  1
!GENTITLE-RU
  0
TEXT
  5
E1E
  8
0
 10
15.0
 20
59.990000000000002
 30
0.0
 40
3.5
  1
!GENTITLE-LL
  0
TEXT
  5
E1F
  8
0
 10
205.0
 20
5.0
 30
0.0
 40
3.5
  1
!GENTITLE-INSERT
  0
LINE
  5
E20
  8
0
 10
15.0
 20
287.0
 30
0.0
 11
15.0
 21
5.0
 31
0.0
  0
LINE
  5
E21
  8
RAHM2
 10
210.0
 20
0.0
 30
0.0
 11
210.0
 21
297.0
 31
0.0
  0
ENDBLK
  5
E23
  8
0
  0
BLOCK
  8
0
  2
WKK_STÜCKZEICHNUNGEN
 70
     2
 10
0.0
 20
0.0
 30
0.0
  3
WKK_STÜCKZEICHNUNGEN
  1

  0
INSERT
  5
E2E
  8
KOPF
  6
CONTINUOUS
 62
     5
  2
*U5
 10
0.0
 20
0.0
 30
0.0
1001
ACAD
1002
{
1000
R14_HATCH_DATA
1000
E2E
1011
1.0
1021
0.0
1031
0.0
1021
0.0
1031
0.0
1011
0.0
1021
0.0
1031
0.0
1021
1.0
1031
0.0
1011
0.0
1021
0.0
1031
0.0
1021
0.0
1031
1.0
1040
0.0
1010
0.0
1020
0.0
1030
1.0
1000
SOLID
1070
     1
1070
     1
1071
        4
1071
       23
1070
     0
1070
     1
1071
       13
1040
-93.258745144278748
1040
4.6479256370769253
1040
-91.865705699916646
1040
8.4752700548711726
1040
-90.4726662555546
1040
4.6479256370769262
1040
-88.626203235977471
1040
4.6479256370769262
1040
-86.435030462258425
1040
10.668123354993501
1040
-88.031297120972397
1040
10.668123354993501
1040
-89.549434745766021
1040
6.497074511248587
1040
-91.067572370559645
1040
10.668123354993501
1040
-92.663839029273575
1040
10.668123354993501
1040
-94.181976654067213
1040
6.4970745112484467
1040
-95.700114278860895
1040
10.668123354993501
1040
-97.296380937574796
1040
10.668123354993501
1040
-95.105208163855806
1040
4.6479256370769217
1071
       13
1005
E4E
1005
E58
1005
E50
1005
E6D
1005
E4F
1005
E4D
1005
E6B
1005
E4A
1005
E4B
1005
E6C
1005
E49
1005
E57
1005
E4C
1071
       23
1070
     0
1070
     1
1071
       13
1040
-84.299561241688295
1040
7.2896819189407722
1040
-83.799561241688366
1040
7.2896819189407722
1040
-80.651238702018873
1040
4.6479256370769217
1040
-78.317652961728129
1040
4.6479256370769217
1040
-82.359790695843586
1040
8.0396819189407154
1040
-79.227336171504191
1040
10.668123354993501
1040
-81.560921911794821
1040
10.668123354993501
1040
-83.799561241688465
1040
8.7896819189407722
1040
-84.299561241688366
1040
8.7896819189407722
1040
-84.299561241688437
1040
10.668123354993501
1040
-85.799561241688437
1040
10.668123354993501
1040
-85.799561241688366
1040
4.6479256370769253
1040
-84.299561241688409
1040
4.6479256370769217
1071
       13
1005
E52
1005
E75
1005
E6A
1005
E70
1005
E6F
1005
E6E
1005
E51
1005
E59
1005
E5B
1005
E5A
1005
E56
1005
E61
1005
E60
1071
       23
1070
     0
1070
     1
1071
       13
1040
-75.820010571574926
1040
7.2896819189407731
1040
-72.671688031905362
1040
4.6479256370769209
1040
-70.338102291614646
1040
4.6479256370769226
1040
-74.380240025730075
1040
8.0396819189407154
1040
-71.24778550139068
1040
10.668123354993501
1040
-73.581371241681339
1040
10.668123354993501
1040
-75.820010571575054
1040
8.7896819189407722
1040
-76.320010571574869
1040
8.7896819189407722
1040
-76.320010571574926
1040
10.668123354993501
1040
-77.82001057157494
1040
10.66812335499351
1040
-77.820010571574855
1040
4.6479256370769253
1040
-76.320010571574912
1040
4.6479256370769226
1040
-76.320010571574869
1040
7.2896819189407713
1071
       13
1005
E54
1005
E76
1005
E71
1005
E73
1005
E74
1005
E72
1005
E53
1005
E5E
1005
E5F
1005
E5D
1005
E5C
1005
E63
1005
E62
1071
        7
1070
     0
1070
     1
1071
        8
1040
-68.520879871426345
1040
12.66812335499351
1040
-68.520879871426359
1040
2.6479256370769262
1040
-108.5125298512052
1040
2.6479256370769271
1040
-110.0125298512052
1040
1.1479256370769271
1040
-67.020879871426359
1040
1.1479256370769271
1040
-67.020879871426359
1040
14.16812335499351
1040
-100.6981308604266
1040
14.16812335499351
1040
-99.198130860426545
1040
12.668123354993501
1071
        8
1005
E64
1005
E67
1005
E65
1005
E48
1005
E36
1005
E3A
1005
E35
1005
E47
1070
     0
1070
     1
1040
0.1208120496928214
1071
        4
1040
-94.165544629189526
1040
5.5638292287631961
1040
0.0
1040
-84.737247523815753
1040
7.8592576084556489
1040
0.0
1040
-75.913329024917175
1040
7.9800696284395221
1040
0.0
1040
-81.352730576329805
1040
13.416612417465659
1040
0.0
1002
}
  0
INSERT
  5
E2F
  8
0
  2
*U6
 10
0.0
 20
0.0
 30
0.0
  0
TEXT
  5
E30
  8
KOPF
 10
-179.4901790706225
 20
50.914326214830432
 30
0.0
 40
2.0
  1
Änderungen
  0
ATTDEF
  5
E31
  8
KOPF
 62
     7
 10
-149.84470373094979
 20
20.949858261820498
 30
0.0
 40
2.0
  1

 41
0.9
  3
Artikel-Nr.
  2
ARTNR
 70
     0
  0
ATTDEF
  5
E32
  8
KOPF
 62
     7
 10
-179.6367794714125
 20
31.16629244855584
 30
0.0
 40
5.0
  1

 41
0.8
  3
Artikelbezeichnung
  2
ARTBEZ
 70
     0
  0
ATTDEF
  5
E33
  8
KOPF
 10
-168.07488181075391
 20
46.104735422043838
 30
0.0
 40
2.5
  1

  3
Änderung Datum
  2
AEN_D
 70
     0
  0
LINE
  5
E34
  8
KOPF
 10
-182.88
 20
39.300000000000047
 30
0.0
 11
-49.213883352982293
 21
39.300000000000047
 31
0.0
  0
LINE
  5
E35
  8
KOPF
 62
     5
 10
-67.020879871426359
 20
1.1479256370769271
 30
0.0
 11
-110.0125298512052
 21
1.1479256370769271
 31
0.0
  0
LINE
  5
E36
  8
KOPF
 62
     5
 10
-68.520879871426359
 20
2.6479256370769271
 30
0.0
 11
-108.5125298512052
 21
2.6479256370769271
 31
0.0
  0
LINE
  5
E37
  8
KOPF
 62
     7
 10
-182.88
 20
54.300000000000047
 30
0.0
 11
0.0
 21
54.300000000000047
 31
0.0
  0
LINE
  5
E38
  8
KOPF
 10
-182.88
 20
15.30000000000005
 30
0.0
 11
0.0
 21
15.30000000000005
 31
0.0
  0
LINE
  5
E39
  8
KOPF
 62
     7
 10
-182.87999999999991
 20
54.300000000000061
 30
0.0
 11
-182.88
 21
0.0
 31
0.0
  0
LINE
  5
E3A
  8
KOPF
 62
     5
 10
-108.5125298512052
 20
2.6479256370769302
 30
0.0
 11
-110.0125298512052
 21
1.147925637076928
 31
0.0
  0
ATTDEF
  5
E3B
  8
KOPF
 62
     7
 10
-179.56697186248709
 20
25.321206551968249
 30
0.0
 40
3.0
  1

 41
0.8
  3
Werkzeugart
  2
WZART
 70
     0
  0
ATTDEF
  5
E3C
  8
KOPF
 10
-179.56808729267649
 20
41.247006105965433
 30
0.0
 40
2.5
  1

 41
0.7
  3
Änderungstext
  2
AEN_TEXT
 70
     0
  0
ATTDEF
  5
E3D
  8
KOPF
 10
-179.56808729267649
 20
46.104735422043838
 30
0.0
 40
2.5
  1

  3
Änderungsindex
  2
INDEX
 70
     0
  0
TEXT
  5
E3E
  8
KOPF
 10
-61.54360113543737
 20
11.75704622056268
 30
0.0
 40
2.0
  1
Zeichnungsnummer
  0
TEXT
  5
E3F
  8
KOPF
 10
-48.490208852962731
 20
36.814619806467071
 30
0.0
 40
2.0
  1
Gezeichnet
  0
LINE
  5
E40
  8
KOPF
 10
-49.213883352982293
 20
21.80000000000005
 30
0.0
 11
0.0
 21
21.80000000000005
 31
0.0
  0
LINE
  5
E41
  8
KOPF
 10
-49.213883352982293
 20
28.30000000000005
 30
0.0
 11
0.0
 21
28.30000000000005
 31
0.0
  0
LINE
  5
E42
  8
KOPF
 10
-49.213883352982293
 20
34.800000000000061
 30
0.0
 11
0.0
 21
34.800000000000061
 31
0.0
  0
LINE
  5
E43
  8
KOPF
 10
-49.213883352982293
 20
41.300000000000047
 30
0.0
 11
0.0
 21
41.300000000000047
 31
0.0
  0
LINE
  5
E44
  8
KOPF
 10
-49.213883352982293
 20
47.800000000000047
 30
0.0
 11
0.0
 21
47.800000000000047
 31
0.0
  0
INSERT
  5
E45
  8
0
  2
*U7
 10
0.0
 20
0.0
 30
0.0
  0
LINE
  5
E46
  8
KOPF
 10
-64.704248749880207
 20
-0.0000000000000142
 30
0.0
 11
-64.704248749880207
 21
39.300000000000047
 31
0.0
  0
LINE
  5
E47
  8
KOPF
 62
     5
 10
-67.020879871426359
 20
14.16812335499351
 30
0.0
 11
-67.020879871426359
 21
1.1479256370769271
 31
0.0
  0
LINE
  5
E48
  8
KOPF
 62
     5
 10
-68.520879871426359
 20
12.668123354993501
 30
0.0
 11
-68.520879871426359
 21
2.6479256370769271
 31
0.0
  0
LINE
  5
E49
  8
KOPF
 62
     5
 10
-97.296380937574796
 20
10.66812335499349
 30
0.0
 11
-95.105208163855821
 21
4.6479256370769226
 31
0.0
  0
LINE
  5
E4A
  8
KOPF
 62
     5
 10
-92.663839029273575
 20
10.668123354993501
 30
0.0
 11
-94.181976654067213
 21
6.4970745112484423
 31
0.0
  0
LINE
  5
E4B
  8
KOPF
 62
     5
 10
-95.700114278860895
 20
10.66812335499349
 30
0.0
 11
-94.181976654067213
 21
6.4970745112484378
 31
0.0
  0
LINE
  5
E4C
  8
KOPF
 62
     5
 10
-91.865705699916646
 20
8.475270054871153
 30
0.0
 11
-93.258745144278748
 21
4.6479256370769271
 31
0.0
  0
LINE
  5
E4D
  8
KOPF
 62
     5
 10
-91.067572370559674
 20
10.66812335499349
 30
0.0
 11
-89.549434745766007
 21
6.4970745112485631
 31
0.0
  0
LINE
  5
E4E
  8
KOPF
 62
     5
 10
-91.865705699916646
 20
8.4752700548712383
 30
0.0
 11
-90.4726662555546
 21
4.6479256370769271
 31
0.0
  0
LINE
  5
E4F
  8
KOPF
 62
     5
 10
-88.031297120972397
 20
10.66812335499349
 30
0.0
 11
-89.549434745766007
 21
6.4970745112485728
 31
0.0
  0
LINE
  5
E50
  8
KOPF
 62
     5
 10
-88.626203235977471
 20
4.6479256370769253
 30
0.0
 11
-86.435030462258453
 21
10.668123354993501
 31
0.0
  0
LINE
  5
E51
  8
KOPF
 62
     5
 10
-85.799561241688437
 20
10.668123354993501
 30
0.0
 11
-85.799561241688366
 21
4.6479256370769253
 31
0.0
  0
LINE
  5
E52
  8
KOPF
 62
     5
 10
-79.227336171504191
 20
10.668123354993501
 30
0.0
 11
-82.359790695843586
 21
8.0396819189407154
 31
0.0
  0
LINE
  5
E53
  8
KOPF
 62
     5
 10
-77.820010571574926
 20
10.668123354993501
 30
0.0
 11
-77.820010571574855
 21
4.6479256370769253
 31
0.0
  0
LINE
  5
E54
  8
KOPF
 62
     5
 10
-71.247785501390695
 20
10.668123354993501
 30
0.0
 11
-74.380240025730075
 21
8.0396819189407154
 31
0.0
  0
ATTDEF
  5
E55
  8
KOPF
 62
     7
 10
-61.37290436382397
 20
4.1490763868111884
 30
0.0
 40
5.0
  1

 41
0.8
  3
Zeichnungsnummer
  2
Z_NR
 70
     0
  0
LINE
  5
E56
  8
KOPF
 62
     5
 10
-80.651238702018873
 20
4.6479256370769209
 30
0.0
 11
-83.799561241688366
 21
7.2896819189407722
 31
0.0
  0
LINE
  5
E57
  8
KOPF
 62
     5
 10
-95.105208163855821
 20
4.6479256370769226
 30
0.0
 11
-93.258745144278805
 21
4.6479256370769253
 31
0.0
  0
LINE
  5
E58
  8
KOPF
 62
     5
 10
-90.472666255554543
 20
4.6479256370769253
 30
0.0
 11
-88.626203235977471
 21
4.6479256370769253
 31
0.0
  0
LINE
  5
E59
  8
KOPF
 62
     5
 10
-85.799561241688366
 20
4.6479256370769253
 30
0.0
 11
-84.299561241688423
 21
4.6479256370769226
 31
0.0
  0
LINE
  5
E5A
  8
KOPF
 62
     5
 10
-84.299561241688295
 20
7.2896819189407722
 30
0.0
 11
-83.799561241688366
 21
7.2896819189407722
 31
0.0
  0
LINE
  5
E5B
  8
KOPF
 62
     5
 10
-84.299561241688295
 20
7.2896819189407722
 30
0.0
 11
-84.299561241688423
 21
4.6479256370769226
 31
0.0
  0
LINE
  5
E5C
  8
KOPF
 62
     5
 10
-72.671688031905376
 20
4.6479256370769209
 30
0.0
 11
-75.820010571574926
 21
7.2896819189407722
 31
0.0
  0
LINE
  5
E5D
  8
KOPF
 62
     5
 10
-76.320010571574869
 20
7.2896819189407722
 30
0.0
 11
-75.820010571574926
 21
7.2896819189407722
 31
0.0
  0
LINE
  5
E5E
  8
KOPF
 62
     5
 10
-77.820010571574855
 20
4.6479256370769253
 30
0.0
 11
-76.320010571574926
 21
4.6479256370769226
 31
0.0
  0
LINE
  5
E5F
  8
KOPF
 62
     5
 10
-76.320010571574869
 20
7.2896819189407722
 30
0.0
 11
-76.320010571574926
 21
4.6479256370769226
 31
0.0
  0
LINE
  5
E60
  8
KOPF
 62
     5
 10
-78.317652961728129
 20
4.6479256370769226
 30
0.0
 11
-82.359790695843586
 21
8.0396819189407154
 31
0.0
  0
LINE
  5
E61
  8
KOPF
 62
     5
 10
-80.651238702018873
 20
4.6479256370769209
 30
0.0
 11
-78.317652961728129
 21
4.6479256370769226
 31
0.0
  0
LINE
  5
E62
  8
KOPF
 62
     5
 10
-70.338102291614632
 20
4.6479256370769226
 30
0.0
 11
-74.380240025730075
 21
8.0396819189407154
 31
0.0
  0
LINE
  5
E63
  8
KOPF
 62
     5
 10
-72.671688031905376
 20
4.6479256370769209
 30
0.0
 11
-70.338102291614632
 21
4.6479256370769226
 31
0.0
  0
LINE
  5
E64
  8
KOPF
 62
     5
 10
-67.020879871426359
 20
14.16812335499351
 30
0.0
 11
-100.6981308604266
 21
14.16812335499351
 31
0.0
  0
LINE
  5
E65
  8
KOPF
 62
     5
 10
-68.520879871426359
 20
12.668123354993501
 30
0.0
 11
-99.198130860426545
 21
12.668123354993501
 31
0.0
  0
ATTDEF
  5
E66
  8
KOPF
 10
-150.20973970611439
 20
46.104735422043838
 30
0.0
 40
2.5
  1

  3
Änderer Name
  2
AEN
 70
     0
  0
LINE
  5
E67
  8
KOPF
 62
     5
 10
-100.6981308604266
 20
14.16812335499351
 30
0.0
 11
-99.198130860426545
 21
12.668123354993501
 31
0.0
  0
LINE
  5
E68
  8
KOPF
 10
-49.213883352982293
 20
54.300000000000047
 30
0.0
 11
-49.213883352982293
 21
15.30000000000005
 31
0.0
  0
ATTDEF
  5
E69
  8
KOPF
 62
     7
 10
-56.807937464916677
 20
26.765807660049621
 30
0.0
 40
3.5
  1

 72
     1
 11
-56.807937464916677
 21
26.765807660049621
 31
0.0
  3
Massstab
  2
TITLESCALE
 70
     0
  0
LINE
  5
E6A
  8
KOPF
 62
     5
 10
-81.560921911794821
 20
10.668123354993501
 30
0.0
 11
-83.799561241688465
 21
8.7896819189407722
 31
0.0
  0
LINE
  5
E6B
  8
KOPF
 62
     5
 10
-92.663839029273575
 20
10.668123354993501
 30
0.0
 11
-91.067572370559674
 21
10.668123354993501
 31
0.0
  0
LINE
  5
E6C
  8
KOPF
 62
     5
 10
-97.296380937574796
 20
10.668123354993501
 30
0.0
 11
-95.700114278860895
 21
10.668123354993501
 31
0.0
  0
LINE
  5
E6D
  8
KOPF
 62
     5
 10
-88.031297120972397
 20
10.668123354993501
 30
0.0
 11
-86.435030462258453
 21
10.668123354993501
 31
0.0
  0
LINE
  5
E6E
  8
KOPF
 62
     5
 10
-85.799561241688437
 20
10.668123354993501
 30
0.0
 11
-84.299561241688423
 21
10.668123354993501
 31
0.0
  0
LINE
  5
E6F
  8
KOPF
 62
     5
 10
-84.299561241688423
 20
10.668123354993501
 30
0.0
 11
-84.299561241688366
 21
8.7896819189407722
 31
0.0
  0
LINE
  5
E70
  8
KOPF
 62
     5
 10
-83.799561241688465
 20
8.7896819189407722
 30
0.0
 11
-84.299561241688366
 21
8.7896819189407722
 31
0.0
  0
LINE
  5
E71
  8
KOPF
 62
     5
 10
-73.581371241681325
 20
10.668123354993501
 30
0.0
 11
-75.82001057157504
 21
8.7896819189407722
 31
0.0
  0
LINE
  5
E72
  8
KOPF
 62
     5
 10
-77.820010571574926
 20
10.668123354993501
 30
0.0
 11
-76.320010571574926
 21
10.668123354993501
 31
0.0
  0
LINE
  5
E73
  8
KOPF
 62
     5
 10
-75.82001057157504
 20
8.7896819189407722
 30
0.0
 11
-76.320010571574869
 21
8.7896819189407722
 31
0.0
  0
LINE
  5
E74
  8
KOPF
 62
     5
 10
-76.320010571574926
 20
10.668123354993501
 30
0.0
 11
-76.320010571574869
 21
8.7896819189407722
 31
0.0
  0
LINE
  5
E75
  8
KOPF
 62
     5
 10
-81.560921911794821
 20
10.668123354993501
 30
0.0
 11
-79.227336171504191
 21
10.668123354993501
 31
0.0
  0
LINE
  5
E76
  8
KOPF
 62
     5
 10
-73.581371241681325
 20
10.668123354993501
 30
0.0
 11
-71.247785501390695
 21
10.668123354993501
 31
0.0
  0
TEXT
  5
E77
  8
KOPF
 10
-48.47634113397271
 20
30.388630474112389
 30
0.0
 40
2.0
  1
Geprüft
  0
LINE
  5
E78
  8
KOPF
 10
-64.704248749880207
 20
21.80000000000005
 30
0.0
 11
-49.213883352982293
 21
21.80000000000005
 31
0.0
  0
LINE
  5
E79
  8
KOPF
 10
-55.786043317819349
 20
18.481104096225511
 30
0.0
 11
-50.326534327332638
 21
18.481104096225511
 31
0.0
  0
LINE
  5
E7A
  8
KOPF
 10
-63.42657905125747
 20
19.681104096225489
 30
0.0
 11
-63.42657905125747
 21
17.281104096225519
 31
0.0
  0
CIRCLE
  5
E7B
  8
KOPF
 10
-52.779849173467703
 20
18.481104096225511
 30
0.0
 40
2.0
  0
LINE
  5
E7C
  8
KOPF
 10
-52.779849173467703
 20
20.93441894236064
 30
0.0
 11
-52.779849173467703
 21
16.027789250090379
 31
0.0
  0
LINE
  5
E7D
  8
KOPF
 10
-57.881540272390339
 20
20.481104096225511
 30
0.0
 11
-57.881540272390339
 21
16.481104096225511
 31
0.0
  0
CIRCLE
  5
E7E
  8
KOPF
 10
-52.779849173467703
 20
18.481104096225511
 30
0.0
 40
1.1999999999999991
  0
LINE
  5
E7F
  8
KOPF
 10
-63.957083900260621
 20
18.481104096225511
 30
0.0
 11
-57.047889795385338
 21
18.481104096225511
 31
0.0
  0
LINE
  5
E80
  8
KOPF
 10
-63.42657905125747
 20
17.281104096225519
 30
0.0
 11
-57.881540272390339
 21
16.481104096225511
 31
0.0
  0
LINE
  5
E81
  8
KOPF
 10
-63.42657905125747
 20
19.681104096225489
 30
0.0
 11
-57.881540272390339
 21
20.481104096225511
 31
0.0
  0
TEXT
  5
E82
  8
KOPF
 10
-48.490208852962731
 20
17.586345823800102
 30
0.0
 40
2.0
  1
Format
  0
TEXT
  5
E83
  8
KOPF
 10
-62.902686904290022
 20
35.253257299954491
 30
0.0
 40
2.0
  1
Massstab
  0
TEXT
  5
E84
  8
KOPF
 10
-48.47634113397271
 20
49.846503345097901
 30
0.0
 40
2.0
  1
geplottet
  0
ATTDEF
  5
E85
  8
KOPF
 62
     7
 10
-3.326970839573959
 20
4.1490763868111884
 30
0.0
 40
5.0
  1

 41
0.8
 72
     2
 11
-3.326970839573959
 21
4.1490763868111884
 31
0.0
  3
Index
  2
INDEX2
 70
     0
  0
LINE
  5
E86
  8
KOPF
 10
-32.01749519733562
 20
47.80000000000004
 30
0.0
 11
-32.01749519733562
 21
54.300000000000047
 31
0.0
  0
TEXT
  5
E87
  8
KOPF
 10
-7.6636435624004662
 20
12.034631705136499
 30
0.0
 40
2.0
  1
Index
  0
ATTDEF
  5
E88
  8
KOPF
 10
-16.253240910766181
 20
18.38514952725096
 30
0.0
 40
3.5
  1

 72
     4
 11
-16.253240910766181
 21
18.38514952725096
 31
0.0
  3
Format
  2
TITLESHEET
 70
     0
  0
LINE
  5
E89
  8
KOPF
 10
-16.517637221309311
 20
28.30000000000005
 30
0.0
 11
-16.517637221309311
 21
41.300000000000047
 31
0.0
  0
ATTDEF
  5
E8A
  8
KOPF
 10
-31.606904383026752
 20
30.27984465173493
 30
0.0
 40
2.5
  1

 41
0.75
  3
Geprüft Datum
  2
GEP_D
 70
     0
  0
ATTDEF
  5
E8B
  8
KOPF
 10
-15.521114072764471
 20
30.301404667705341
 30
0.0
 40
2.5
  1

  3
Prüfer Name
  2
GEP
 70
     0
  0
LINE
  5
E8C
  8
KOPF
 10
-32.01749519733562
 20
28.30000000000005
 30
0.0
 11
-32.01749519733562
 21
41.300000000000047
 31
0.0
  0
LINE
  5
E8D
  8
KOPF
 10
-32.01749519733562
 20
15.30000000000005
 30
0.0
 11
-32.01749519733562
 21
21.80000000000005
 31
0.0
  0
ATTDEF
  5
E8E
  8
KOPF
 10
-31.181067044757238
 20
49.801404667705341
 30
0.0
 40
2.5
  1

 41
0.65
  3
Plot Datum/Name
  2
PLOTINFO
 70
     0
  0
ATTDEF
  5
E8F
  8
KOPF
 10
-31.606904383026752
 20
36.779844651734933
 30
0.0
 40
2.5
  1

 41
0.75
  3
Gezeichnet Datum
  2
GEZ_D
 70
     0
  0
ATTDEF
  5
E90
  8
KOPF
 10
-15.521114072764471
 20
36.801404667705341
 30
0.0
 40
2.5
  1

  3
Zeichner Name
  2
GEZ
 70
     0
  0
TEXT
  5
E91
  8
KOPF
 10
-48.47634113397271
 20
43.346503345097901
 30
0.0
 40
2.0
  1
Werkzeug Nr.
  0
ATTDEF
  5
E92
  8
KOPF
 10
-1.687741339807985
 20
43.075524639338312
 30
0.0
 40
2.5
  1

 41
0.7
 72
     2
 11
-1.687741339807985
 21
43.075524639338312
 31
0.0
  3
Werkzeug Nr.
  2
WZ_NR
 70
     0
  0
ATTDEF
  5
E93
  8
KOPF
 10
-20.19431079412016
 20
23.77984465173494
 30
0.0
 40
2.5
  1

 41
0.75
 72
     2
 11
-20.19431079412016
 21
23.77984465173494
 31
0.0
  3
Blattnummer
  2
BLATT_NR
 70
     0
  0
TEXT
  5
E94
  8
KOPF
 10
-48.47634113397271
 20
23.888630474112389
 30
0.0
 40
2.0
  1
Blatt
  0
TEXT
  5
E95
  8
KOPF
 10
-18.551459792708211
 20
23.888630474112389
 30
0.0
 40
2.0
  1
von
  0
ATTDEF
  5
E96
  8
KOPF
 10
-12.16568434955491
 20
23.77984465173494
 30
0.0
 40
2.5
  1

 41
0.75
  3
Anzahl Blätter
  2
BLATT_SUM
 70
     0
  0
TEXT
  5
E97
  8
KOPF
 10
-179.56017085835799
 20
21.086345823800102
 30
0.0
 40
2.0
  1
Art-Nr.
  0
TEXT
  5
E98
  8
KOPF
 10
-179.56017085835799
 20
17.086345823800102
 30
0.0
 40
2.0
  1
Kunden Zeichn.Nr.
  0
ATTDEF
  5
E99
  8
KOPF
 62
     7
 10
-149.84470373094979
 20
16.949858261820491
 30
0.0
 40
2.0
  1

 41
0.9
  3
Artikel-Z.-Nr.
  2
ARTZ_NR
 70
     0
  0
LINE
  5
E9A
  8
AM_BL
 10
-182.88
 20
61.300000000000061
 30
0.0
 11
0.0000000000001137
 21
61.300000000000061
 31
0.0
  0
LINE
  5
E9B
  8
KOPF
 10
-162.88
 20
54.300000000000047
 30
0.0
 11
-162.88
 21
61.300000000000061
 31
0.0
  0
LINE
  5
E9C
  8
AM_BL
 10
-182.88
 20
54.300000000000047
 30
0.0
 11
-182.88000000000011
 21
61.300000000000061
 31
0.0
  0
INSERT
  5
E9D
  8
0
  2
*U8
 10
0.0
 20
0.0
 30
0.0
  0
INSERT
  5
E9E
  8
0
  2
*U9
 10
0.0
 20
0.0
 30
0.0
  0
INSERT
  5
E9F
  8
0
  2
*U10
 10
0.0
 20
0.0
 30
0.0
  0
LINE
  5
EA0
  8
KOPF
 10
-92.017495197335052
 20
54.300000000000047
 30
0.0
 11
-92.017495197335052
 21
61.300000000000061
 31
0.0
  0
LINE
  5
EA1
  8
KOPF
 10
-104.01749519733499
 20
54.300000000000047
 30
0.0
 11
-104.01749519733499
 21
61.300000000000061
 31
0.0
  0
LINE
  5
EA2
  8
KOPF
 10
-62.017495197335499
 20
54.29999999999994
 30
0.0
 11
-62.017495197335499
 21
61.300000000000111
 31
0.0
  0
INSERT
  5
EA3
  8
0
  2
*U11
 10
0.0
 20
0.0
 30
0.0
  0
INSERT
  5
EA4
  8
0
  2
*U12
 10
0.0
 20
0.0
 30
0.0
  0
LINE
  5
EA5
  8
KOPF
 10
-32.017495197335514
 20
54.300000000000047
 30
0.0
 11
-32.017495197335514
 21
61.300000000000061
 31
0.0
  0
INSERT
  5
EA6
  8
0
  2
*U13
 10
0.0
 20
0.0
 30
0.0
  0
ENDBLK
  5
EA8
  8
0
  0
BLOCK
  8
0
  2
AUTOSTKL
 70
     2
 10
0.0
 20
0.0
 30
0.0
  3
AUTOSTKL
  1

  0
LINE
  5
ED0
  8
AM_BL
 10
0.0
 20
0.0
 30
0.0
 11
-0.0000000000000568
 21
7.0
 31
0.0
  0
LINE
  5
ED1
  8
AM_BL
 62
     3
 10
0.0
 20
7.0
 30
0.0
 11
182.88000000000011
 21
7.0
 31
0.0
  0
LINE
  5
ED2
  8
AM_BL
 62
     3
 10
10.0
 20
0.0
 30
0.0
 11
9.9999999999999432
 21
6.9999999999999432
 31
0.0
  0
LINE
  5
ED3
  8
AM_BL
 62
     3
 10
19.99999999999994
 20
-0.0000000000000568
 30
0.0
 11
19.99999999999994
 21
7.0
 31
0.0
  0
LINE
  5
ED4
  8
AM_BL
 62
     3
 10
78.862504802665057
 20
0.0
 30
0.0
 11
78.862504802665001
 21
7.0
 31
0.0
  0
LINE
  5
ED5
  8
AM_BL
 62
     3
 10
90.862504802665043
 20
0.0
 30
0.0
 11
90.862504802665043
 21
7.0
 31
0.0
  0
LINE
  5
ED6
  8
AM_BL
 62
     3
 10
120.8625048026645
 20
0.0
 30
0.0
 11
120.8625048026645
 21
7.0
 31
0.0
  0
LINE
  5
ED7
  8
AM_BL
 62
     3
 10
150.8625048026644
 20
0.0
 30
0.0
 11
150.8625048026644
 21
7.0
 31
0.0
  0
ATTDEF
  5
ED8
  8
0
 10
83.862504802664944
 20
2.0000000000005018
 30
0.0
 40
3.0
  1

 72
     1
 11
83.862504802664944
 21
2.0000000000005018
 31
0.0
  3
Pos Nr.
  2
POS1
 70
     0
  0
ATTDEF
  5
ED9
  8
0
 10
14.249999999999879
 20
1.9999999999999429
 30
0.0
 40
3.0
  1
1
 72
     1
 11
14.999999999999879
 21
1.9999999999999429
 31
0.0
  3
Stück
  2
STK1
 70
     0
  0
ATTDEF
  5
EDA
  8
0
 10
21.0
 20
2.0
 30
0.0
 40
3.0
  1

  3
Bezeichnung
  2
BEZ1
 70
     0
  0
ATTDEF
  5
EDB
  8
0
 10
91.862504802665114
 20
2.0
 30
0.0
 40
3.0
  1

  3
Material
  2
MAT1
 70
     0
  0
ATTDEF
  5
EDC
  8
0
 10
121.8625048026645
 20
2.0
 30
0.0
 40
3.0
  1

  3
Dimension
  2
DIM1
 70
     0
  0
ATTDEF
  5
EDD
  8
0
 10
151.8625048026644
 20
2.0
 30
0.0
 40
3.0
  1

  3
Bemerkung
  2
BEM1
 70
     0
  0
ENDBLK
  5
EDF
  8
0
  0
BLOCK
  8
0
  2
DIN_6930_M_TEIL_2
 70
     0
 10
0.0
 20
0.0
 30
0.0
  3
DIN_6930_M_TEIL_2
  1

  0
POLYLINE
  5
EEC
  8
0
 66
     1
 10
0.0
 20
0.0
 30
0.0
 70
     1
1001
GENIUS_GENREC_14
1002
{
1000
PYDIR
1011
-63.800348309219991
1021
0.0
1031
0.0
1021
0.0
1031
0.0
1002
}
1002
{
1000
PXDIR
1011
0.0
1021
0.0
1031
0.0
1021
7.8477329746099818
1031
0.0
1002
}
1002
{
1000
PORI
1011
-63.800348309219991
1021
0.0
1031
0.0
1021
7.8477329746099818
1031
0.0
1002
}
1002
{
1000
PINS
1011
-63.800348309219991
1021
0.0
1031
0.0
1021
7.8477329746099818
1031
0.0
1002
}
1002
{
1000
PINS2
1011
0.0
1021
0.0
1031
0.0
1021
0.0
1031
0.0
1002
}
1002
{
1000
C
1070
     1
1002
}
1001
GENIUS_GENODEF_13
1002
{
1000
HIER
1070
     0
1002
}
1002
{
1000
MANEDIT
1070
     0
1002
}
1002
{
1000
NOSEL
1070
     0
1002
}
1002
{
1000
BEHIND
1070
     0
1002
}
1002
{
1000
REACTOR
1002
}
1001
GENIUS_GENOBJ-N-REC_13
1002
{
1000
OWNER
1000
GEN
1002
}
  0
VERTEX
  5
EED
  8
0
 10
-63.800348309219991
 20
7.8477329746099818
 30
0.0
  0
VERTEX
  5
EEE
  8
0
 10
0.0
 20
7.8477329746099818
 30
0.0
  0
VERTEX
  5
EEF
  8
0
 10
0.0
 20
0.0
 30
0.0
  0
VERTEX
  5
EF0
  8
0
 10
-63.800348309219991
 20
0.0
 30
0.0
  0
SEQEND
  5
EF1
  8
0
  0
INSERT
  5
EF2
  8
0
  2
*U14
 10
0.0
 20
0.0
 30
0.0
  0
ENDBLK
  5
EF4
  8
0
  0
BLOCK
  8
0
  2
ZEICHNUNGSFREIGABE
 70
     0
 10
0.0
 20
0.0
 30
0.0
  3
ZEICHNUNGSFREIGABE
  1

  0
INSERT
  5
1011
  8
0
  2
*U15
 10
0.0
 20
0.0
 30
0.0
  0
INSERT
  5
1012
  8
0
  2
*U16
 10
0.0
 20
0.0
 30
0.0
  0
INSERT
  5
1013
  8
0
  2
*U17
 10
0.0
 20
0.0
 30
0.0
  0
INSERT
  5
1014
  8
0
  2
*U18
 10
0.0
 20
0.0
 30
0.0
  0
ENDBLK
  5
1016
  8
0
  0
BLOCK
  8
0
  2
*U5
 70
     1
 10
0.0
 20
0.0
 30
0.0
  3
*U5
  1

  0
SOLID
  5
4452
  8
KOPF
  6
CONTINUOUS
 62
     5
 10
-100.6981308604266
 20
14.16812335499351
 30
0.0
 11
-99.198130860426545
 21
12.668123354993501
 31
0.0
 12
-67.020879871426359
 22
12.668123354993501
 32
0.0
 13
-67.020879871426359
 23
12.668123354993501
 33
0.0
210
0.0
220
0.0
230
1.0
  0
SOLID
  5
4453
  8
KOPF
  6
CONTINUOUS
 62
     5
 10
100.6981308604266
 20
14.16812335499351
 30
0.0
 11
67.020879871426359
 21
14.16812335499351
 31
0.0
 12
67.020879871426359
 22
12.668123354993501
 32
0.0
 13
67.020879871426359
 23
12.668123354993501
 33
0.0
210
0.0
220
0.0
230
-1.0
  0
SOLID
  5
4454
  8
KOPF
  6
CONTINUOUS
 62
     5
 10
-73.581371241681339
 20
10.668123354993501
 30
0.0
 11
-75.820010571575054
 21
8.7896819189407722
 31
0.0
 12
-73.486424831284353
 22
8.7896819189407722
 32
0.0
 13
-73.486424831284353
 23
8.7896819189407722
 33
0.0
  0
SOLID
  5
4455
  8
KOPF
  6
CONTINUOUS
 62
     5
 10
73.581371241681339
 20
10.668123354993501
 30
0.0
 11
71.24778550139068
 21
10.668123354993501
 31
0.0
 12
73.486424831284353
 22
8.7896819189407722
 32
0.0
 13
73.486424831284353
 23
8.7896819189407722
 33
0.0
210
0.0
220
0.0
230
-1.0
  0
SOLID
  5
4456
  8
KOPF
  6
CONTINUOUS
 62
     5
 10
-77.82001057157494
 20
10.668123354993501
 30
0.0
 11
-77.820010571574912
 21
8.7896819189407722
 31
0.0
 12
-76.320010571574869
 22
8.7896819189407722
 32
0.0
 13
-76.320010571574869
 23
8.7896819189407722
 33
0.0
210
0.0
220
0.0
230
1.0
  0
SOLID
  5
4457
  8
KOPF
  6
CONTINUOUS
 62
     5
 10
77.82001057157494
 20
10.668123354993501
 30
0.0
 11
76.320010571574926
 21
10.668123354993501
 31
0.0
 12
76.320010571574869
 22
8.7896819189407722
 32
0.0
 13
76.320010571574869
 23
8.7896819189407722
 33
0.0
210
0.0
220
0.0
230
-1.0
  0
SOLID
  5
4458
  8
KOPF
  6
CONTINUOUS
 62
     5
 10
-81.560921911794821
 20
10.668123354993501
 30
0.0
 11
-83.799561241688465
 21
8.7896819189407722
 31
0.0
 12
-81.465975501397864
 22
8.7896819189407722
 32
0.0
 13
-81.465975501397864
 23
8.7896819189407722
 33
0.0
210
0.0
220
0.0
230
1.0
  0
SOLID
  5
4459
  8
KOPF
  6
CONTINUOUS
 62
     5
 10
81.560921911794821
 20
10.668123354993501
 30
0.0
 11
79.227336171504191
 21
10.668123354993501
 31
0.0
 12
81.465975501397864
 22
8.7896819189407722
 32
0.0
 13
81.465975501397864
 23
8.7896819189407722
 33
0.0
210
0.0
220
0.0
230
-1.0
  0
SOLID
  5
445A
  8
KOPF
  6
CONTINUOUS
 62
     5
 10
-85.799561241688437
 20
10.668123354993501
 30
0.0
 11
-85.799561241688409
 21
8.7896819189407722
 31
0.0
 12
-84.299561241688366
 22
8.7896819189407722
 32
0.0
 13
-84.299561241688366
 23
8.7896819189407722
 33
0.0
210
0.0
220
0.0
230
1.0
  0
SOLID
  5
445B
  8
KOPF
  6
CONTINUOUS
 62
     5
 10
85.799561241688437
 20
10.668123354993501
 30
0.0
 11
84.299561241688437
 21
10.668123354993501
 31
0.0
 12
84.299561241688366
 22
8.7896819189407722
 32
0.0
 13
84.299561241688366
 23
8.7896819189407722
 33
0.0
210
0.0
220
0.0
230
-1.0
  0
SOLID
  5
445C
  8
KOPF
  6
CONTINUOUS
 62
     5
 10
-92.663839029273575
 20
10.668123354993501
 30
0.0
 11
-93.461972358630504
 21
8.4752700548711726
 31
0.0
 12
-90.269439041202716
 22
8.4752700548711726
 32
0.0
 13
-90.269439041202716
 23
8.4752700548711726
 33
0.0
210
0.0
220
0.0
230
1.0
  0
SOLID
  5
445D
  8
KOPF
  6
CONTINUOUS
 62
     5
 10
92.663839029273575
 20
10.668123354993501
 30
0.0
 11
91.067572370559645
 21
10.668123354993501
 31
0.0
 12
90.269439041202716
 22
8.4752700548711726
 32
0.0
 13
90.269439041202716
 23
8.4752700548711726
 33
0.0
210
0.0
220
0.0
230
-1.0
  0
SOLID
  5
445E
  8
KOPF
  6
CONTINUOUS
 62
     5
 10
-77.820010571574912
 20
8.7896819189407722
 30
0.0
 11
-77.820010571574912
 21
8.0396819189407154
 31
0.0
 12
-74.380240025730075
 22
8.0396819189407154
 32
0.0
 13
-74.380240025730075
 23
8.0396819189407154
 33
0.0
210
0.0
220
0.0
230
1.0
  0
SOLID
  5
445F
  8
KOPF
  6
CONTINUOUS
 62
     5
 10
77.820010571574912
 20
8.7896819189407722
 30
0.0
 11
73.486424831284353
 21
8.7896819189407722
 31
0.0
 12
74.380240025730075
 22
8.0396819189407154
 32
0.0
 13
74.380240025730075
 23
8.0396819189407154
 33
0.0
210
0.0
220
0.0
230
-1.0
  0
SOLID
  5
4460
  8
KOPF
  6
CONTINUOUS
 62
     5
 10
-85.799561241688409
 20
8.7896819189407722
 30
0.0
 11
-85.799561241688394
 21
8.0396819189407154
 31
0.0
 12
-82.359790695843586
 22
8.0396819189407154
 32
0.0
 13
-82.359790695843586
 23
8.0396819189407154
 33
0.0
210
0.0
220
0.0
230
1.0
  0
SOLID
  5
4461
  8
KOPF
  6
CONTINUOUS
 62
     5
 10
85.799561241688409
 20
8.7896819189407722
 30
0.0
 11
81.465975501397864
 21
8.7896819189407722
 31
0.0
 12
82.359790695843586
 22
8.0396819189407154
 32
0.0
 13
82.359790695843586
 23
8.0396819189407154
 33
0.0
210
0.0
220
0.0
230
-1.0
  0
SOLID
  5
4462
  8
KOPF
  6
CONTINUOUS
 62
     5
 10
-77.820010571574912
 20
8.0396819189407154
 30
0.0
 11
-77.820010571574898
 21
7.2896819189407713
 31
0.0
 12
-73.486424831284424
 22
7.2896819189407713
 32
0.0
 13
-73.486424831284424
 23
7.2896819189407713
 33
0.0
210
0.0
220
0.0
230
1.0
  0
SOLID
  5
4463
  8
KOPF
  6
CONTINUOUS
 62
     5
 10
77.820010571574912
 20
8.0396819189407154
 30
0.0
 11
74.380240025730075
 21
8.0396819189407154
 31
0.0
 12
73.486424831284424
 22
7.2896819189407713
 32
0.0
 13
73.486424831284424
 23
7.2896819189407713
 33
0.0
210
0.0
220
0.0
230
-1.0
  0
SOLID
  5
4464
  8
KOPF
  6
CONTINUOUS
 62
     5
 10
-85.799561241688394
 20
8.0396819189407154
 30
0.0
 11
-85.799561241688394
 21
7.2896819189407713
 31
0.0
 12
-81.465975501397935
 22
7.2896819189407713
 32
0.0
 13
-81.465975501397935
 23
7.2896819189407713
 33
0.0
  0
SOLID
  5
4465
  8
KOPF
  6
CONTINUOUS
 62
     5
 10
85.799561241688394
 20
8.0396819189407154
 30
0.0
 11
82.359790695843586
 21
8.0396819189407154
 31
0.0
 12
81.465975501397935
 22
7.2896819189407713
 32
0.0
 13
81.465975501397935
 23
7.2896819189407713
 33
0.0
210
0.0
220
0.0
230
-1.0
  0
SOLID
  5
4466
  8
KOPF
  6
CONTINUOUS
 62
     5
 10
-88.031297120972397
 20
10.668123354993501
 30
0.0
 11
-89.26094924190717
 21
7.2896819189407713
 31
0.0
 12
-87.66468258319324
 22
7.2896819189407713
 32
0.0
 13
-87.66468258319324
 23
7.2896819189407713
 33
0.0
  0
SOLID
  5
4467
  8
KOPF
  6
CONTINUOUS
 62
     5
 10
88.031297120972397
 20
10.668123354993501
 30
0.0
 11
86.435030462258425
 21
10.668123354993501
 31
0.0
 12
87.66468258319324
 22
7.2896819189407713
 32
0.0
 13
87.66468258319324
 23
7.2896819189407713
 33
0.0
210
0.0
220
0.0
230
-1.0
  0
SOLID
  5
4468
  8
KOPF
  6
CONTINUOUS
 62
     5
 10
-91.865705699916646
 20
8.4752700548711726
 30
0.0
 11
-91.434186908338816
 21
7.2896819189407713
 31
0.0
 12
-89.837920249624887
 22
7.2896819189407713
 32
0.0
 13
-89.837920249624887
 23
7.2896819189407713
 33
0.0
210
0.0
220
0.0
230
1.0
  0
SOLID
  5
4469
  8
KOPF
  6
CONTINUOUS
 62
     5
 10
91.865705699916646
 20
8.4752700548711726
 30
0.0
 11
90.269439041202716
 21
8.4752700548711726
 31
0.0
 12
89.837920249624887
 22
7.2896819189407713
 32
0.0
 13
89.837920249624887
 23
7.2896819189407713
 33
0.0
210
0.0
220
0.0
230
-1.0
  0
SOLID
  5
446A
  8
KOPF
  6
CONTINUOUS
 62
     5
 10
-89.26094924190717
 20
7.2896819189407713
 30
0.0
 11
-89.549434745765964
 21
6.4970745112484467
 31
0.0
 12
-87.953168087052134
 22
6.4970745112484467
 32
0.0
 13
-87.953168087052134
 23
6.4970745112484467
 33
0.0
210
0.0
220
0.0
230
1.0
  0
SOLID
  5
446B
  8
KOPF
  6
CONTINUOUS
 62
     5
 10
89.26094924190717
 20
7.2896819189407713
 30
0.0
 11
87.66468258319324
 21
7.2896819189407713
 31
0.0
 12
87.953168087052134
 22
6.4970745112484467
 32
0.0
 13
87.953168087052134
 23
6.4970745112484467
 33
0.0
210
0.0
220
0.0
230
-1.0
  0
SOLID
  5
446C
  8
KOPF
  6
CONTINUOUS
 62
     5
 10
-91.434186908338816
 20
7.2896819189407713
 30
0.0
 11
-91.145701404479908
 21
6.4970745112484467
 31
0.0
 12
-89.549434745766064
 22
6.4970745112484467
 32
0.0
 13
-89.549434745766064
 23
6.4970745112484467
 33
0.0
  0
SOLID
  5
446D
  8
KOPF
  6
CONTINUOUS
 62
     5
 10
91.434186908338816
 20
7.2896819189407713
 30
0.0
 11
89.837920249624887
 21
7.2896819189407713
 31
0.0
 12
89.549434745766064
 22
6.4970745112484467
 32
0.0
 13
89.549434745766064
 23
6.4970745112484467
 33
0.0
210
0.0
220
0.0
230
-1.0
  0
SOLID
  5
446E
  8
KOPF
  6
CONTINUOUS
 62
     5
 10
-93.461972358630504
 20
8.4752700548711726
 30
0.0
 11
-94.181976654067213
 21
6.4970745112484467
 31
0.0
 12
-92.585709995353426
 22
6.4970745112484467
 32
0.0
 13
-92.585709995353426
 23
6.4970745112484467
 33
0.0
210
0.0
220
0.0
230
1.0
  0
SOLID
  5
446F
  8
KOPF
  6
CONTINUOUS
 62
     5
 10
93.461972358630504
 20
8.4752700548711726
 30
0.0
 11
91.865705699916646
 21
8.4752700548711726
 31
0.0
 12
92.585709995353426
 22
6.4970745112484467
 32
0.0
 13
92.585709995353426
 23
6.4970745112484467
 33
0.0
210
0.0
220
0.0
230
-1.0
  0
SOLID
  5
4470
  8
KOPF
  6
CONTINUOUS
 62
     5
 10
-97.296380937574796
 20
10.668123354993501
 30
0.0
 11
-95.7782433127811
 21
6.4970745112484467
 31
0.0
 12
-94.181976654067213
 22
6.4970745112484467
 32
0.0
 13
-94.181976654067213
 23
6.4970745112484467
 33
0.0
210
0.0
220
0.0
230
1.0
  0
SOLID
  5
4471
  8
KOPF
  6
CONTINUOUS
 62
     5
 10
97.296380937574796
 20
10.668123354993501
 30
0.0
 11
95.700114278860895
 21
10.668123354993501
 31
0.0
 12
94.181976654067213
 22
6.4970745112484467
 32
0.0
 13
94.181976654067213
 23
6.4970745112484467
 33
0.0
210
0.0
220
0.0
230
-1.0
  0
SOLID
  5
4472
  8
KOPF
  6
CONTINUOUS
 62
     5
 10
-75.820010571574926
 20
7.2896819189407713
 30
0.0
 11
-72.671688031905362
 21
4.6479256370769209
 31
0.0
 12
-70.338102291614646
 22
4.6479256370769209
 32
0.0
 13
-70.338102291614646
 23
4.6479256370769209
 33
0.0
210
0.0
220
0.0
230
1.0
  0
SOLID
  5
4473
  8
KOPF
  6
CONTINUOUS
 62
     5
 10
75.820010571574926
 20
7.2896819189407713
 30
0.0
 11
73.486424831284424
 21
7.2896819189407713
 31
0.0
 12
70.338102291614646
 22
4.6479256370769209
 32
0.0
 13
70.338102291614646
 23
4.6479256370769209
 33
0.0
210
0.0
220
0.0
230
-1.0
  0
SOLID
  5
4474
  8
KOPF
  6
CONTINUOUS
 62
     5
 10
-77.820010571574898
 20
7.2896819189407713
 30
0.0
 11
-77.820010571574855
 21
4.6479256370769209
 31
0.0
 12
-76.320010571574912
 22
4.6479256370769209
 32
0.0
 13
-76.320010571574912
 23
4.6479256370769209
 33
0.0
210
0.0
220
0.0
230
1.0
  0
SOLID
  5
4475
  8
KOPF
  6
CONTINUOUS
 62
     5
 10
77.820010571574898
 20
7.2896819189407713
 30
0.0
 11
76.320010571574869
 21
7.2896819189407713
 31
0.0
 12
76.320010571574912
 22
4.6479256370769209
 32
0.0
 13
76.320010571574912
 23
4.6479256370769209
 33
0.0
210
0.0
220
0.0
230
-1.0
  0
SOLID
  5
4476
  8
KOPF
  6
CONTINUOUS
 62
     5
 10
-83.799561241688366
 20
7.2896819189407713
 30
0.0
 11
-80.651238702018873
 21
4.6479256370769209
 31
0.0
 12
-78.317652961728129
 22
4.6479256370769209
 32
0.0
 13
-78.317652961728129
 23
4.6479256370769209
 33
0.0
210
0.0
220
0.0
230
1.0
  0
SOLID
  5
4477
  8
KOPF
  6
CONTINUOUS
 62
     5
 10
83.799561241688366
 20
7.2896819189407713
 30
0.0
 11
81.465975501397935
 21
7.2896819189407713
 31
0.0
 12
78.317652961728129
 22
4.6479256370769209
 32
0.0
 13
78.317652961728129
 23
4.6479256370769209
 33
0.0
210
0.0
220
0.0
230
-1.0
  0
SOLID
  5
4478
  8
KOPF
  6
CONTINUOUS
 62
     5
 10
-85.799561241688394
 20
7.2896819189407713
 30
0.0
 11
-85.799561241688366
 21
4.6479256370769209
 31
0.0
 12
-84.299561241688409
 22
4.6479256370769209
 32
0.0
 13
-84.299561241688409
 23
4.6479256370769209
 33
0.0
210
0.0
220
0.0
230
1.0
  0
SOLID
  5
4479
  8
KOPF
  6
CONTINUOUS
 62
     5
 10
85.799561241688394
 20
7.2896819189407713
 30
0.0
 11
84.299561241688295
 21
7.2896819189407713
 31
0.0
 12
84.299561241688409
 22
4.6479256370769209
 32
0.0
 13
84.299561241688409
 23
4.6479256370769209
 33
0.0
210
0.0
220
0.0
230
-1.0
  0
SOLID
  5
447A
  8
KOPF
  6
CONTINUOUS
 62
     5
 10
-91.145701404479908
 20
6.4970745112484467
 30
0.0
 11
-90.4726662555546
 21
4.6479256370769209
 31
0.0
 12
-88.626203235977471
 22
4.6479256370769209
 32
0.0
 13
-88.626203235977471
 23
4.6479256370769209
 33
0.0
210
0.0
220
0.0
230
1.0
  0
SOLID
  5
447B
  8
KOPF
  6
CONTINUOUS
 62
     5
 10
91.145701404479908
 20
6.4970745112484467
 30
0.0
 11
87.953168087052134
 21
6.4970745112484467
 31
0.0
 12
88.626203235977471
 22
4.6479256370769209
 32
0.0
 13
88.626203235977471
 23
4.6479256370769209
 33
0.0
210
0.0
220
0.0
230
-1.0
  0
SOLID
  5
447C
  8
KOPF
  6
CONTINUOUS
 62
     5
 10
-95.7782433127811
 20
6.4970745112484467
 30
0.0
 11
-95.105208163855806
 21
4.6479256370769209
 31
0.0
 12
-93.258745144278748
 22
4.6479256370769209
 32
0.0
 13
-93.258745144278748
 23
4.6479256370769209
 33
0.0
210
0.0
220
0.0
230
1.0
  0
SOLID
  5
447D
  8
KOPF
  6
CONTINUOUS
 62
     5
 10
95.7782433127811
 20
6.4970745112484467
 30
0.0
 11
92.585709995353426
 21
6.4970745112484467
 31
0.0
 12
93.258745144278748
 22
4.6479256370769209
 32
0.0
 13
93.258745144278748
 23
4.6479256370769209
 33
0.0
210
0.0
220
0.0
230
-1.0
  0
SOLID
  5
447E
  8
KOPF
  6
CONTINUOUS
 62
     5
 10
-68.520879871426345
 20
12.668123354993501
 30
0.0
 11
-68.520879871426359
 21
2.6479256370769262
 31
0.0
 12
-67.020879871426359
 22
2.6479256370769262
 32
0.0
 13
-67.020879871426359
 23
2.6479256370769262
 33
0.0
210
0.0
220
0.0
230
1.0
  0
SOLID
  5
447F
  8
KOPF
  6
CONTINUOUS
 62
     5
 10
68.520879871426345
 20
12.668123354993501
 30
0.0
 11
67.020879871426359
 21
12.668123354993501
 31
0.0
 12
67.020879871426359
 22
2.6479256370769262
 32
0.0
 13
67.020879871426359
 23
2.6479256370769262
 33
0.0
210
0.0
220
0.0
230
-1.0
  0
SOLID
  5
4480
  8
KOPF
  6
CONTINUOUS
 62
     5
 10
-108.5125298512052
 20
2.6479256370769262
 30
0.0
 11
-110.0125298512052
 21
1.1479256370769271
 31
0.0
 12
-67.020879871426359
 22
1.1479256370769271
 32
0.0
 13
-67.020879871426359
 23
1.1479256370769271
 33
0.0
210
0.0
220
0.0
230
1.0
  0
SOLID
  5
4481
  8
KOPF
  6
CONTINUOUS
 62
     5
 10
108.5125298512052
 20
2.6479256370769262
 30
0.0
 11
67.020879871426359
 21
2.6479256370769262
 31
0.0
 12
67.020879871426359
 22
1.1479256370769271
 32
0.0
 13
67.020879871426359
 23
1.1479256370769271
 33
0.0
210
0.0
220
0.0
230
-1.0
  0
LINE
  5
4482
  8
KOPF
  6
CONTINUOUS
 62
     5
 10
-100.6981308604266
 20
14.16812335499351
 30
0.0
 11
-99.198130860426545
 21
12.668123354993501
 31
0.0
  0
LINE
  5
4483
  8
KOPF
  6
CONTINUOUS
 62
     5
 10
-67.020879871426359
 20
14.16812335499351
 30
0.0
 11
-67.020879871426359
 21
12.668123354993501
 31
0.0
  0
LINE
  5
4484
  8
KOPF
  6
CONTINUOUS
 62
     5
 10
-73.581371241681339
 20
10.668123354993501
 30
0.0
 11
-75.820010571575054
 21
8.7896819189407722
 31
0.0
  0
LINE
  5
4485
  8
KOPF
  6
CONTINUOUS
 62
     5
 10
-71.24778550139068
 20
10.668123354993501
 30
0.0
 11
-73.486424831284353
 21
8.7896819189407722
 31
0.0
  0
LINE
  5
4486
  8
KOPF
  6
CONTINUOUS
 62
     5
 10
-77.82001057157494
 20
10.668123354993501
 30
0.0
 11
-77.820010571574912
 21
8.7896819189407722
 31
0.0
  0
LINE
  5
4487
  8
KOPF
  6
CONTINUOUS
 62
     5
 10
-76.320010571574926
 20
10.668123354993501
 30
0.0
 11
-76.320010571574869
 21
8.7896819189407722
 31
0.0
  0
LINE
  5
4488
  8
KOPF
  6
CONTINUOUS
 62
     5
 10
-81.560921911794821
 20
10.668123354993501
 30
0.0
 11
-83.799561241688465
 21
8.7896819189407722
 31
0.0
  0
LINE
  5
4489
  8
KOPF
  6
CONTINUOUS
 62
     5
 10
-79.227336171504191
 20
10.668123354993501
 30
0.0
 11
-81.465975501397864
 21
8.7896819189407722
 31
0.0
  0
LINE
  5
448A
  8
KOPF
  6
CONTINUOUS
 62
     5
 10
-85.799561241688437
 20
10.668123354993501
 30
0.0
 11
-85.799561241688409
 21
8.7896819189407722
 31
0.0
  0
LINE
  5
448B
  8
KOPF
  6
CONTINUOUS
 62
     5
 10
-84.299561241688437
 20
10.668123354993501
 30
0.0
 11
-84.299561241688366
 21
8.7896819189407722
 31
0.0
  0
LINE
  5
448C
  8
KOPF
  6
CONTINUOUS
 62
     5
 10
-92.663839029273575
 20
10.668123354993501
 30
0.0
 11
-93.461972358630504
 21
8.4752700548711726
 31
0.0
  0
LINE
  5
448D
  8
KOPF
  6
CONTINUOUS
 62
     5
 10
-91.067572370559645
 20
10.668123354993501
 30
0.0
 11
-90.269439041202716
 21
8.4752700548711726
 31
0.0
  0
LINE
  5
448E
  8
KOPF
  6
CONTINUOUS
 62
     5
 10
-77.820010571574912
 20
8.7896819189407722
 30
0.0
 11
-77.820010571574912
 21
8.0396819189407154
 31
0.0
  0
LINE
  5
448F
  8
KOPF
  6
CONTINUOUS
 62
     5
 10
-73.486424831284353
 20
8.7896819189407722
 30
0.0
 11
-74.380240025730075
 21
8.0396819189407154
 31
0.0
  0
LINE
  5
4490
  8
KOPF
  6
CONTINUOUS
 62
     5
 10
-85.799561241688409
 20
8.7896819189407722
 30
0.0
 11
-85.799561241688394
 21
8.0396819189407154
 31
0.0
  0
LINE
  5
4491
  8
KOPF
  6
CONTINUOUS
 62
     5
 10
-81.465975501397864
 20
8.7896819189407722
 30
0.0
 11
-82.359790695843586
 21
8.0396819189407154
 31
0.0
  0
LINE
  5
4492
  8
KOPF
  6
CONTINUOUS
 62
     5
 10
-77.820010571574912
 20
8.0396819189407154
 30
0.0
 11
-77.820010571574898
 21
7.2896819189407713
 31
0.0
  0
LINE
  5
4493
  8
KOPF
  6
CONTINUOUS
 62
     5
 10
-74.380240025730075
 20
8.0396819189407154
 30
0.0
 11
-73.486424831284424
 21
7.2896819189407713
 31
0.0
  0
LINE
  5
4494
  8
KOPF
  6
CONTINUOUS
 62
     5
 10
-85.799561241688394
 20
8.0396819189407154
 30
0.0
 11
-85.799561241688394
 21
7.2896819189407713
 31
0.0
  0
LINE
  5
4495
  8
KOPF
  6
CONTINUOUS
 62
     5
 10
-82.359790695843586
 20
8.0396819189407154
 30
0.0
 11
-81.465975501397935
 21
7.2896819189407713
 31
0.0
  0
LINE
  5
4496
  8
KOPF
  6
CONTINUOUS
 62
     5
 10
-88.031297120972397
 20
10.668123354993501
 30
0.0
 11
-89.26094924190717
 21
7.2896819189407713
 31
0.0
  0
LINE
  5
4497
  8
KOPF
  6
CONTINUOUS
 62
     5
 10
-86.435030462258425
 20
10.668123354993501
 30
0.0
 11
-87.66468258319324
 21
7.2896819189407713
 31
0.0
  0
LINE
  5
4498
  8
KOPF
  6
CONTINUOUS
 62
     5
 10
-91.865705699916646
 20
8.4752700548711726
 30
0.0
 11
-91.434186908338816
 21
7.2896819189407713
 31
0.0
  0
LINE
  5
4499
  8
KOPF
  6
CONTINUOUS
 62
     5
 10
-90.269439041202716
 20
8.4752700548711726
 30
0.0
 11
-89.837920249624887
 21
7.2896819189407713
 31
0.0
  0
LINE
  5
449A
  8
KOPF
  6
CONTINUOUS
 62
     5
 10
-87.66468258319324
 20
7.2896819189407713
 30
0.0
 11
-87.953168087052134
 21
6.4970745112484467
 31
0.0
  0
LINE
  5
449B
  8
KOPF
  6
CONTINUOUS
 62
     5
 10
-91.434186908338816
 20
7.2896819189407713
 30
0.0
 11
-91.145701404479908
 21
6.4970745112484467
 31
0.0
  0
LINE
  5
449C
  8
KOPF
  6
CONTINUOUS
 62
     5
 10
-93.461972358630504
 20
8.4752700548711726
 30
0.0
 11
-94.181976654067213
 21
6.4970745112484467
 31
0.0
  0
LINE
  5
449D
  8
KOPF
  6
CONTINUOUS
 62
     5
 10
-91.865705699916646
 20
8.4752700548711726
 30
0.0
 11
-92.585709995353426
 21
6.4970745112484467
 31
0.0
  0
LINE
  5
449E
  8
KOPF
  6
CONTINUOUS
 62
     5
 10
-97.296380937574796
 20
10.668123354993501
 30
0.0
 11
-95.7782433127811
 21
6.4970745112484467
 31
0.0
  0
LINE
  5
449F
  8
KOPF
  6
CONTINUOUS
 62
     5
 10
-95.700114278860895
 20
10.668123354993501
 30
0.0
 11
-94.181976654067213
 21
6.4970745112484467
 31
0.0
  0
LINE
  5
44A0
  8
KOPF
  6
CONTINUOUS
 62
     5
 10
-75.820010571574926
 20
7.2896819189407713
 30
0.0
 11
-72.671688031905362
 21
4.6479256370769209
 31
0.0
  0
LINE
  5
44A1
  8
KOPF
  6
CONTINUOUS
 62
     5
 10
-73.486424831284424
 20
7.2896819189407713
 30
0.0
 11
-70.338102291614646
 21
4.6479256370769209
 31
0.0
  0
LINE
  5
44A2
  8
KOPF
  6
CONTINUOUS
 62
     5
 10
-77.820010571574898
 20
7.2896819189407713
 30
0.0
 11
-77.820010571574855
 21
4.6479256370769209
 31
0.0
  0
LINE
  5
44A3
  8
KOPF
  6
CONTINUOUS
 62
     5
 10
-76.320010571574869
 20
7.2896819189407713
 30
0.0
 11
-76.320010571574912
 21
4.6479256370769209
 31
0.0
  0
LINE
  5
44A4
  8
KOPF
  6
CONTINUOUS
 62
     5
 10
-83.799561241688366
 20
7.2896819189407713
 30
0.0
 11
-80.651238702018873
 21
4.6479256370769209
 31
0.0
  0
LINE
  5
44A5
  8
KOPF
  6
CONTINUOUS
 62
     5
 10
-81.465975501397935
 20
7.2896819189407713
 30
0.0
 11
-78.317652961728129
 21
4.6479256370769209
 31
0.0
  0
LINE
  5
44A6
  8
KOPF
  6
CONTINUOUS
 62
     5
 10
-85.799561241688394
 20
7.2896819189407713
 30
0.0
 11
-85.799561241688366
 21
4.6479256370769209
 31
0.0
  0
LINE
  5
44A7
  8
KOPF
  6
CONTINUOUS
 62
     5
 10
-84.299561241688295
 20
7.2896819189407713
 30
0.0
 11
-84.299561241688409
 21
4.6479256370769209
 31
0.0
  0
LINE
  5
44A8
  8
KOPF
  6
CONTINUOUS
 62
     5
 10
-91.145701404479908
 20
6.4970745112484467
 30
0.0
 11
-90.4726662555546
 21
4.6479256370769209
 31
0.0
  0
LINE
  5
44A9
  8
KOPF
  6
CONTINUOUS
 62
     5
 10
-87.953168087052134
 20
6.4970745112484467
 30
0.0
 11
-88.626203235977471
 21
4.6479256370769209
 31
0.0
  0
LINE
  5
44AA
  8
KOPF
  6
CONTINUOUS
 62
     5
 10
-95.7782433127811
 20
6.4970745112484467
 30
0.0
 11
-95.105208163855806
 21
4.6479256370769209
 31
0.0
  0
LINE
  5
44AB
  8
KOPF
  6
CONTINUOUS
 62
     5
 10
-92.585709995353426
 20
6.4970745112484467
 30
0.0
 11
-93.258745144278748
 21
4.6479256370769209
 31
0.0
  0
LINE
  5
44AC
  8
KOPF
  6
CONTINUOUS
 62
     5
 10
-68.520879871426345
 20
12.668123354993501
 30
0.0
 11
-68.520879871426359
 21
2.6479256370769262
 31
0.0
  0
LINE
  5
44AD
  8
KOPF
  6
CONTINUOUS
 62
     5
 10
-67.020879871426359
 20
12.668123354993501
 30
0.0
 11
-67.020879871426359
 21
2.6479256370769262
 31
0.0
  0
LINE
  5
44AE
  8
KOPF
  6
CONTINUOUS
 62
     5
 10
-108.5125298512052
 20
2.6479256370769262
 30
0.0
 11
-110.0125298512052
 21
1.1479256370769271
 31
0.0
  0
LINE
  5
44AF
  8
KOPF
  6
CONTINUOUS
 62
     5
 10
-67.020879871426359
 20
2.6479256370769262
 30
0.0
 11
-67.020879871426359
 21
1.1479256370769271
 31
0.0
  0
ENDBLK
  5
44B1
  8
0
  0
BLOCK
  8
0
  2
*U6
 70
     1
 10
0.0
 20
0.0
 30
0.0
  3
*U6
  1

  0
TEXT
  5
44B3
  8
KOPF
 62
     7
 10
-179.8938444506488
 20
10.95992812079473
 30
0.0
 40
3.0
  1
WKK Kaltbrunn AG
  0
ENDBLK
  5
44B5
  8
0
  0
BLOCK
  8
0
  2
*U7
 70
     1
 10
0.0
 20
0.0
 30
0.0
  3
*U7
  1

  0
TEXT
  5
44B7
  8
KOPF
 62
     7
 10
-180.09032934719031
 20
6.3668023595174246
 30
0.0
 40
3.0
  1
Benknerstrasse 28
  0
TEXT
  5
44B8
  8
KOPF
 62
     7
 10
-179.9921028806146
 20
1.31564274150924
 30
0.0
 40
3.0
  1
CH-8722 Kaltbrunn
  0
ENDBLK
  5
44BA
  8
0
  0
BLOCK
  8
0
  2
*U8
 70
     1
 10
0.0
 20
0.0
 30
0.0
  3
*U8
  1

  0
TEXT
  5
44BC
  8
AM_BL
 10
-161.58261534166309
 20
55.987140657189443
 30
0.0
 40
3.5
  1
Bezeichnung
  0
ENDBLK
  5
44BE
  8
0
  0
BLOCK
  8
0
  2
*U9
 70
     1
 10
0.0
 20
0.0
 30
0.0
  3
*U9
  1

  0
TEXT
  5
44C0
  8
AM_BL
 10
-179.13891908286661
 20
55.987140657189443
 30
0.0
 40
3.5
  1
Stück
  0
ENDBLK
  5
44C2
  8
0
  0
BLOCK
  8
0
  2
*U10
 70
     1
 10
0.0
 20
0.0
 30
0.0
  3
*U10
  1

  0
TEXT
  5
44C4
  8
AM_BL
 10
-60.720110538998618
 20
55.962800380297388
 30
0.0
 40
3.5
  1
Dimension
  0
ENDBLK
  5
44C6
  8
0
  0
BLOCK
  8
0
  2
*U11
 70
     1
 10
0.0
 20
0.0
 30
0.0
  3
*U11
  1

  0
TEXT
  5
44C8
  8
AM_BL
 10
-90.720110538998625
 20
55.987140657189443
 30
0.0
 40
3.5
  1
Material
  0
ENDBLK
  5
44CA
  8
0
  0
BLOCK
  8
0
  2
*U12
 70
     1
 10
0.0
 20
0.0
 30
0.0
  3
*U12
  1

  0
TEXT
  5
44CC
  8
AM_BL
 10
-102.7201105389986
 20
55.987140657189443
 30
0.0
 40
3.5
  1
POS
  0
ENDBLK
  5
44CE
  8
0
  0
BLOCK
  8
0
  2
*U13
 70
     1
 10
0.0
 20
0.0
 30
0.0
  3
*U13
  1

  0
TEXT
  5
44D0
  8
AM_BL
 10
-30.720110538998622
 20
55.987140657189443
 30
0.0
 40
3.5
  1
Bemerkung
  0
ENDBLK
  5
44D2
  8
0
  0
BLOCK
  8
0
  2
*U14
 70
     1
 10
0.0
 20
0.0
 30
0.0
  3
*U14
  1

  0
TEXT
  5
44D6
  8
0
 10
-62.66657360332615
 20
2.4025767575764938
 30
0.0
 40
3.5
  1
Toleranzen DIN 6930 Teil 2 m
  0
ENDBLK
  5
44D8
  8
0
  0
BLOCK
  8
0
  2
*U15
 70
     1
 10
0.0
 20
0.0
 30
0.0
  3
*U15
  1

  0
TEXT
  5
44DA
  8
0
 10
1.360090072266348
 20
-27.635382488715781
 30
0.0
 40
3.0
  1
Unterschrift: ........................................
  0
ENDBLK
  5
44DC
  8
0
  0
BLOCK
  8
0
  2
*U16
 70
     1
 10
0.0
 20
0.0
 30
0.0
  3
*U16
  1

  0
TEXT
  5
44DE
  8
0
 10
1.360090072266348
 20
-17.656245583194679
 30
0.0
 40
3.0
  1
Datum: ..........................................
  0
ENDBLK
  5
44E0
  8
0
  0
BLOCK
  8
0
  2
*U17
 70
     1
 10
0.0
 20
0.0
 30
0.0
  3
*U17
  1

  0
TEXT
  5
44E2
  8
0
 10
1.060090072266348
 20
-6.6353824887157771
 30
0.0
 40
5.0
  1
%%UZeichnungsfreigabe
  0
ENDBLK
  5
44E4
  8
0
  0
BLOCK
  8
0
  2
*U18
 70
     1
 10
0.0
 20
0.0
 30
0.0
  3
*U18
  1

  0
TEXT
  5
44E6
  8
0
 10
1.4789089699041429
 20
-37.635382488715777
 30
0.0
 40
3.0
  1
Stempel
  0
ENDBLK
  5
44E8
  8
0
  0
BLOCK
  8
0
  2
*U19
 70
     1
 10
0.0
 20
0.0
 30
0.0
  3
*U19
  1

  0
TEXT
  5
44EA
  8
0
 10
327.84042190804661
 20
152.4597275190003
 30
0.0
 40
5.0
  1
Bodenmulde Planet BM d10
  0
ENDBLK
  5
44EC
  8
0
  0
BLOCK
  8
0
  2
*U20
 70
     1
 10
0.0
 20
0.0
 30
0.0
  3
*U20
  1

  0
TEXT
  5
44EE
  8
KOPF
 62
     7
 10
328.46813664847139
 20
137.45949278273801
 30
0.0
 40
3.0
  1
Planet GDZ AG
  0
ENDBLK
  5
44F0
  8
0
  0
BLOCK
  8
0
  2
*U21
 70
     1
 10
0.0
 20
0.0
 30
0.0
  3
*U21
  1

  0
TEXT
  5
44F2
  8
KOPF
 62
     7
 10
328.5499600738944
 20
132.87864532978259
 30
0.0
 40
3.0
  1
Eigentalstrasse 7
  0
TEXT
  5
44F3
  8
KOPF
 62
     7
 10
328.6727431571141
 20
127.8274857117744
 30
0.0
 40
3.0
  1
CH-8309 Nürendorf
  0
ENDBLK
  5
44F5
  8
0
  0
BLOCK
  8
0
  2
*U22
 70
     1
 10
0.0
 20
0.0
 30
0.0
  3
*U22
  1

  0
TEXT
  5
44F7
  8
KOPF
 62
     7
 10
486.20077471875459
 20
143.9132579433591
 30
0.0
 40
3.0
  1
A4
  0
ENDBLK
  5
44F9
  8
0
  0
BLOCK
  8
0
  2
*U23
 70
     1
 10
0.0
 20
0.0
 30
0.0
  3
*U23
  1

  0
TEXT
  5
44FB
  8
KOPF
 62
     7
 10
452.64994475805599
 20
143.9009796350372
 30
0.0
 40
3.0
  1
1 : 1
  0
ENDBLK
  5
44FD
  8
0
  0
BLOCK
  8
0
  2
*U24
 70
     1
 10
0.0
 20
0.0
 30
0.0
  3
*U24
  1

  0
TEXT
  5
44FF
  8
0
 10
431.596758801031
 20
131.04115043731849
 30
0.0
 40
5.0
  1
900'276
  0
ENDBLK
  5
4501
  8
0
  0
BLOCK
  8
0
  2
*U25
 70
     1
 10
0.0
 20
0.0
 30
0.0
  3
*U25
  1

  0
TEXT
  5
4503
  8
0
 10
470.90192605037078
 20
130.875396199779
 30
0.0
 40
5.0
  1
D
  0
ENDBLK
  5
4505
  8
0
  0
BLOCK
  8
0
  2
*U26
 70
     1
 10
0.0
 20
0.0
 30
0.0
  3
*U26
  1

  0
TEXT
  5
4507
  8
KOPF
 62
     7
 10
452.8603223374605
 20
150.48762385005361
 30
0.0
 40
3.0
  1
2.12.2004
  0
ENDBLK
  5
4509
  8
0
  0
BLOCK
  8
0
  2
*U27
 70
     1
 10
0.0
 20
0.0
 30
0.0
  3
*U27
  1

  0
TEXT
  5
450B
  8
KOPF
 62
     7
 10
453.15646376874611
 20
156.65332601998981
 30
0.0
 40
3.0
  1
Andreas Dintheer
  0
ENDBLK
  5
450D
  8
0
  0
ENDSEC
  0
SECTION
  2
ENTITIES
  0
POINT
  5
1A6
  8
0
 10
0.0
 20
0.0
 30
0.0
  0
POINT
  5
1A7
  8
0
 10
0.0
 20
0.0
 30
0.0
  0
POINT
  5
C98
  8
0
 10
-0.0000000000097771
 20
538.6301963014962
 30
0.0
1001
GENIUS_GENODEF_13
1002
{
1000
HIER
1070
    10
1002
}
1002
{
1000
MANEDIT
1070
     0
1002
}
1002
{
1000
NOSEL
1070
     0
1002
}
1002
{
1000
BEHIND
1070
     0
1002
}
1002
{
1000
OTHER
1070
     0
1002
}
1002
{
1000
REACTOR
1002
}
1001
GENIUS_GENOBJ-N-CRS_13
1002
{
1000
OWNER
1000
GEN
1002
}
1001
GENIUS_GENOENT_13
1002
{
1000
MYREF
1005
C98
1002
}
1002
{
1000
GRP
1005
0
1002
}
1001
GENIUS_GENOLIS_13
1002
{
1000
ENT
1005
C76
1005
C37
1005
C79
1005
C78
1002
}
  0
POINT
  5
C99
  8
0
 10
-0.0000000000097771
 20
538.6301963014962
 30
0.0
1001
GENIUS_GENOLIS_13
1002
{
1000
ENT
1005
C5B
1005
C5D
1005
C5E
1005
C59
1002
}
1001
GENIUS_GENOBJ-N-CRS_13
1002
{
1000
OWNER
1000
GEN
1002
}
1001
GENIUS_GENOENT_13
1002
{
1000
MYREF
1005
C99
1002
}
1002
{
1000
GRP
1005
0
1002
}
1001
GENIUS_GENODEF_13
1002
{
1000
HIER
1070
    10
1002
}
1002
{
1000
MANEDIT
1070
     0
1002
}
1002
{
1000
NOSEL
1070
     0
1002
}
1002
{
1000
BEHIND
1070
     0
1002
}
1002
{
1000
OTHER
1070
     0
1002
}
1002
{
1000
REACTOR
1002
}
  0
POINT
  5
C9A
  8
0
 10
0.0
 20
0.0
 30
0.0
1001
GENIUS_GENOLIS_13
1002
{
1000
ENT
1005
C13
1005
C17
1005
C18
1005
C16
1002
}
1001
GENIUS_GENOBJ-N-CRS_13
1002
{
1000
OWNER
1000
GEN
1002
}
1001
GENIUS_GENOENT_13
1002
{
1000
MYREF
1005
C9A
1002
}
1002
{
1000
GRP
1005
0
1002
}
1001
GENIUS_GENODEF_13
1002
{
1000
HIER
1070
    10
1002
}
1002
{
1000
MANEDIT
1070
     0
1002
}
1002
{
1000
NOSEL
1070
     0
1002
}
1002
{
1000
BEHIND
1070
     0
1002
}
1002
{
1000
OTHER
1070
     0
1002
}
1002
{
1000
REACTOR
1002
}
  0
POINT
  5
C9B
  8
0
 10
0.0
 20
0.0
 30
0.0
1001
GENIUS_GENODEF_13
1002
{
1000
HIER
1070
    10
1002
}
1002
{
1000
MANEDIT
1070
     0
1002
}
1002
{
1000
NOSEL
1070
     0
1002
}
1002
{
1000
BEHIND
1070
     0
1002
}
1002
{
1000
OTHER
1070
     0
1002
}
1002
{
1000
REACTOR
1002
}
1001
GENIUS_GENOBJ-N-CRS_13
1002
{
1000
OWNER
1000
GEN
1002
}
1001
GENIUS_GENOENT_13
1002
{
1000
MYREF
1005
C9B
1002
}
1002
{
1000
GRP
1005
0
1002
}
1001
GENIUS_GENOLIS_13
1002
{
1000
ENT
1005
C1A
1005
C0F
1005
C1D
1005
C1C
1002
}
  0
TEXT
  5
410C
  8
0
 62
     3
 10
390.39589293956487
 20
319.91509815075563
 30
0.0
 40
3.5
  1
16.5
  0
TEXT
  5
410D
  8
0
 62
     3
 10
394.35673889948561
 20
283.36437464596457
 30
0.0
 40
3.5
  1
3.5
  0
TEXT
  5
410E
  8
0
 62
     3
 10
403.30521640960711
 20
266.89843148408897
 30
0.0
 40
3.5
  1
16
 50
90.0
  0
SOLID
  5
410F
  8
5
 62
     3
 10
398.2806376219396
 20
298.38254974826788
 30
0.0
 11
398.4788503076287
 21
297.5731325655517
 31
0.0
 12
400.80799551293279
 22
298.57247921397732
 32
0.0
 13
400.80799551293279
 23
298.57247921397732
 33
0.0
  0
LINE
  5
4110
  8
5
 62
     3
 10
399.66783588633518
 20
292.95702752506583
 30
0.0
 11
407.6239499927932
 21
305.67316877644521
 31
0.0
  0
LINE
  5
4111
  8
5
 62
     3
 10
411.14589293956527
 20
333.31509916075572
 30
0.0
 11
363.14589293956527
 21
333.31509916075572
 31
0.0
  0
LINE
  5
4112
  8
5
 62
     3
 10
398.6397994361696
 20
256.39523345747608
 30
0.0
 11
402.85568150129751
 21
253.38841504414029
 31
0.0
  0
ARC
  5
4113
  8
0
 10
400.71267364294579
 20
367.34690534512509
 30
0.0
 40
3.25
 50
90.0
 51
177.00000000000091
  0
ARC
  5
4114
  8
0
 10
400.71267364294579
 20
367.34690534512509
 30
0.0
 40
2.0
 50
90.0
 51
177.00000000000091
  0
LINE
  5
4115
  8
5
 62
     3
 10
403.6458929395676
 20
282.76437464596461
 30
0.0
 11
394.90091819273698
 21
282.76437464596461
 31
0.0
  0
LINE
  5
4116
  8
5
 62
     3
 10
389.64589293956539
 20
319.31509815075549
 30
0.0
 11
401.14589293956431
 21
319.31509815075549
 31
0.0
  0
LINE
  5
4117
  8
0
 10
381.57911223618493
 20
370.59690534512509
 30
0.0
 11
400.71267364294579
 21
370.59690534512509
 31
0.0
  0
LINE
  5
4118
  8
0
 10
368.64589293956527
 20
309.31509815075572
 30
0.0
 11
405.64589293956527
 21
309.3150981507556
 31
0.0
  0
LINE
  5
4119
  8
7A
 10
403.64589293956419
 20
299.3150981507556
 30
0.0
 11
393.14589293956431
 21
299.3150981507552
 31
0.0
1001
GENIUS_GENOREF_13
1005
0
  0
ARC
  5
411A
  8
0
 10
395.46267364294579
 20
279.563514124135
 30
0.0
 40
5.25
 50
0.0
 51
90.0
1001
GENIUS_GENOBJ-N-FIL_13
1002
{
1000
OWNER
1000
GEN
1002
}
1001
GENIUS_GENODEF_13
1002
{
1000
HIER
1070
     0
1002
}
1002
{
1000
MANEDIT
1070
     0
1002
}
1002
{
1000
NOSEL
1070
     0
1002
}
1002
{
1000
BEHIND
1070
     0
1002
}
1002
{
1000
OTHER
1070
     0
1002
}
1002
{
1000
REACTOR
1002
}
  0
LINE
  5
411B
  8
7A
 10
403.64589293956539
 20
239.31509815075529
 30
0.0
 11
393.14589293956539
 21
239.31509815075529
 31
0.0
1001
GENIUS_GENOREF_13
1005
0
  0
CIRCLE
  5
411C
  8
0
 10
403.64589293956539
 20
239.31509815075529
 30
0.0
 40
7.5
  0
LINE
  5
411D
  8
0
 10
405.64589293956578
 20
229.3150981507554
 30
0.0
 11
368.64589293956573
 21
229.31509815075361
 31
0.0
  0
ARC
  5
411E
  8
0
 10
395.46267364294579
 20
259.06668217737621
 30
0.0
 40
5.25
 50
270.0
 51
0.0
1001
GENIUS_GENOBJ-N-FIL_13
1002
{
1000
OWNER
1000
GEN
1002
}
1001
GENIUS_GENODEF_13
1002
{
1000
HIER
1070
     0
1002
}
1002
{
1000
MANEDIT
1070
     0
1002
}
1002
{
1000
NOSEL
1070
     0
1002
}
1002
{
1000
BEHIND
1070
     0
1002
}
1002
{
1000
OTHER
1070
     0
1002
}
1002
{
1000
REACTOR
1002
}
  0
LINE
  5
411F
  8
7
 10
415.12859404603353
 20
269.3150981507556
 30
0.0
 11
359.16319183310179
 21
269.3150981507556
 31
0.0
1001
GENIUS_GENODEF_13
1002
{
1000
HIER
1070
     0
1002
}
1002
{
1000
MANEDIT
1070
     0
1002
}
1002
{
1000
NOSEL
1070
     0
1002
}
1002
{
1000
BEHIND
1070
     0
1002
}
1002
{
1000
OTHER
1070
     0
1002
}
1002
{
1000
REACTOR
1002
}
1001
GENIUS_GENOBJ-N-CEN_13
1002
{
1000
OWNER
1000
GEN
1002
}
  0
CIRCLE
  5
4120
  8
0
 10
403.64589293956419
 20
299.3150981507556
 30
0.0
 40
7.5
  0
LINE
  5
4121
  8
5
 62
     3
 10
361.35806679353112
 20
308.87403921846999
 30
0.0
 11
356.41966161771069
 21
313.9961583448756
 31
0.0
  0
LINE
  5
4122
  8
5
 62
     3
 10
360.64589293956527
 20
302.21444455133093
 30
0.0
 11
360.64589293956527
 21
327.31509916075572
 31
0.0
  0
LINE
  5
4123
  8
5
 62
     3
 10
387.14589293956527
 20
309.3150981507556
 30
0.0
 11
387.14589293956527
 21
327.31509916075572
 31
0.0
  0
LINE
  5
4124
  8
5
 62
     3
 10
370.64589293956391
 20
309.31509815075498
 30
0.0
 11
370.64589293956391
 21
320.31509916075368
 31
0.0
  0
LINE
  5
4125
  8
5
 62
     3
 10
387.14589293956527
 20
309.31509815075572
 30
0.0
 11
387.14589293956527
 21
320.31509916075368
 31
0.0
  0
LINE
  5
4126
  8
5
 62
     3
 10
360.64589293956527
 20
301.31509815075577
 30
0.0
 11
360.64589293956527
 21
334.31509916075572
 31
0.0
  0
LINE
  5
4127
  8
5
 62
     3
 10
387.14589293956539
 20
309.3150981507556
 30
0.0
 11
387.14589293956539
 21
320.3150981507556
 31
0.0
  0
TEXT
  5
4128
  8
0
 62
     3
 10
376.27671364631601
 20
249.9960323971298
 30
0.0
 40
3.5
  1
4.5
  0
LINE
  5
4129
  8
5
 62
     3
 10
336.64589192956521
 20
306.81509815075572
 30
0.0
 11
336.64589192956521
 21
231.81509815075361
 31
0.0
  0
LINE
  5
412A
  8
5
 62
     3
 10
344.97958616872398
 20
296.81509815075611
 30
0.0
 11
344.97958616872398
 21
241.8150981507537
 31
0.0
  0
SOLID
  5
412B
  8
5
 62
     3
 10
350.22922527290081
 20
250.56576381434911
 30
0.0
 11
351.06255860623412
 21
250.56576381434911
 31
0.0
 12
350.64589193956749
 22
253.06576381434911
 32
0.0
 13
350.64589193956749
 23
253.06576381434911
 33
0.0
  0
LINE
  5
412C
  8
5
 62
     3
 10
367.14589293956737
 20
253.06576381434911
 30
0.0
 11
367.14589293956737
 21
248.3960323971298
 31
0.0
  0
LINE
  5
412D
  8
5
 62
     3
 10
371.64589293956737
 20
253.06576381434911
 30
0.0
 11
371.64589293956737
 21
248.3960323971298
 31
0.0
  0
LINE
  5
412E
  8
0
 10
360.64589293956527
 20
237.31509815075361
 30
0.0
 11
360.64589293956527
 21
301.31509815075572
 31
0.0
  0
LINE
  5
412F
  8
7
 10
391.14589293956527
 20
312.3150981507556
 30
0.0
 11
391.14589293956527
 21
226.31509815075481
 31
0.0
1001
GENIUS_GENOBJ-N-CEN_13
1002
{
1000
OWNER
1000
GEN
1002
}
1001
GENIUS_GENODEF_13
1002
{
1000
HIER
1070
     0
1002
}
1002
{
1000
MANEDIT
1070
     0
1002
}
1002
{
1000
NOSEL
1070
     0
1002
}
1002
{
1000
BEHIND
1070
     0
1002
}
1002
{
1000
OTHER
1070
     0
1002
}
1002
{
1000
REACTOR
1002
}
  0
LINE
  5
4130
  8
7
 10
387.14589293956539
 20
312.31509815075572
 30
0.0
 11
387.14589293956578
 21
226.31509815075449
 31
0.0
1001
GENIUS_GENOBJ-N-CEN_13
1002
{
1000
OWNER
1000
GEN
1002
}
1001
GENIUS_GENODEF_13
1002
{
1000
HIER
1070
     0
1002
}
1002
{
1000
MANEDIT
1070
     0
1002
}
1002
{
1000
NOSEL
1070
     0
1002
}
1002
{
1000
BEHIND
1070
     0
1002
}
1002
{
1000
OTHER
1070
     0
1002
}
1002
{
1000
REACTOR
1002
}
  0
LINE
  5
4131
  8
5
 62
     3
 10
368.64589293956527
 20
229.31509815075361
 30
0.0
 11
335.64589192956521
 21
229.31509815075361
 31
0.0
  0
LINE
  5
4132
  8
5
 62
     3
 10
370.64589293956431
 20
239.3150981507537
 30
0.0
 11
343.97958616872398
 21
239.3150981507537
 31
0.0
  0
LINE
  5
4133
  8
5
 62
     3
 10
370.64589293956641
 20
239.3150981507537
 30
0.0
 11
349.64589193956738
 21
239.3150981507537
 31
0.0
  0
LINE
  5
4134
  8
7A
 10
370.64589293956527
 20
239.3150981507537
 30
0.0
 11
360.14589293956527
 21
239.3150981507537
 31
0.0
1001
GENIUS_GENOREF_13
1005
0
  0
ARC
  5
4135
  8
0
 10
368.64589293956527
 20
237.31509815075361
 30
0.0
 40
8.0
 50
180.0
 51
270.0000000000033
1001
GENIUS_GENODEF_13
1002
{
1000
HIER
1070
     0
1002
}
1002
{
1000
MANEDIT
1070
     0
1002
}
1002
{
1000
NOSEL
1070
     0
1002
}
1002
{
1000
BEHIND
1070
     0
1002
}
1002
{
1000
OTHER
1070
     0
1002
}
1002
{
1000
REACTOR
1002
}
1001
GENIUS_GENOBJ-N-FIL_13
1002
{
1000
OWNER
1000
GEN
1002
}
  0
SOLID
  5
4136
  8
5
 62
     3
 10
336.22922526289852
 20
231.81509815075361
 30
0.0
 11
337.0625585962319
 21
231.81509815075361
 31
0.0
 12
336.64589192956521
 22
229.31509815075361
 32
0.0
 13
336.64589192956521
 23
229.31509815075361
 33
0.0
  0
TEXT
  5
4137
  8
0
 62
     3
 10
349.6208919395674
 20
241.44043098255139
 30
0.0
 40
3.5
  1
(14)
 50
90.0
  0
LINE
  5
4138
  8
5
 62
     3
 10
350.64589193956749
 20
241.8150981507537
 30
0.0
 11
350.64589193956749
 21
250.56576381434911
 31
0.0
  0
SOLID
  5
4139
  8
5
 62
     3
 10
344.5629195020573
 20
241.8150981507537
 30
0.0
 11
345.39625283539073
 21
241.8150981507537
 31
0.0
 12
344.97958616872398
 22
239.3150981507537
 32
0.0
 13
344.97958616872398
 23
239.3150981507537
 33
0.0
  0
SOLID
  5
413A
  8
5
 62
     3
 10
350.22922527290081
 20
241.8150981507537
 30
0.0
 11
351.06255860623412
 21
241.8150981507537
 31
0.0
 12
350.64589193956749
 22
239.3150981507537
 32
0.0
 13
350.64589193956749
 23
239.3150981507537
 33
0.0
  0
TEXT
  5
413B
  8
0
 62
     3
 10
396.2774412346576
 20
219.91509815075449
 30
0.0
 40
3.5
  1
C
  0
LINE
  5
413C
  8
5
 62
     3
 10
391.14589293956527
 20
229.31509815075469
 30
0.0
 11
391.14589293956527
 21
218.31509815075449
 31
0.0
  0
LINE
  5
413D
  8
5
 62
     3
 10
387.14589293956959
 20
229.31509815075449
 30
0.0
 11
387.14589293956959
 21
218.31509815075449
 31
0.0
  0
LINE
  5
413E
  8
5
 62
     3
 10
387.14589293956959
 20
219.31509815075449
 30
0.0
 11
391.14589293956527
 21
219.31509815075449
 31
0.0
  0
SOLID
  5
413F
  8
5
 62
     3
 10
384.64589293956959
 20
219.73176481742121
 30
0.0
 11
384.64589293956959
 21
218.89843148408781
 31
0.0
 12
387.14589293956959
 22
219.31509815075449
 32
0.0
 13
387.14589293956959
 23
219.31509815075449
 33
0.0
  0
LINE
  5
4140
  8
5
 62
     3
 10
384.64589293956959
 20
219.31509815075449
 30
0.0
 11
382.14589293956971
 21
219.31509815075449
 31
0.0
  0
LINE
  5
4141
  8
5
 62
     3
 10
393.64589293956527
 20
219.31509815075449
 30
0.0
 11
398.90898952974982
 21
219.31509815075449
 31
0.0
  0
SOLID
  5
4142
  8
5
 62
     3
 10
393.64589293956527
 20
219.73176481742121
 30
0.0
 11
393.64589293956527
 21
218.89843148408781
 31
0.0
 12
391.14589293956527
 22
219.31509815075449
 32
0.0
 13
391.14589293956527
 23
219.31509815075449
 33
0.0
  0
LINE
  5
4143
  8
5
 62
     3
 10
374.14589293956737
 20
249.3960323971298
 30
0.0
 11
383.24086768639802
 21
249.3960323971298
 31
0.0
  0
LINE
  5
4144
  8
7A
 10
370.64589293956527
 20
239.3150981507537
 30
0.0
 11
381.14589293956527
 21
239.3150981507537
 31
0.0
1001
GENIUS_GENOREF_13
1005
0
  0
CIRCLE
  5
4145
  8
0
 10
370.64589293956527
 20
239.3150981507537
 30
0.0
 40
3.0
  0
LINE
  5
4146
  8
7A
 10
370.64589293956527
 20
239.3150981507537
 30
0.0
 11
370.64589293956527
 21
228.8150981507537
 31
0.0
1001
GENIUS_GENOREF_13
1005
0
  0
CIRCLE
  5
4147
  8
0
 10
370.64589293956527
 20
239.3150981507537
 30
0.0
 40
7.5
  0
LINE
  5
4148
  8
5
 62
     3
 10
367.14589293956737
 20
249.3960323971298
 30
0.0
 11
371.64589293956737
 21
249.3960323971298
 31
0.0
  0
LINE
  5
4149
  8
7A
 10
370.64589293956527
 20
239.3150981507537
 30
0.0
 11
370.64589293956527
 21
249.8150981507537
 31
0.0
1001
GENIUS_GENOREF_13
1005
0
  0
SOLID
  5
414A
  8
5
 62
     3
 10
364.64589293956737
 20
249.81269906379649
 30
0.0
 11
364.64589293956737
 21
248.9793657304632
 31
0.0
 12
367.14589293956737
 22
249.3960323971298
 32
0.0
 13
367.14589293956737
 23
249.3960323971298
 33
0.0
  0
LINE
  5
414B
  8
5
 62
     3
 10
364.64589293956737
 20
249.3960323971298
 30
0.0
 11
362.14589293956737
 21
249.3960323971298
 31
0.0
  0
SOLID
  5
414C
  8
5
 62
     3
 10
374.14589293956737
 20
249.81269906379649
 30
0.0
 11
374.14589293956737
 21
248.9793657304632
 31
0.0
 12
371.64589293956737
 22
249.3960323971298
 32
0.0
 13
371.64589293956737
 23
249.3960323971298
 33
0.0
  0
LINE
  5
414D
  8
5
 62
     3
 10
367.14589293956737
 20
285.56509815075611
 30
0.0
 11
349.64589193956738
 21
285.56509815075611
 31
0.0
  0
LINE
  5
414E
  8
5
 62
     3
 10
367.14589293956737
 20
253.06576381434911
 30
0.0
 11
349.64589193956738
 21
253.06576381434911
 31
0.0
  0
LINE
  5
414F
  8
5
 62
     3
 10
370.64589293956641
 20
299.31509815075611
 30
0.0
 11
349.64589193956738
 21
299.31509815075611
 31
0.0
  0
LINE
  5
4150
  8
5
 62
     3
 10
367.14589293956737
 20
285.56509815075611
 30
0.0
 11
349.64589193956738
 21
285.56509815075611
 31
0.0
  0
SOLID
  5
4151
  8
5
 62
     3
 10
363.14589293956749
 20
288.13789399253159
 30
0.0
 11
363.14589293956749
 21
287.30456065919822
 31
0.0
 12
360.64589293956749
 22
287.7212273258649
 32
0.0
 13
360.64589293956749
 23
287.7212273258649
 33
0.0
  0
LINE
  5
4152
  8
5
 62
     3
 10
368.64589293956527
 20
309.31509815075572
 30
0.0
 11
335.64589192956521
 21
309.31509815075572
 31
0.0
  0
LINE
  5
4153
  8
5
 62
     3
 10
370.64589293956431
 20
299.31509815075611
 30
0.0
 11
343.97958616872398
 21
299.31509815075611
 31
0.0
  0
LINE
  5
4154
  8
5
 62
     3
 10
367.14589293956737
 20
253.06576381434911
 30
0.0
 11
349.64589193956738
 21
253.06576381434911
 31
0.0
  0
SOLID
  5
4155
  8
5
 62
     3
 10
361.65802477240862
 20
309.16323866870948
 30
0.0
 11
361.05810881465351
 21
308.58483976823061
 31
0.0
 12
363.0932634949678
 22
307.0742913452047
 32
0.0
 13
363.0932634949678
 23
307.0742913452047
 33
0.0
  0
LINE
  5
4156
  8
7A
 10
370.64589293956431
 20
299.31509815075611
 30
0.0
 11
360.14589293956431
 21
299.31509815075572
 31
0.0
1001
GENIUS_GENOREF_13
1005
0
  0
ARC
  5
4157
  8
0
 10
368.64589293956527
 20
301.31509815075572
 30
0.0
 40
8.0
 50
90.0
 51
180.0
1001
GENIUS_GENOBJ-N-FIL_13
1002
{
1000
OWNER
1000
GEN
1002
}
1001
GENIUS_GENODEF_13
1002
{
1000
HIER
1070
     0
1002
}
1002
{
1000
MANEDIT
1070
     0
1002
}
1002
{
1000
NOSEL
1070
     0
1002
}
1002
{
1000
BEHIND
1070
     0
1002
}
1002
{
1000
OTHER
1070
     0
1002
}
1002
{
1000
REACTOR
1002
}
  0
LINE
  5
4158
  8
5
 62
     3
 10
350.64589193956738
 20
255.56576381434911
 30
0.0
 11
350.64589193956738
 21
283.06509815075611
 31
0.0
  0
TEXT
  5
4159
  8
0
 62
     3
 10
344.3795861687239
 20
263.98176481742172
 30
0.0
 40
3.5
  1
60.0
 50
90.0
  0
TEXT
  5
415A
  8
0
 62
     3
 10
336.04589192956507
 20
263.98176481742149
 30
0.0
 40
3.5
  1
80.0
 50
90.0
  0
TEXT
  5
415B
  8
0
 62
     3
 10
350.0455474513783
 20
266.48209764921938
 30
0.0
 40
3.5
  1
32
 50
90.0
  0
SOLID
  5
415C
  8
5
 62
     3
 10
350.22922527290069
 20
255.56576381434911
 30
0.0
 11
351.06255860623401
 21
255.56576381434911
 31
0.0
 12
350.64589193956738
 22
253.06576381434911
 32
0.0
 13
350.64589193956738
 23
253.06576381434911
 33
0.0
  0
SOLID
  5
415D
  8
5
 62
     3
 10
336.22922526289852
 20
306.81509815075572
 30
0.0
 11
337.0625585962319
 21
306.81509815075572
 31
0.0
 12
336.64589192956521
 22
309.31509815075572
 32
0.0
 13
336.64589192956521
 23
309.31509815075572
 33
0.0
  0
SOLID
  5
415E
  8
5
 62
     3
 10
350.22922527290069
 20
296.81509815075611
 30
0.0
 11
351.06255860623401
 21
296.81509815075611
 31
0.0
 12
350.64589193956738
 22
299.31509815075611
 32
0.0
 13
350.64589193956738
 23
299.31509815075611
 33
0.0
  0
SOLID
  5
415F
  8
5
 62
     3
 10
344.5629195020573
 20
296.81509815075611
 30
0.0
 11
345.39625283539073
 21
296.81509815075611
 31
0.0
 12
344.97958616872398
 22
299.31509815075611
 32
0.0
 13
344.97958616872398
 23
299.31509815075611
 33
0.0
  0
TEXT
  5
4160
  8
0
 62
     3
 10
349.6208919395674
 20
287.69009815075623
 30
0.0
 40
3.5
  1
(14)
 50
90.0
  0
LINE
  5
4161
  8
5
 62
     3
 10
350.64589193956738
 20
288.06509815075611
 30
0.0
 11
350.64589193956738
 21
296.81509815075611
 31
0.0
  0
SOLID
  5
4162
  8
5
 62
     3
 10
350.22922527290069
 20
283.06509815075611
 30
0.0
 11
351.06255860623401
 21
283.06509815075611
 31
0.0
 12
350.64589193956738
 22
285.56509815075611
 32
0.0
 13
350.64589193956738
 23
285.56509815075611
 33
0.0
  0
SOLID
  5
4163
  8
5
 62
     3
 10
350.22922527290069
 20
288.06509815075611
 30
0.0
 11
351.06255860623401
 21
288.06509815075611
 31
0.0
 12
350.64589193956738
 22
285.56509815075611
 32
0.0
 13
350.64589193956738
 23
285.56509815075611
 33
0.0
  0
LINE
  5
4164
  8
5
 62
     3
 10
360.64589293956749
 20
285.56509815075611
 30
0.0
 11
360.64589293956749
 21
288.7212273258649
 31
0.0
  0
ARC
  5
4165
  8
0
 10
386.82911223618493
 20
279.563514124135
 30
0.0
 40
5.25
 50
90.0
 51
180.0
1001
GENIUS_GENOBJ-N-FIL_13
1002
{
1000
OWNER
1000
GEN
1002
}
1001
GENIUS_GENODEF_13
1002
{
1000
HIER
1070
     0
1002
}
1002
{
1000
MANEDIT
1070
     0
1002
}
1002
{
1000
NOSEL
1070
     0
1002
}
1002
{
1000
BEHIND
1070
     0
1002
}
1002
{
1000
OTHER
1070
     0
1002
}
1002
{
1000
REACTOR
1002
}
  0
ARC
  5
4166
  8
0
 10
386.82911223618493
 20
259.06668217737621
 30
0.0
 40
5.25
 50
180.0
 51
270.0
1001
GENIUS_GENODEF_13
1002
{
1000
HIER
1070
     0
1002
}
1002
{
1000
MANEDIT
1070
     0
1002
}
1002
{
1000
NOSEL
1070
     0
1002
}
1002
{
1000
BEHIND
1070
     0
1002
}
1002
{
1000
OTHER
1070
     0
1002
}
1002
{
1000
REACTOR
1002
}
1001
GENIUS_GENOBJ-N-FIL_13
1002
{
1000
OWNER
1000
GEN
1002
}
  0
TEXT
  5
4167
  8
0
 10
371.89580122501678
 20
253.06576381434911
 30
0.0
 40
5.0
  1
PLANET 
 50
90.0
  0
TEXT
  5
4168
  8
0
 10
380.2291345583501
 20
253.06576381434911
 30
0.0
 40
5.0
  1
BM
 50
90.0
  0
LINE
  5
4169
  8
0
 10
396.99472483308989
 20
259.06626625723118
 30
0.0
 11
396.99472483308978
 21
279.56393004428003
 31
0.0
1001
GENIUS_GENOBJ-N-FIL_13
1002
{
1000
OWNER
1000
GEN
1002
}
1001
GENIUS_GENODEF_13
1002
{
1000
HIER
1070
     0
1002
}
1002
{
1000
MANEDIT
1070
     0
1002
}
1002
{
1000
NOSEL
1070
     0
1002
}
1002
{
1000
BEHIND
1070
     0
1002
}
1002
{
1000
OTHER
1070
     0
1002
}
1002
{
1000
REACTOR
1002
}
  0
LINE
  5
416A
  8
0
 10
385.29706104604099
 20
279.56393004428003
 30
0.0
 11
385.29706104604088
 21
259.06626625723118
 31
0.0
1001
GENIUS_GENOBJ-N-FIL_13
1002
{
1000
OWNER
1000
GEN
1002
}
1001
GENIUS_GENODEF_13
1002
{
1000
HIER
1070
     0
1002
}
1002
{
1000
MANEDIT
1070
     0
1002
}
1002
{
1000
NOSEL
1070
     0
1002
}
1002
{
1000
BEHIND
1070
     0
1002
}
1002
{
1000
OTHER
1070
     0
1002
}
1002
{
1000
REACTOR
1002
}
  0
LINE
  5
416B
  8
0
 10
381.57911223618493
 20
259.06668217737621
 30
0.0
 11
381.57911223618493
 21
279.563514124135
 31
0.0
  0
LINE
  5
416C
  8
0
 10
387.3970610460409
 20
256.96626625723121
 30
0.0
 11
394.89472483308992
 21
256.96626625723121
 31
0.0
1001
GENIUS_GENOBJ-N-FIL_13
1002
{
1000
OWNER
1000
GEN
1002
}
1001
GENIUS_GENODEF_13
1002
{
1000
HIER
1070
     0
1002
}
1002
{
1000
MANEDIT
1070
     0
1002
}
1002
{
1000
NOSEL
1070
     0
1002
}
1002
{
1000
BEHIND
1070
     0
1002
}
1002
{
1000
OTHER
1070
     0
1002
}
1002
{
1000
REACTOR
1002
}
  0
LINE
  5
416D
  8
0
 10
395.46267364294579
 20
253.81668217737621
 30
0.0
 11
386.82911223618493
 21
253.81668217737621
 31
0.0
  0
ARC
  5
416E
  8
0
 10
387.3970610460409
 20
259.06626625723118
 30
0.0
 40
2.1000000000000218
 50
180.0
 51
270.0
1001
GENIUS_GENOBJ-N-FIL_13
1002
{
1000
OWNER
1000
GEN
1002
}
1001
GENIUS_GENODEF_13
1002
{
1000
HIER
1070
     0
1002
}
1002
{
1000
MANEDIT
1070
     0
1002
}
1002
{
1000
NOSEL
1070
     0
1002
}
1002
{
1000
BEHIND
1070
     0
1002
}
1002
{
1000
OTHER
1070
     0
1002
}
1002
{
1000
REACTOR
1002
}
  0
ARC
  5
416F
  8
0
 10
394.89472483308992
 20
259.06626625723118
 30
0.0
 40
2.1000000000000218
 50
270.0
 51
0.0
1001
GENIUS_GENOBJ-N-FIL_13
1002
{
1000
OWNER
1000
GEN
1002
}
1001
GENIUS_GENODEF_13
1002
{
1000
HIER
1070
     0
1002
}
1002
{
1000
MANEDIT
1070
     0
1002
}
1002
{
1000
NOSEL
1070
     0
1002
}
1002
{
1000
BEHIND
1070
     0
1002
}
1002
{
1000
OTHER
1070
     0
1002
}
1002
{
1000
REACTOR
1002
}
  0
LINE
  5
4170
  8
5
 62
     3
 10
394.89472483308992
 20
259.06626625723129
 30
0.0
 11
396.60443280406099
 21
257.84688171821273
 31
0.0
  0
SOLID
  5
4171
  8
5
 62
     3
 10
398.88174081295892
 20
256.73446122949429
 30
0.0
 11
398.3978580593801
 21
256.0560056854581
 31
0.0
 12
396.60443280406099
 22
257.84688171821273
 32
0.0
 13
396.60443280406099
 23
257.84688171821273
 33
0.0
  0
LINE
  5
4172
  8
0
 10
394.8947248330897
 20
281.66393004427999
 30
0.0
 11
387.39706104604102
 21
281.66393004427999
 31
0.0
1001
GENIUS_GENOBJ-N-FIL_13
1002
{
1000
OWNER
1000
GEN
1002
}
1001
GENIUS_GENODEF_13
1002
{
1000
HIER
1070
     0
1002
}
1002
{
1000
MANEDIT
1070
     0
1002
}
1002
{
1000
NOSEL
1070
     0
1002
}
1002
{
1000
BEHIND
1070
     0
1002
}
1002
{
1000
OTHER
1070
     0
1002
}
1002
{
1000
REACTOR
1002
}
  0
ARC
  5
4173
  8
0
 10
387.39706104604102
 20
279.56393004428003
 30
0.0
 40
2.099999999999965
 50
90.0
 51
180.0
1001
GENIUS_GENOBJ-N-FIL_13
1002
{
1000
OWNER
1000
GEN
1002
}
1001
GENIUS_GENODEF_13
1002
{
1000
HIER
1070
     0
1002
}
1002
{
1000
MANEDIT
1070
     0
1002
}
1002
{
1000
NOSEL
1070
     0
1002
}
1002
{
1000
BEHIND
1070
     0
1002
}
1002
{
1000
OTHER
1070
     0
1002
}
1002
{
1000
REACTOR
1002
}
  0
ARC
  5
4174
  8
0
 10
394.8947248330897
 20
279.56393004428003
 30
0.0
 40
2.1000000000000218
 50
0.0
 51
90.0
1001
GENIUS_GENOBJ-N-FIL_13
1002
{
1000
OWNER
1000
GEN
1002
}
1001
GENIUS_GENODEF_13
1002
{
1000
HIER
1070
     0
1002
}
1002
{
1000
MANEDIT
1070
     0
1002
}
1002
{
1000
NOSEL
1070
     0
1002
}
1002
{
1000
BEHIND
1070
     0
1002
}
1002
{
1000
OTHER
1070
     0
1002
}
1002
{
1000
REACTOR
1002
}
  0
LINE
  5
4175
  8
7A
 10
370.64589293956431
 20
299.31509815075611
 30
0.0
 11
381.14589293956431
 21
299.31509815075651
 31
0.0
1001
GENIUS_GENOREF_13
1005
0
  0
LINE
  5
4176
  8
7A
 10
370.64589293956431
 20
299.31509815075611
 30
0.0
 11
370.64589293956459
 21
288.81509815075611
 31
0.0
1001
GENIUS_GENOREF_13
1005
0
  0
CIRCLE
  5
4177
  8
0
 10
370.64589293956431
 20
299.31509815075611
 30
0.0
 40
7.5
  0
CIRCLE
  5
4178
  8
0
 10
370.64589293956431
 20
299.31509815075611
 30
0.0
 40
3.0
  0
SOLID
  5
4179
  8
5
 62
     3
 10
369.14589293956737
 20
288.13789399253159
 30
0.0
 11
369.14589293956737
 21
287.30456065919822
 31
0.0
 12
371.64589293956737
 22
287.7212273258649
 32
0.0
 13
371.64589293956737
 23
287.7212273258649
 33
0.0
  0
TEXT
  5
417A
  8
0
 62
     3
 10
364.39589293956749
 20
288.32122732586492
 30
0.0
 40
3.5
  1
11
  0
LINE
  5
417B
  8
5
 62
     3
 10
369.14589293956737
 20
287.7212273258649
 30
0.0
 11
363.14589293956749
 21
287.7212273258649
 31
0.0
  0
LINE
  5
417C
  8
5
 62
     3
 10
371.64589293956737
 20
285.56509815075611
 30
0.0
 11
371.64589293956737
 21
288.7212273258649
 31
0.0
  0
LINE
  5
417D
  8
5
 62
     3
 10
368.64589293956561
 20
301.31509815075572
 30
0.0
 11
363.0932634949678
 21
307.0742913452047
 31
0.0
  0
LINE
  5
417E
  8
7A
 10
370.64589293956431
 20
299.31509815075611
 30
0.0
 11
370.64589293956391
 21
309.81509815075611
 31
0.0
1001
GENIUS_GENOREF_13
1005
0
  0
LINE
  5
417F
  8
5
 62
     3
 10
398.3797439647841
 20
297.97784115690979
 30
0.0
 11
395.95149241663529
 21
297.38320309984238
 31
0.0
  0
LINE
  5
4180
  8
0
 10
386.82911223618493
 20
284.81351412413488
 30
0.0
 11
395.46267364294579
 21
284.81351412413488
 31
0.0
  0
LINE
  5
4181
  8
5
 62
     3
 10
398.34181686859222
 20
290.83767064983601
 30
0.0
 11
397.01579785084931
 21
288.71831377460609
 31
0.0
  0
SOLID
  5
4182
  8
5
 62
     3
 10
397.98859072272057
 20
291.0586738194599
 30
0.0
 11
398.69504301446381
 21
290.61666748021219
 31
0.0
 12
399.66783588633518
 22
292.95702752506583
 32
0.0
 13
399.66783588633518
 23
292.95702752506583
 33
0.0
  0
LINE
  5
4183
  8
5
 62
     3
 10
384.82465822413718
 20
367.51699720291458
 30
0.0
 11
384.21409100334961
 21
379.16731379981138
 31
0.0
  0
LINE
  5
4184
  8
7
 10
391.14589293956527
 20
348.84690534512521
 30
0.0
 11
391.14589293956527
 21
374.59690534512509
 31
0.0
1001
GENIUS_GENOBJ-N-CEN_13
1002
{
1000
OWNER
1000
GEN
1002
}
1001
GENIUS_GENODEF_13
1002
{
1000
HIER
1070
     0
1002
}
1002
{
1000
MANEDIT
1070
     0
1002
}
1002
{
1000
NOSEL
1070
     0
1002
}
1002
{
1000
BEHIND
1070
     0
1002
}
1002
{
1000
OTHER
1070
     0
1002
}
1002
{
1000
REACTOR
1002
}
  0
LINE
  5
4185
  8
7A
 10
370.64589293956442
 20
363.59690534512492
 30
0.0
 11
370.64589293956419
 21
373.59690534512492
 31
0.0
1001
GENIUS_GENOBJ-N-CEN_13
1002
{
1000
OWNER
1000
GEN
1002
}
1001
GENIUS_GENODEF_13
1002
{
1000
HIER
1070
     0
1002
}
1002
{
1000
MANEDIT
1070
     0
1002
}
1002
{
1000
NOSEL
1070
     0
1002
}
1002
{
1000
BEHIND
1070
     0
1002
}
1002
{
1000
OTHER
1070
     0
1002
}
1002
{
1000
REACTOR
1002
}
  0
LINE
  5
4186
  8
7
 10
391.14589293956527
 20
373.59690534512521
 30
0.0
 11
391.14589293956527
 21
347.59690534512509
 31
0.0
1001
GENIUS_GENOBJ-N-CEN_13
1002
{
1000
OWNER
1000
GEN
1002
}
1001
GENIUS_GENODEF_13
1002
{
1000
HIER
1070
     0
1002
}
1002
{
1000
MANEDIT
1070
     0
1002
}
1002
{
1000
NOSEL
1070
     0
1002
}
1002
{
1000
BEHIND
1070
     0
1002
}
1002
{
1000
OTHER
1070
     0
1002
}
1002
{
1000
REACTOR
1002
}
  0
LINE
  5
4187
  8
5
 62
     3
 10
387.54382207299477
 20
350.59690534512498
 30
0.0
 11
349.64589293956527
 21
350.59690534512498
 31
0.0
  0
SOLID
  5
4188
  8
5
 62
     3
 10
363.14589293956527
 20
326.73176582742241
 30
0.0
 11
363.14589293956527
 21
325.89843249408898
 31
0.0
 12
360.64589293956527
 22
326.31509916075572
 32
0.0
 13
360.64589293956527
 23
326.31509916075572
 33
0.0
  0
SOLID
  5
4189
  8
5
 62
     3
 10
363.14589293956527
 20
333.73176582742241
 30
0.0
 11
363.14589293956527
 21
332.89843249408898
 31
0.0
 12
360.64589293956527
 22
333.31509916075572
 32
0.0
 13
360.64589293956527
 23
333.31509916075572
 33
0.0
  0
LINE
  5
418A
  8
0
 10
381.57911223618493
 20
370.59690534512509
 30
0.0
 11
360.64589293956527
 21
370.59690534512498
 31
0.0
  0
LINE
  5
418B
  8
0
 10
381.57911223618493
 20
369.34690534512509
 30
0.0
 11
360.64589293956527
 21
369.34690534512498
 31
0.0
  0
TEXT
  5
418C
  8
0
 62
     3
 10
350.8029949510439
 20
314.59615834487562
 30
0.0
 40
3.5
  1
R8
  0
LINE
  5
418D
  8
5
 62
     3
 10
356.41966161771069
 20
313.9961583448756
 30
0.0
 11
351.61966161771062
 21
313.9961583448756
 31
0.0
  0
LINE
  5
418E
  8
5
 62
     3
 10
350.64589293956527
 20
368.09690534512498
 30
0.0
 11
350.64589293956527
 21
353.09690534512498
 31
0.0
  0
SOLID
  5
418F
  8
5
 62
     3
 10
350.22922627289859
 20
353.09690534512498
 30
0.0
 11
351.06255960623201
 21
353.09690534512498
 31
0.0
 12
350.64589293956527
 22
350.59690534512498
 32
0.0
 13
350.64589293956527
 23
350.59690534512498
 33
0.0
  0
LINE
  5
4190
  8
5
 62
     3
 10
360.64589293956527
 20
370.59690534512498
 30
0.0
 11
349.64589293956527
 21
370.59690534512498
 31
0.0
  0
TEXT
  5
4191
  8
0
 62
     3
 10
350.04554845137631
 20
357.76357201179172
 30
0.0
 40
3.5
  1
20
 50
90.0
  0
SOLID
  5
4192
  8
5
 62
     3
 10
350.22922627289859
 20
368.09690534512498
 30
0.0
 11
351.06255960623201
 21
368.09690534512498
 31
0.0
 12
350.64589293956527
 22
370.59690534512498
 32
0.0
 13
350.64589293956527
 23
370.59690534512498
 33
0.0
  0
LINE
  5
4193
  8
8
 10
360.64589293956539
 20
370.3326641302603
 30
0.0
 11
360.91013415443001
 21
370.59690534512492
 31
0.0
1001
GENIUS_GENODEF_13
1002
{
1000
HIER
1070
     0
1002
}
1002
{
1000
MANEDIT
1070
     0
1002
}
1002
{
1000
NOSEL
1070
     0
1002
}
1002
{
1000
BEHIND
1070
     0
1002
}
1002
{
1000
OTHER
1070
     0
1002
}
1002
{
1000
REACTOR
1002
}
1001
GENIUS_GENOBJ-N-HTC_13
1002
{
1000
OWNER
1000
GEN
1002
}
1001
GENIUS_GENHATCH_13
1002
{
1000
DATA
1040
45.0
1042
2.5
1000
_U
1070
     0
1011
380.66451261481239
1021
0.0
1031
0.0
1021
369.8586706364959
1031
0.0
1002
}
1002
{
1000
UCS
1010
0.0
1020
0.0
1030
0.0
1010
1.0
1020
0.0
1030
0.0
1010
0.0
1020
1.0
1030
0.0
1002
}
  0
LINE
  5
4194
  8
0
 10
360.64589293956527
 20
370.59690534512498
 30
0.0
 11
360.64589293956527
 21
369.34690534512498
 31
0.0
  0
TEXT
  5
4195
  8
0
 62
     3
 10
389.39589293956527
 20
340.65349481763008
 30
0.0
 40
3.5
  1
11
  0
LINE
  5
4196
  8
5
 62
     3
 10
396.7452228756448
 20
353.74223343263913
 30
0.0
 11
396.7452228756448
 21
339.05349481763011
 31
0.0
  0
LINE
  5
4197
  8
5
 62
     3
 10
385.54656300348591
 20
353.74223343263913
 30
0.0
 11
385.54656300348591
 21
339.05349481763011
 31
0.0
  0
TEXT
  5
4198
  8
0
 62
     3
 10
373.89589293956459
 20
319.9150991607537
 30
0.0
 40
3.5
  1
16.5
  0
LINE
  5
4199
  8
5
 62
     3
 10
384.64589293956527
 20
326.31509916075572
 30
0.0
 11
363.14589293956527
 21
326.31509916075572
 31
0.0
  0
LINE
  5
419A
  8
5
 62
     3
 10
384.64589293956527
 20
319.31509916075368
 30
0.0
 11
373.14589293956391
 21
319.31509916075368
 31
0.0
  0
TEXT
  5
419B
  8
0
 62
     3
 10
368.56255960623201
 20
326.91544364894469
 30
0.0
 40
3.5
  1
26.5
  0
SOLID
  5
419C
  8
5
 62
     3
 10
373.14589293956391
 20
319.7317658274203
 30
0.0
 11
373.14589293956391
 21
318.89843249408699
 31
0.0
 12
370.64589293956391
 22
319.31509916075368
 32
0.0
 13
370.64589293956391
 23
319.31509916075368
 33
0.0
  0
SOLID
  5
419D
  8
5
 62
     3
 10
384.64589293956527
 20
319.7317658274203
 30
0.0
 11
384.64589293956527
 21
318.89843249408699
 31
0.0
 12
387.14589293956527
 22
319.31509916075368
 32
0.0
 13
387.14589293956527
 23
319.31509916075368
 33
0.0
  0
SOLID
  5
419E
  8
5
 62
     3
 10
389.64589293956539
 20
319.73176481742217
 30
0.0
 11
389.64589293956539
 21
318.8984314840888
 31
0.0
 12
387.14589293956539
 22
319.31509815075549
 32
0.0
 13
387.14589293956539
 23
319.31509815075549
 33
0.0
  0
SOLID
  5
419F
  8
5
 62
     3
 10
384.64589293956527
 20
326.73176582742241
 30
0.0
 11
384.64589293956527
 21
325.89843249408898
 31
0.0
 12
387.14589293956527
 22
326.31509916075572
 32
0.0
 13
387.14589293956527
 23
326.31509916075572
 33
0.0
  0
TEXT
  5
41A0
  8
0
 62
     3
 10
381.81255960623201
 20
333.91509916075569
 30
0.0
 40
3.5
  1
53.0
  0
LINE
  5
41A1
  8
5
 62
     3
 10
388.04656300348591
 20
340.05349481763
 30
0.0
 11
394.2452228756448
 21
340.05349481763
 31
0.0
  0
SOLID
  5
41A2
  8
5
 62
     3
 10
388.04656300348591
 20
340.47016148429668
 30
0.0
 11
388.04656300348591
 21
339.63682815096342
 31
0.0
 12
385.54656300348591
 22
340.05349481763
 32
0.0
 13
385.54656300348591
 23
340.05349481763
 33
0.0
  0
SOLID
  5
41A3
  8
5
 62
     3
 10
394.2452228756448
 20
340.47016148429668
 30
0.0
 11
394.2452228756448
 21
339.63682815096342
 31
0.0
 12
396.7452228756448
 22
340.05349481763
 32
0.0
 13
396.7452228756448
 23
340.05349481763
 33
0.0
  0
LINE
  5
41A4
  8
8
 10
370.26673587222831
 20
369.34690534512498
 30
0.0
 11
371.51673587222831
 21
370.59690534512498
 31
0.0
1001
GENIUS_GENODEF_13
1002
{
1000
HIER
1070
     0
1002
}
1002
{
1000
MANEDIT
1070
     0
1002
}
1002
{
1000
NOSEL
1070
     0
1002
}
1002
{
1000
BEHIND
1070
     0
1002
}
1002
{
1000
OTHER
1070
     0
1002
}
1002
{
1000
REACTOR
1002
}
1001
GENIUS_GENOBJ-N-HTC_13
1002
{
1000
OWNER
1000
GEN
1002
}
1001
GENIUS_GENHATCH_13
1002
{
1000
DATA
1040
45.0
1042
2.5
1000
_U
1070
     0
1011
380.66451261481239
1021
0.0
1031
0.0
1021
369.8586706364959
1031
0.0
1002
}
1002
{
1000
UCS
1010
0.0
1020
0.0
1030
0.0
1010
1.0
1020
0.0
1030
0.0
1010
0.0
1020
1.0
1030
0.0
1002
}
  0
LINE
  5
41A5
  8
0
 10
374.14589293956442
 20
366.59690534512492
 30
0.0
 11
370.64589293956431
 21
366.59690534512492
 31
0.0
  0
LINE
  5
41A6
  8
0
 10
364.39589293956408
 20
369.34690534512521
 30
0.0
 11
367.14589293956431
 21
366.59690534512492
 31
0.0
  0
LINE
  5
41A7
  8
8
 10
363.19566806036278
 20
369.34690534512498
 30
0.0
 11
364.44566806036272
 21
370.59690534512492
 31
0.0
1001
GENIUS_GENODEF_13
1002
{
1000
HIER
1070
     0
1002
}
1002
{
1000
MANEDIT
1070
     0
1002
}
1002
{
1000
NOSEL
1070
     0
1002
}
1002
{
1000
BEHIND
1070
     0
1002
}
1002
{
1000
OTHER
1070
     0
1002
}
1002
{
1000
REACTOR
1002
}
1001
GENIUS_GENOBJ-N-HTC_13
1002
{
1000
OWNER
1000
GEN
1002
}
1001
GENIUS_GENHATCH_13
1002
{
1000
DATA
1040
45.0
1042
2.5
1000
_U
1070
     0
1011
380.66451261481239
1021
0.0
1031
0.0
1021
369.8586706364959
1031
0.0
1002
}
1002
{
1000
UCS
1010
0.0
1020
0.0
1030
0.0
1010
1.0
1020
0.0
1030
0.0
1010
0.0
1020
1.0
1030
0.0
1002
}
  0
LINE
  5
41A8
  8
8
 10
366.7312019662956
 20
369.34690534512498
 30
0.0
 11
367.98120196629549
 21
370.59690534512498
 31
0.0
1001
GENIUS_GENODEF_13
1002
{
1000
HIER
1070
     0
1002
}
1002
{
1000
MANEDIT
1070
     0
1002
}
1002
{
1000
NOSEL
1070
     0
1002
}
1002
{
1000
BEHIND
1070
     0
1002
}
1002
{
1000
OTHER
1070
     0
1002
}
1002
{
1000
REACTOR
1002
}
1001
GENIUS_GENOBJ-N-HTC_13
1002
{
1000
OWNER
1000
GEN
1002
}
1001
GENIUS_GENHATCH_13
1002
{
1000
DATA
1040
45.0
1042
2.5
1000
_U
1070
     0
1011
380.66451261481239
1021
0.0
1031
0.0
1021
369.8586706364959
1031
0.0
1002
}
1002
{
1000
UCS
1010
0.0
1020
0.0
1030
0.0
1010
1.0
1020
0.0
1030
0.0
1010
0.0
1020
1.0
1030
0.0
1002
}
  0
LINE
  5
41A9
  8
0
 10
367.14589293956431
 20
366.59690534512492
 30
0.0
 11
370.64589293956431
 21
366.59690534512492
 31
0.0
  0
LINE
  5
41AA
  8
0
 10
376.89589293956448
 20
369.34690534512509
 30
0.0
 11
374.14589293956442
 21
366.59690534512492
 31
0.0
  0
LINE
  5
41AB
  8
8
 10
373.80226977816102
 20
369.34690534512498
 30
0.0
 11
375.05226977816108
 21
370.59690534512509
 31
0.0
1001
GENIUS_GENODEF_13
1002
{
1000
HIER
1070
     0
1002
}
1002
{
1000
MANEDIT
1070
     0
1002
}
1002
{
1000
NOSEL
1070
     0
1002
}
1002
{
1000
BEHIND
1070
     0
1002
}
1002
{
1000
OTHER
1070
     0
1002
}
1002
{
1000
REACTOR
1002
}
1001
GENIUS_GENOBJ-N-HTC_13
1002
{
1000
OWNER
1000
GEN
1002
}
1001
GENIUS_GENHATCH_13
1002
{
1000
DATA
1040
45.0
1042
2.5
1000
_U
1070
     0
1011
380.66451261481239
1021
0.0
1031
0.0
1021
369.8586706364959
1031
0.0
1002
}
1002
{
1000
UCS
1010
0.0
1020
0.0
1030
0.0
1010
1.0
1020
0.0
1030
0.0
1010
0.0
1020
1.0
1030
0.0
1002
}
  0
LINE
  5
41AC
  8
8
 10
377.33780368409379
 20
369.34690534512498
 30
0.0
 11
378.5878036840939
 21
370.59690534512509
 31
0.0
1001
GENIUS_GENODEF_13
1002
{
1000
HIER
1070
     0
1002
}
1002
{
1000
MANEDIT
1070
     0
1002
}
1002
{
1000
NOSEL
1070
     0
1002
}
1002
{
1000
BEHIND
1070
     0
1002
}
1002
{
1000
OTHER
1070
     0
1002
}
1002
{
1000
REACTOR
1002
}
1001
GENIUS_GENOBJ-N-HTC_13
1002
{
1000
OWNER
1000
GEN
1002
}
1001
GENIUS_GENHATCH_13
1002
{
1000
DATA
1040
45.0
1042
2.5
1000
_U
1070
     0
1011
380.66451261481239
1021
0.0
1031
0.0
1021
369.8586706364959
1031
0.0
1002
}
1002
{
1000
UCS
1010
0.0
1020
0.0
1030
0.0
1010
1.0
1020
0.0
1030
0.0
1010
0.0
1020
1.0
1030
0.0
1002
}
  0
LINE
  5
41AD
  8
0
 10
385.54656300348591
 20
353.74223343263913
 30
0.0
 11
384.82465822413718
 21
367.51699720291458
 31
0.0
  0
LINE
  5
41AE
  8
0
 10
397.46712765499342
 20
367.51699720291458
 30
0.0
 11
396.7452228756448
 21
353.74223343263913
 31
0.0
  0
LINE
  5
41AF
  8
0
 10
384.29827608504257
 20
353.67681348733549
 30
0.0
 11
383.57637130569401
 21
367.45157725761101
 31
0.0
  0
LINE
  5
41B0
  8
0
 10
398.7154145734367
 20
367.45157725761101
 30
0.0
 11
397.99350979408808
 21
353.67681348733549
 31
0.0
  0
LINE
  5
41B1
  8
8
 10
396.92177626417202
 20
357.11107277180861
 30
0.0
 11
398.24271939258898
 21
358.43201590022562
 31
0.0
1001
GENIUS_GENODEF_13
1002
{
1000
HIER
1070
     0
1002
}
1002
{
1000
MANEDIT
1070
     0
1002
}
1002
{
1000
NOSEL
1070
     0
1002
}
1002
{
1000
BEHIND
1070
     0
1002
}
1002
{
1000
OTHER
1070
     0
1002
}
1002
{
1000
REACTOR
1002
}
1001
GENIUS_GENOBJ-N-HTC_13
1002
{
1000
OWNER
1000
GEN
1002
}
1001
GENIUS_GENHATCH_13
1002
{
1000
DATA
1040
45.0
1042
2.5
1000
_U
1070
     0
1011
380.66451261481239
1021
0.0
1031
0.0
1021
369.8586706364959
1031
0.0
1002
}
1002
{
1000
UCS
1010
0.0
1020
0.0
1030
0.0
1010
1.0
1020
0.0
1030
0.0
1010
0.0
1020
1.0
1030
0.0
1002
}
  0
LINE
  5
41B2
  8
0
 10
391.14589293956527
 20
351.84690534512498
 30
0.0
 11
387.543822072995
 21
351.84690534512498
 31
0.0
  0
LINE
  5
41B3
  8
0
 10
391.14589293956527
 20
350.59690534512498
 30
0.0
 11
387.54382207299511
 21
350.59690534512498
 31
0.0
  0
LINE
  5
41B4
  8
8
 10
390.40760883748828
 20
350.59690534512492
 30
0.0
 11
391.6576088374884
 21
351.84690534512492
 31
0.0
1001
GENIUS_GENODEF_13
1002
{
1000
HIER
1070
     0
1002
}
1002
{
1000
MANEDIT
1070
     0
1002
}
1002
{
1000
NOSEL
1070
     0
1002
}
1002
{
1000
BEHIND
1070
     0
1002
}
1002
{
1000
OTHER
1070
     0
1002
}
1002
{
1000
REACTOR
1002
}
1001
GENIUS_GENOBJ-N-HTC_13
1002
{
1000
OWNER
1000
GEN
1002
}
1001
GENIUS_GENHATCH_13
1002
{
1000
DATA
1040
45.0
1042
2.5
1000
_U
1070
     0
1011
380.66451261481239
1021
0.0
1031
0.0
1021
369.8586706364959
1031
0.0
1002
}
1002
{
1000
UCS
1010
0.0
1020
0.0
1030
0.0
1010
1.0
1020
0.0
1030
0.0
1010
0.0
1020
1.0
1030
0.0
1002
}
  0
ARC
  5
41B5
  8
0
 10
387.54382207299477
 20
353.84690534512481
 30
0.0
 40
3.249999999999829
 50
182.99999999999579
 51
270.00000000000648
  0
ARC
  5
41B6
  8
0
 10
387.543822072995
 20
353.84690534512492
 30
0.0
 40
1.9999999999999429
 50
182.99999999999909
 51
270.0
  0
LINE
  5
41B7
  8
8
 10
384.81748200330941
 20
352.07784632281152
 30
0.0
 11
385.73442866124691
 21
352.99479298074891
 31
0.0
1001
GENIUS_GENODEF_13
1002
{
1000
HIER
1070
     0
1002
}
1002
{
1000
MANEDIT
1070
     0
1002
}
1002
{
1000
NOSEL
1070
     0
1002
}
1002
{
1000
BEHIND
1070
     0
1002
}
1002
{
1000
OTHER
1070
     0
1002
}
1002
{
1000
REACTOR
1002
}
1001
GENIUS_GENOBJ-N-HTC_13
1002
{
1000
OWNER
1000
GEN
1002
}
1001
GENIUS_GENHATCH_13
1002
{
1000
DATA
1040
45.0
1042
2.5
1000
_U
1070
     0
1011
380.66451261481239
1021
0.0
1031
0.0
1021
369.8586706364959
1031
0.0
1002
}
1002
{
1000
UCS
1010
0.0
1020
0.0
1030
0.0
1010
1.0
1020
0.0
1030
0.0
1010
0.0
1020
1.0
1030
0.0
1002
}
  0
LINE
  5
41B8
  8
8
 10
384.22769438216488
 20
355.02359260759971
 30
0.0
 11
385.41707691727891
 21
356.21297514271367
 31
0.0
1001
GENIUS_GENODEF_13
1002
{
1000
HIER
1070
     0
1002
}
1002
{
1000
MANEDIT
1070
     0
1002
}
1002
{
1000
NOSEL
1070
     0
1002
}
1002
{
1000
BEHIND
1070
     0
1002
}
1002
{
1000
OTHER
1070
     0
1002
}
1002
{
1000
REACTOR
1002
}
1001
GENIUS_GENOBJ-N-HTC_13
1002
{
1000
OWNER
1000
GEN
1002
}
1001
GENIUS_GENHATCH_13
1002
{
1000
DATA
1040
45.0
1042
2.5
1000
_U
1070
     0
1011
380.66451261481239
1021
0.0
1031
0.0
1021
369.8586706364959
1031
0.0
1002
}
1002
{
1000
UCS
1010
0.0
1020
0.0
1030
0.0
1010
1.0
1020
0.0
1030
0.0
1010
0.0
1020
1.0
1030
0.0
1002
}
  0
LINE
  5
41B9
  8
8
 10
386.93047562485202
 20
350.65530603842137
 30
0.0
 11
388.12207493155569
 21
351.84690534512498
 31
0.0
1001
GENIUS_GENODEF_13
1002
{
1000
HIER
1070
     0
1002
}
1002
{
1000
MANEDIT
1070
     0
1002
}
1002
{
1000
NOSEL
1070
     0
1002
}
1002
{
1000
BEHIND
1070
     0
1002
}
1002
{
1000
OTHER
1070
     0
1002
}
1002
{
1000
REACTOR
1002
}
1001
GENIUS_GENOBJ-N-HTC_13
1002
{
1000
OWNER
1000
GEN
1002
}
1001
GENIUS_GENHATCH_13
1002
{
1000
DATA
1040
45.0
1042
2.5
1000
_U
1070
     0
1011
380.66451261481239
1021
0.0
1031
0.0
1021
369.8586706364959
1031
0.0
1002
}
1002
{
1000
UCS
1010
0.0
1020
0.0
1030
0.0
1010
1.0
1020
0.0
1030
0.0
1010
0.0
1020
1.0
1030
0.0
1002
}
  0
ARC
  5
41BA
  8
0
 10
394.74796380613577
 20
353.84690534512492
 30
0.0
 40
3.2499999999998801
 50
269.99999999999682
 51
357.00000000000421
  0
ARC
  5
41BB
  8
0
 10
394.74796380613572
 20
353.84690534512498
 30
0.0
 40
1.9999999999999909
 50
270.0
 51
357.00000000000091
  0
LINE
  5
41BC
  8
0
 10
394.74796380613572
 20
351.84690534512498
 30
0.0
 11
391.14589293956527
 21
351.84690534512498
 31
0.0
  0
LINE
  5
41BD
  8
0
 10
394.7479638061356
 20
350.59690534512498
 30
0.0
 11
391.14589293956527
 21
350.59690534512498
 31
0.0
  0
LINE
  5
41BE
  8
8
 10
393.94314274342111
 20
350.59690534512492
 30
0.0
 11
395.25972629782558
 21
351.9134888995294
 31
0.0
1001
GENIUS_GENODEF_13
1002
{
1000
HIER
1070
     0
1002
}
1002
{
1000
MANEDIT
1070
     0
1002
}
1002
{
1000
NOSEL
1070
     0
1002
}
1002
{
1000
BEHIND
1070
     0
1002
}
1002
{
1000
OTHER
1070
     0
1002
}
1002
{
1000
REACTOR
1002
}
1001
GENIUS_GENOBJ-N-HTC_13
1002
{
1000
OWNER
1000
GEN
1002
}
1001
GENIUS_GENHATCH_13
1002
{
1000
DATA
1040
45.0
1042
2.5
1000
_U
1070
     0
1011
380.66451261481239
1021
0.0
1031
0.0
1021
369.8586706364959
1031
0.0
1002
}
1002
{
1000
UCS
1010
0.0
1020
0.0
1030
0.0
1010
1.0
1020
0.0
1030
0.0
1010
0.0
1020
1.0
1030
0.0
1002
}
  0
LINE
  5
41BF
  8
8
 10
396.68138025173118
 20
353.335142853435
 30
0.0
 11
398.04718224428939
 21
354.70094484599321
 31
0.0
1001
GENIUS_GENODEF_13
1002
{
1000
HIER
1070
     0
1002
}
1002
{
1000
MANEDIT
1070
     0
1002
}
1002
{
1000
NOSEL
1070
     0
1002
}
1002
{
1000
BEHIND
1070
     0
1002
}
1002
{
1000
OTHER
1070
     0
1002
}
1002
{
1000
REACTOR
1002
}
1001
GENIUS_GENOBJ-N-HTC_13
1002
{
1000
OWNER
1000
GEN
1002
}
1001
GENIUS_GENHATCH_13
1002
{
1000
DATA
1040
45.0
1042
2.5
1000
_U
1070
     0
1011
380.66451261481239
1021
0.0
1031
0.0
1021
369.8586706364959
1031
0.0
1002
}
1002
{
1000
UCS
1010
0.0
1020
0.0
1030
0.0
1010
1.0
1020
0.0
1030
0.0
1010
0.0
1020
1.0
1030
0.0
1002
}
  0
LINE
  5
41C0
  8
8
 10
384.05163194302548
 20
358.38306407439302
 30
0.0
 11
385.24101447813962
 21
359.5724466095071
 31
0.0
1001
GENIUS_GENODEF_13
1002
{
1000
HIER
1070
     0
1002
}
1002
{
1000
MANEDIT
1070
     0
1002
}
1002
{
1000
NOSEL
1070
     0
1002
}
1002
{
1000
BEHIND
1070
     0
1002
}
1002
{
1000
OTHER
1070
     0
1002
}
1002
{
1000
REACTOR
1002
}
1001
GENIUS_GENOBJ-N-HTC_13
1002
{
1000
OWNER
1000
GEN
1002
}
1001
GENIUS_GENHATCH_13
1002
{
1000
DATA
1040
45.0
1042
2.5
1000
_U
1070
     0
1011
380.66451261481239
1021
0.0
1031
0.0
1021
369.8586706364959
1031
0.0
1002
}
1002
{
1000
UCS
1010
0.0
1020
0.0
1030
0.0
1010
1.0
1020
0.0
1030
0.0
1010
0.0
1020
1.0
1030
0.0
1002
}
  0
LINE
  5
41C1
  8
8
 10
383.87556950388608
 20
361.74253554118638
 30
0.0
 11
385.0649520390001
 21
362.93191807630052
 31
0.0
1001
GENIUS_GENODEF_13
1002
{
1000
HIER
1070
     0
1002
}
1002
{
1000
MANEDIT
1070
     0
1002
}
1002
{
1000
NOSEL
1070
     0
1002
}
1002
{
1000
BEHIND
1070
     0
1002
}
1002
{
1000
OTHER
1070
     0
1002
}
1002
{
1000
REACTOR
1002
}
1001
GENIUS_GENOBJ-N-HTC_13
1002
{
1000
OWNER
1000
GEN
1002
}
1001
GENIUS_GENHATCH_13
1002
{
1000
DATA
1040
45.0
1042
2.5
1000
_U
1070
     0
1011
380.66451261481239
1021
0.0
1031
0.0
1021
369.8586706364959
1031
0.0
1002
}
1002
{
1000
UCS
1010
0.0
1020
0.0
1030
0.0
1010
1.0
1020
0.0
1030
0.0
1010
0.0
1020
1.0
1030
0.0
1002
}
  0
ARC
  5
41C2
  8
0
 10
381.57911223618493
 20
367.34690534512498
 30
0.0
 40
3.2500000000000049
 50
2.9999999999990901
 51
90.0
  0
ARC
  5
41C3
  8
0
 10
381.57911223618493
 20
367.34690534512509
 30
0.0
 40
1.9999999999999909
 50
2.9999999999990901
 51
90.0
  0
LINE
  5
41C4
  8
8
 10
383.69950706474668
 20
365.10200700797969
 30
0.0
 11
384.8888895998607
 21
366.29138954309371
 31
0.0
1001
GENIUS_GENODEF_13
1002
{
1000
HIER
1070
     0
1002
}
1002
{
1000
MANEDIT
1070
     0
1002
}
1002
{
1000
NOSEL
1070
     0
1002
}
1002
{
1000
BEHIND
1070
     0
1002
}
1002
{
1000
OTHER
1070
     0
1002
}
1002
{
1000
REACTOR
1002
}
1001
GENIUS_GENOBJ-N-HTC_13
1002
{
1000
OWNER
1000
GEN
1002
}
1001
GENIUS_GENHATCH_13
1002
{
1000
DATA
1040
45.0
1042
2.5
1000
_U
1070
     0
1011
380.66451261481239
1021
0.0
1031
0.0
1021
369.8586706364959
1031
0.0
1002
}
1002
{
1000
UCS
1010
0.0
1020
0.0
1030
0.0
1010
1.0
1020
0.0
1030
0.0
1010
0.0
1020
1.0
1030
0.0
1002
}
  0
LINE
  5
41C5
  8
8
 10
383.34598110149687
 20
368.28401495066271
 30
0.0
 11
384.25432920653799
 21
369.19236305570382
 31
0.0
1001
GENIUS_GENODEF_13
1002
{
1000
HIER
1070
     0
1002
}
1002
{
1000
MANEDIT
1070
     0
1002
}
1002
{
1000
NOSEL
1070
     0
1002
}
1002
{
1000
BEHIND
1070
     0
1002
}
1002
{
1000
OTHER
1070
     0
1002
}
1002
{
1000
REACTOR
1002
}
1001
GENIUS_GENOBJ-N-HTC_13
1002
{
1000
OWNER
1000
GEN
1002
}
1001
GENIUS_GENHATCH_13
1002
{
1000
DATA
1040
45.0
1042
2.5
1000
_U
1070
     0
1011
380.66451261481239
1021
0.0
1031
0.0
1021
369.8586706364959
1031
0.0
1002
}
1002
{
1000
UCS
1010
0.0
1020
0.0
1030
0.0
1010
1.0
1020
0.0
1030
0.0
1010
0.0
1020
1.0
1030
0.0
1002
}
  0
LINE
  5
41C6
  8
8
 10
380.87333759002661
 20
369.34690534512498
 30
0.0
 11
382.08389708306782
 21
370.55746483816631
 31
0.0
1001
GENIUS_GENODEF_13
1002
{
1000
HIER
1070
     0
1002
}
1002
{
1000
MANEDIT
1070
     0
1002
}
1002
{
1000
NOSEL
1070
     0
1002
}
1002
{
1000
BEHIND
1070
     0
1002
}
1002
{
1000
OTHER
1070
     0
1002
}
1002
{
1000
REACTOR
1002
}
1001
GENIUS_GENOBJ-N-HTC_13
1002
{
1000
OWNER
1000
GEN
1002
}
1001
GENIUS_GENHATCH_13
1002
{
1000
DATA
1040
45.0
1042
2.5
1000
_U
1070
     0
1011
380.66451261481239
1021
0.0
1031
0.0
1021
369.8586706364959
1031
0.0
1002
}
1002
{
1000
UCS
1010
0.0
1020
0.0
1030
0.0
1010
1.0
1020
0.0
1030
0.0
1010
0.0
1020
1.0
1030
0.0
1002
}
  0
LINE
  5
41C7
  8
8
 10
397.31285056077098
 20
364.5732148802731
 30
0.0
 11
398.63379368918811
 21
365.89415800869023
 31
0.0
1001
GENIUS_GENODEF_13
1002
{
1000
HIER
1070
     0
1002
}
1002
{
1000
MANEDIT
1070
     0
1002
}
1002
{
1000
NOSEL
1070
     0
1002
}
1002
{
1000
BEHIND
1070
     0
1002
}
1002
{
1000
OTHER
1070
     0
1002
}
1002
{
1000
REACTOR
1002
}
1001
GENIUS_GENOBJ-N-HTC_13
1002
{
1000
OWNER
1000
GEN
1002
}
1001
GENIUS_GENHATCH_13
1002
{
1000
DATA
1040
45.0
1042
2.5
1000
_U
1070
     0
1011
380.66451261481239
1021
0.0
1031
0.0
1021
369.8586706364959
1031
0.0
1002
}
1002
{
1000
UCS
1010
0.0
1020
0.0
1030
0.0
1010
1.0
1020
0.0
1030
0.0
1010
0.0
1020
1.0
1030
0.0
1002
}
  0
LINE
  5
41C8
  8
8
 10
397.1173134124715
 20
360.84214382604091
 30
0.0
 11
398.43825654088852
 21
362.16308695445792
 31
0.0
1001
GENIUS_GENODEF_13
1002
{
1000
HIER
1070
     0
1002
}
1002
{
1000
MANEDIT
1070
     0
1002
}
1002
{
1000
NOSEL
1070
     0
1002
}
1002
{
1000
BEHIND
1070
     0
1002
}
1002
{
1000
OTHER
1070
     0
1002
}
1002
{
1000
REACTOR
1002
}
1001
GENIUS_GENOBJ-N-HTC_13
1002
{
1000
OWNER
1000
GEN
1002
}
1001
GENIUS_GENHATCH_13
1002
{
1000
DATA
1040
45.0
1042
2.5
1000
_U
1070
     0
1011
380.66451261481239
1021
0.0
1031
0.0
1021
369.8586706364959
1031
0.0
1002
}
1002
{
1000
UCS
1010
0.0
1020
0.0
1030
0.0
1010
1.0
1020
0.0
1030
0.0
1010
0.0
1020
1.0
1030
0.0
1002
}
  0
LINE
  5
41C9
  8
8
 10
397.65645177296562
 20
368.45234999840028
 30
0.0
 11
399.60722898967038
 21
370.4031272151052
 31
0.0
1001
GENIUS_GENODEF_13
1002
{
1000
HIER
1070
     0
1002
}
1002
{
1000
MANEDIT
1070
     0
1002
}
1002
{
1000
NOSEL
1070
     0
1002
}
1002
{
1000
BEHIND
1070
     0
1002
}
1002
{
1000
OTHER
1070
     0
1002
}
1002
{
1000
REACTOR
1002
}
1001
GENIUS_GENOBJ-N-HTC_13
1002
{
1000
OWNER
1000
GEN
1002
}
1001
GENIUS_GENHATCH_13
1002
{
1000
DATA
1040
45.0
1042
2.5
1000
_U
1070
     0
1011
380.66451261481239
1021
0.0
1031
0.0
1021
369.8586706364959
1031
0.0
1002
}
1002
{
1000
UCS
1010
0.0
1020
0.0
1030
0.0
1010
1.0
1020
0.0
1030
0.0
1010
0.0
1020
1.0
1030
0.0
1002
}
  0
LINE
  5
41CA
  8
0
 10
398.80267546737377
 20
367.94012281731523
 30
0.0
 11
400.14589293956431
 21
366.59690534512481
 31
0.0
  0
SOLID
  5
41CB
  8
5
 62
     3
 10
388.64204370790611
 20
378.74170362063421
 30
0.0
 11
388.64996825048621
 21
377.90840796717782
 31
0.0
 12
391.14589293956539
 22
378.3488294216462
 32
0.0
 13
391.14589293956539
 23
378.3488294216462
 33
0.0
  0
SOLID
  5
41CC
  8
5
 62
     3
 10
386.7819809485996
 20
377.85949299819839
 30
0.0
 11
386.7462833060128
 21
378.6920613874363
 31
0.0
 12
384.26642695959248
 22
378.16868426505681
 32
0.0
 13
384.26642695959248
 23
378.16868426505681
 33
0.0
  0
ARC
  5
41CD
  8
5
 62
     3
 10
391.14589293956539
 20
246.90065356261329
 30
0.0
 40
131.44817585903289
 50
91.089719250826249
 51
91.910280749173168
  0
TEXT
  5
41CE
  8
0
 62
     3
 10
394.00712742451429
 20
378.91829096353109
 30
0.0
 40
3.5
  1
3°
 50
358.91028074917369
  0
LINE
  5
41CF
  8
5
 62
     3
 10
393.64577989993461
 20
378.32505579390602
 30
0.0
 11
398.34492986112917
 21
378.23567099539548
 31
0.0
  0
ARC
  5
41D0
  8
5
 62
     3
 10
391.14589293956539
 20
246.90065356261329
 30
0.0
 40
131.44817585903289
 50
88.910280749173751
 51
90.0
  0
LINE
  5
41D1
  8
5
 62
     3
 10
391.14589293956527
 20
373.59690534512521
 30
0.0
 11
391.14589293956539
 21
379.3488294216462
 31
0.0
  0
LINE
  5
41D2
  8
5
 62
     3
 10
413.64589293956527
 20
301.3150981507556
 30
0.0
 11
413.64589293956527
 21
334.31509916075572
 31
0.0
  0
LINE
  5
41D3
  8
5
 62
     3
 10
403.64589293956419
 20
299.3150981507556
 30
0.0
 11
403.64589293956419
 21
320.3150981507556
 31
0.0
  0
LINE
  5
41D4
  8
8
 10
477.03146953024861
 20
232.15979949378641
 30
0.0
 11
478.28146953024861
 21
233.40979949378649
 31
0.0
1001
GENIUS_GENODEF_13
1002
{
1000
HIER
1070
     0
1002
}
1002
{
1000
MANEDIT
1070
     0
1002
}
1002
{
1000
NOSEL
1070
     0
1002
}
1002
{
1000
BEHIND
1070
     0
1002
}
1002
{
1000
OTHER
1070
     0
1002
}
1002
{
1000
REACTOR
1002
}
1001
GENIUS_GENOBJ-N-HTC_13
1002
{
1000
OWNER
1000
GEN
1002
}
1001
GENIUS_GENHATCH_13
1002
{
1000
DATA
1040
45.0
1042
2.5
1000
_U
1070
     0
1011
477.63506114795769
1021
0.0
1031
0.0
1021
246.8941746850187
1031
0.0
1002
}
1002
{
1000
UCS
1010
0.0
1020
0.0
1030
0.0
1010
1.0
1020
0.0
1030
0.0
1010
0.0
1020
1.0
1030
0.0
1002
}
  0
LINE
  5
41D5
  8
8
 10
477.03146953024873
 20
235.6953333997192
 30
0.0
 11
478.28146953024873
 21
236.9453333997192
 31
0.0
1001
GENIUS_GENODEF_13
1002
{
1000
HIER
1070
     0
1002
}
1002
{
1000
MANEDIT
1070
     0
1002
}
1002
{
1000
NOSEL
1070
     0
1002
}
1002
{
1000
BEHIND
1070
     0
1002
}
1002
{
1000
OTHER
1070
     0
1002
}
1002
{
1000
REACTOR
1002
}
1001
GENIUS_GENOBJ-N-HTC_13
1002
{
1000
OWNER
1000
GEN
1002
}
1001
GENIUS_GENHATCH_13
1002
{
1000
DATA
1040
45.0
1042
2.5
1000
_U
1070
     0
1011
477.63506114795769
1021
0.0
1031
0.0
1021
246.8941746850187
1031
0.0
1002
}
1002
{
1000
UCS
1010
0.0
1020
0.0
1030
0.0
1010
1.0
1020
0.0
1030
0.0
1010
0.0
1020
1.0
1030
0.0
1002
}
  0
LINE
  5
41D6
  8
8
 10
477.03146953024873
 20
239.230867305652
 30
0.0
 11
478.28146953024873
 21
240.480867305652
 31
0.0
1001
GENIUS_GENODEF_13
1002
{
1000
HIER
1070
     0
1002
}
1002
{
1000
MANEDIT
1070
     0
1002
}
1002
{
1000
NOSEL
1070
     0
1002
}
1002
{
1000
BEHIND
1070
     0
1002
}
1002
{
1000
OTHER
1070
     0
1002
}
1002
{
1000
REACTOR
1002
}
1001
GENIUS_GENOBJ-N-HTC_13
1002
{
1000
OWNER
1000
GEN
1002
}
1001
GENIUS_GENHATCH_13
1002
{
1000
DATA
1040
45.0
1042
2.5
1000
_U
1070
     0
1011
477.63506114795769
1021
0.0
1031
0.0
1021
246.8941746850187
1031
0.0
1002
}
1002
{
1000
UCS
1010
0.0
1020
0.0
1030
0.0
1010
1.0
1020
0.0
1030
0.0
1010
0.0
1020
1.0
1030
0.0
1002
}
  0
LINE
  5
41D7
  8
8
 10
477.03146953024873
 20
242.76640121158471
 30
0.0
 11
478.28146953024861
 21
244.01640121158471
 31
0.0
1001
GENIUS_GENODEF_13
1002
{
1000
HIER
1070
     0
1002
}
1002
{
1000
MANEDIT
1070
     0
1002
}
1002
{
1000
NOSEL
1070
     0
1002
}
1002
{
1000
BEHIND
1070
     0
1002
}
1002
{
1000
OTHER
1070
     0
1002
}
1002
{
1000
REACTOR
1002
}
1001
GENIUS_GENOBJ-N-HTC_13
1002
{
1000
OWNER
1000
GEN
1002
}
1001
GENIUS_GENHATCH_13
1002
{
1000
DATA
1040
45.0
1042
2.5
1000
_U
1070
     0
1011
477.63506114795769
1021
0.0
1031
0.0
1021
246.8941746850187
1031
0.0
1002
}
1002
{
1000
UCS
1010
0.0
1020
0.0
1030
0.0
1010
1.0
1020
0.0
1030
0.0
1010
0.0
1020
1.0
1030
0.0
1002
}
  0
LINE
  5
41D8
  8
8
 10
477.03146953024873
 20
246.3019351175175
 30
0.0
 11
478.28146953024861
 21
247.55193511751739
 31
0.0
1001
GENIUS_GENODEF_13
1002
{
1000
HIER
1070
     0
1002
}
1002
{
1000
MANEDIT
1070
     0
1002
}
1002
{
1000
NOSEL
1070
     0
1002
}
1002
{
1000
BEHIND
1070
     0
1002
}
1002
{
1000
OTHER
1070
     0
1002
}
1002
{
1000
REACTOR
1002
}
1001
GENIUS_GENOBJ-N-HTC_13
1002
{
1000
OWNER
1000
GEN
1002
}
1001
GENIUS_GENHATCH_13
1002
{
1000
DATA
1040
45.0
1042
2.5
1000
_U
1070
     0
1011
477.63506114795769
1021
0.0
1031
0.0
1021
246.8941746850187
1031
0.0
1002
}
1002
{
1000
UCS
1010
0.0
1020
0.0
1030
0.0
1010
1.0
1020
0.0
1030
0.0
1010
0.0
1020
1.0
1030
0.0
1002
}
  0
LINE
  5
41D9
  8
8
 10
477.03146953024873
 20
249.83746902345021
 30
0.0
 11
478.28146953024873
 21
251.08746902345021
 31
0.0
1001
GENIUS_GENODEF_13
1002
{
1000
HIER
1070
     0
1002
}
1002
{
1000
MANEDIT
1070
     0
1002
}
1002
{
1000
NOSEL
1070
     0
1002
}
1002
{
1000
BEHIND
1070
     0
1002
}
1002
{
1000
OTHER
1070
     0
1002
}
1002
{
1000
REACTOR
1002
}
1001
GENIUS_GENOBJ-N-HTC_13
1002
{
1000
OWNER
1000
GEN
1002
}
1001
GENIUS_GENHATCH_13
1002
{
1000
DATA
1040
45.0
1042
2.5
1000
_U
1070
     0
1011
477.63506114795769
1021
0.0
1031
0.0
1021
246.8941746850187
1031
0.0
1002
}
1002
{
1000
UCS
1010
0.0
1020
0.0
1030
0.0
1010
1.0
1020
0.0
1030
0.0
1010
0.0
1020
1.0
1030
0.0
1002
}
  0
LINE
  5
41DA
  8
8
 10
477.03146953024873
 20
253.37300292938289
 30
0.0
 11
478.19967960542658
 21
254.54121300456089
 31
0.0
1001
GENIUS_GENODEF_13
1002
{
1000
HIER
1070
     0
1002
}
1002
{
1000
MANEDIT
1070
     0
1002
}
1002
{
1000
NOSEL
1070
     0
1002
}
1002
{
1000
BEHIND
1070
     0
1002
}
1002
{
1000
OTHER
1070
     0
1002
}
1002
{
1000
REACTOR
1002
}
1001
GENIUS_GENOBJ-N-HTC_13
1002
{
1000
OWNER
1000
GEN
1002
}
1001
GENIUS_GENHATCH_13
1002
{
1000
DATA
1040
45.0
1042
2.5
1000
_U
1070
     0
1011
477.63506114795769
1021
0.0
1031
0.0
1021
246.8941746850187
1031
0.0
1002
}
1002
{
1000
UCS
1010
0.0
1020
0.0
1030
0.0
1010
1.0
1020
0.0
1030
0.0
1010
0.0
1020
1.0
1030
0.0
1002
}
  0
LINE
  5
41DB
  8
8
 10
477.03146953024873
 20
285.19280808277767
 30
0.0
 11
478.28146953024873
 21
286.44280808277767
 31
0.0
1001
GENIUS_GENODEF_13
1002
{
1000
HIER
1070
     0
1002
}
1002
{
1000
MANEDIT
1070
     0
1002
}
1002
{
1000
NOSEL
1070
     0
1002
}
1002
{
1000
BEHIND
1070
     0
1002
}
1002
{
1000
OTHER
1070
     0
1002
}
1002
{
1000
REACTOR
1002
}
1001
GENIUS_GENOBJ-N-HTC_13
1002
{
1000
OWNER
1000
GEN
1002
}
1001
GENIUS_GENHATCH_13
1002
{
1000
DATA
1040
45.0
1042
2.5
1000
_U
1070
     0
1011
477.63506114795769
1021
0.0
1031
0.0
1021
246.8941746850187
1031
0.0
1002
}
1002
{
1000
UCS
1010
0.0
1020
0.0
1030
0.0
1010
1.0
1020
0.0
1030
0.0
1010
0.0
1020
1.0
1030
0.0
1002
}
  0
LINE
  5
41DC
  8
8
 10
477.03146953024873
 20
288.72834198871033
 30
0.0
 11
478.28146953024873
 21
289.97834198871033
 31
0.0
1001
GENIUS_GENODEF_13
1002
{
1000
HIER
1070
     0
1002
}
1002
{
1000
MANEDIT
1070
     0
1002
}
1002
{
1000
NOSEL
1070
     0
1002
}
1002
{
1000
BEHIND
1070
     0
1002
}
1002
{
1000
OTHER
1070
     0
1002
}
1002
{
1000
REACTOR
1002
}
1001
GENIUS_GENOBJ-N-HTC_13
1002
{
1000
OWNER
1000
GEN
1002
}
1001
GENIUS_GENHATCH_13
1002
{
1000
DATA
1040
45.0
1042
2.5
1000
_U
1070
     0
1011
477.63506114795769
1021
0.0
1031
0.0
1021
246.8941746850187
1031
0.0
1002
}
1002
{
1000
UCS
1010
0.0
1020
0.0
1030
0.0
1010
1.0
1020
0.0
1030
0.0
1010
0.0
1020
1.0
1030
0.0
1002
}
  0
LINE
  5
41DD
  8
8
 10
477.03146953024878
 20
292.26387589464309
 30
0.0
 11
478.28146953024873
 21
293.51387589464309
 31
0.0
1001
GENIUS_GENODEF_13
1002
{
1000
HIER
1070
     0
1002
}
1002
{
1000
MANEDIT
1070
     0
1002
}
1002
{
1000
NOSEL
1070
     0
1002
}
1002
{
1000
BEHIND
1070
     0
1002
}
1002
{
1000
OTHER
1070
     0
1002
}
1002
{
1000
REACTOR
1002
}
1001
GENIUS_GENOBJ-N-HTC_13
1002
{
1000
OWNER
1000
GEN
1002
}
1001
GENIUS_GENHATCH_13
1002
{
1000
DATA
1040
45.0
1042
2.5
1000
_U
1070
     0
1011
477.63506114795769
1021
0.0
1031
0.0
1021
246.8941746850187
1031
0.0
1002
}
1002
{
1000
UCS
1010
0.0
1020
0.0
1030
0.0
1010
1.0
1020
0.0
1030
0.0
1010
0.0
1020
1.0
1030
0.0
1002
}
  0
LINE
  5
41DE
  8
8
 10
477.03146953024873
 20
295.7994098005758
 30
0.0
 11
478.28146953024873
 21
297.0494098005758
 31
0.0
1001
GENIUS_GENODEF_13
1002
{
1000
HIER
1070
     0
1002
}
1002
{
1000
MANEDIT
1070
     0
1002
}
1002
{
1000
NOSEL
1070
     0
1002
}
1002
{
1000
BEHIND
1070
     0
1002
}
1002
{
1000
OTHER
1070
     0
1002
}
1002
{
1000
REACTOR
1002
}
1001
GENIUS_GENOBJ-N-HTC_13
1002
{
1000
OWNER
1000
GEN
1002
}
1001
GENIUS_GENHATCH_13
1002
{
1000
DATA
1040
45.0
1042
2.5
1000
_U
1070
     0
1011
477.63506114795769
1021
0.0
1031
0.0
1021
246.8941746850187
1031
0.0
1002
}
1002
{
1000
UCS
1010
0.0
1020
0.0
1030
0.0
1010
1.0
1020
0.0
1030
0.0
1010
0.0
1020
1.0
1030
0.0
1002
}
  0
LINE
  5
41DF
  8
8
 10
477.03146953024873
 20
299.33494370650862
 30
0.0
 11
478.28146953024873
 21
300.58494370650862
 31
0.0
1001
GENIUS_GENODEF_13
1002
{
1000
HIER
1070
     0
1002
}
1002
{
1000
MANEDIT
1070
     0
1002
}
1002
{
1000
NOSEL
1070
     0
1002
}
1002
{
1000
BEHIND
1070
     0
1002
}
1002
{
1000
OTHER
1070
     0
1002
}
1002
{
1000
REACTOR
1002
}
1001
GENIUS_GENOBJ-N-HTC_13
1002
{
1000
OWNER
1000
GEN
1002
}
1001
GENIUS_GENHATCH_13
1002
{
1000
DATA
1040
45.0
1042
2.5
1000
_U
1070
     0
1011
477.63506114795769
1021
0.0
1031
0.0
1021
246.8941746850187
1031
0.0
1002
}
1002
{
1000
UCS
1010
0.0
1020
0.0
1030
0.0
1010
1.0
1020
0.0
1030
0.0
1010
0.0
1020
1.0
1030
0.0
1002
}
  0
LINE
  5
41E0
  8
8
 10
477.03146953024873
 20
302.87047761244128
 30
0.0
 11
478.28146953024873
 21
304.12047761244128
 31
0.0
1001
GENIUS_GENODEF_13
1002
{
1000
HIER
1070
     0
1002
}
1002
{
1000
MANEDIT
1070
     0
1002
}
1002
{
1000
NOSEL
1070
     0
1002
}
1002
{
1000
BEHIND
1070
     0
1002
}
1002
{
1000
OTHER
1070
     0
1002
}
1002
{
1000
REACTOR
1002
}
1001
GENIUS_GENOBJ-N-HTC_13
1002
{
1000
OWNER
1000
GEN
1002
}
1001
GENIUS_GENHATCH_13
1002
{
1000
DATA
1040
45.0
1042
2.5
1000
_U
1070
     0
1011
477.63506114795769
1021
0.0
1031
0.0
1021
246.8941746850187
1031
0.0
1002
}
1002
{
1000
UCS
1010
0.0
1020
0.0
1030
0.0
1010
1.0
1020
0.0
1030
0.0
1010
0.0
1020
1.0
1030
0.0
1002
}
  0
LINE
  5
41E1
  8
8
 10
477.03146953024878
 20
306.4060115183741
 30
0.0
 11
478.28146953024873
 21
307.65601151837399
 31
0.0
1001
GENIUS_GENODEF_13
1002
{
1000
HIER
1070
     0
1002
}
1002
{
1000
MANEDIT
1070
     0
1002
}
1002
{
1000
NOSEL
1070
     0
1002
}
1002
{
1000
BEHIND
1070
     0
1002
}
1002
{
1000
OTHER
1070
     0
1002
}
1002
{
1000
REACTOR
1002
}
1001
GENIUS_GENOBJ-N-HTC_13
1002
{
1000
OWNER
1000
GEN
1002
}
1001
GENIUS_GENHATCH_13
1002
{
1000
DATA
1040
45.0
1042
2.5
1000
_U
1070
     0
1011
477.63506114795769
1021
0.0
1031
0.0
1021
246.8941746850187
1031
0.0
1002
}
1002
{
1000
UCS
1010
0.0
1020
0.0
1030
0.0
1010
1.0
1020
0.0
1030
0.0
1010
0.0
1020
1.0
1030
0.0
1002
}
  0
ARC
  5
41E2
  8
0
 10
475.03146953024873
 20
284.81351412413488
 30
0.0
 40
3.2499999999999472
 50
270.91665425638632
 51
0.0
  0
ARC
  5
41E3
  8
0
 10
475.03146953024873
 20
253.81668217737621
 30
0.0
 40
3.25
 50
0.0
 51
89.083345743613719
  0
LINE
  5
41E4
  8
5
 62
     3
 10
475.08346287552638
 20
281.56393004428008
 30
0.0
 11
488.87425593561483
 21
281.78458273324219
 31
0.0
  0
LINE
  5
41E5
  8
0
 10
477.03146953024873
 20
309.31509815075572
 30
0.0
 11
478.28146953024873
 21
309.31509815075572
 31
0.0
  0
LINE
  5
41E6
  8
7A
 10
471.2814695302485
 20
299.315098150756
 30
0.0
 11
481.2814695302485
 21
299.31509815075623
 31
0.0
1001
GENIUS_GENOBJ-N-CEN_13
1002
{
1000
OWNER
1000
GEN
1002
}
1001
GENIUS_GENODEF_13
1002
{
1000
HIER
1070
     0
1002
}
1002
{
1000
MANEDIT
1070
     0
1002
}
1002
{
1000
NOSEL
1070
     0
1002
}
1002
{
1000
BEHIND
1070
     0
1002
}
1002
{
1000
OTHER
1070
     0
1002
}
1002
{
1000
REACTOR
1002
}
  0
LINE
  5
41E7
  8
7
 10
455.5314695302485
 20
269.3150981507556
 30
0.0
 11
481.28146953024873
 21
269.3150981507556
 31
0.0
1001
GENIUS_GENODEF_13
1002
{
1000
HIER
1070
     0
1002
}
1002
{
1000
MANEDIT
1070
     0
1002
}
1002
{
1000
NOSEL
1070
     0
1002
}
1002
{
1000
BEHIND
1070
     0
1002
}
1002
{
1000
OTHER
1070
     0
1002
}
1002
{
1000
REACTOR
1002
}
1001
GENIUS_GENOBJ-N-CEN_13
1002
{
1000
OWNER
1000
GEN
1002
}
  0
LINE
  5
41E8
  8
7
 10
455.28146953024861
 20
269.3150981507556
 30
0.0
 11
481.28146953024873
 21
269.3150981507556
 31
0.0
1001
GENIUS_GENOBJ-N-CEN_13
1002
{
1000
OWNER
1000
GEN
1002
}
1001
GENIUS_GENODEF_13
1002
{
1000
HIER
1070
     0
1002
}
1002
{
1000
MANEDIT
1070
     0
1002
}
1002
{
1000
NOSEL
1070
     0
1002
}
1002
{
1000
BEHIND
1070
     0
1002
}
1002
{
1000
OTHER
1070
     0
1002
}
1002
{
1000
REACTOR
1002
}
  0
LINE
  5
41E9
  8
7A
 10
471.2814695302485
 20
239.3150981507552
 30
0.0
 11
481.2814695302485
 21
239.31509815075501
 31
0.0
1001
GENIUS_GENOBJ-N-CEN_13
1002
{
1000
OWNER
1000
GEN
1002
}
1001
GENIUS_GENODEF_13
1002
{
1000
HIER
1070
     0
1002
}
1002
{
1000
MANEDIT
1070
     0
1002
}
1002
{
1000
NOSEL
1070
     0
1002
}
1002
{
1000
BEHIND
1070
     0
1002
}
1002
{
1000
OTHER
1070
     0
1002
}
1002
{
1000
REACTOR
1002
}
  0
LINE
  5
41EA
  8
0
 10
477.03146953024861
 20
229.31509815075469
 30
0.0
 11
478.2814695302485
 21
229.31509815075469
 31
0.0
  0
LINE
  5
41EB
  8
0
 10
477.03146953024861
 20
229.31509815075469
 30
0.0
 11
477.03146953024873
 21
253.81668217737621
 31
0.0
  0
LINE
  5
41EC
  8
0
 10
413.64589293956527
 20
301.3150981507556
 30
0.0
 11
413.64589293956539
 21
237.3150981507554
 31
0.0
  0
CIRCLE
  5
41ED
  8
0
 10
403.72189737071238
 20
239.34415141905291
 30
0.0
 40
3.0
  0
LINE
  5
41EE
  8
7A
 10
403.64589293956539
 20
239.31509815075529
 30
0.0
 11
403.64589293956539
 21
228.81509815075529
 31
0.0
1001
GENIUS_GENOREF_13
1005
0
  0
ARC
  5
41EF
  8
0
 10
405.64589293956539
 20
237.3150981507554
 30
0.0
 40
8.0
 50
270.0000000000033
 51
0.0
1001
GENIUS_GENODEF_13
1002
{
1000
HIER
1070
     0
1002
}
1002
{
1000
MANEDIT
1070
     0
1002
}
1002
{
1000
NOSEL
1070
     0
1002
}
1002
{
1000
BEHIND
1070
     0
1002
}
1002
{
1000
OTHER
1070
     0
1002
}
1002
{
1000
REACTOR
1002
}
1001
GENIUS_GENOBJ-N-FIL_13
1002
{
1000
OWNER
1000
GEN
1002
}
  0
LINE
  5
41F0
  8
7A
 10
403.64589293956539
 20
239.31509815075529
 30
0.0
 11
414.14589293956527
 21
239.31509815075529
 31
0.0
1001
GENIUS_GENOREF_13
1005
0
  0
LINE
  5
41F1
  8
7A
 10
403.64589293956539
 20
239.31509815075529
 30
0.0
 11
403.64589293956539
 21
249.81509815075529
 31
0.0
1001
GENIUS_GENOREF_13
1005
0
  0
LINE
  5
41F2
  8
0
 10
474.2814695302485
 20
235.81509815075509
 30
0.0
 11
474.2814695302485
 21
239.3150981507552
 31
0.0
  0
LINE
  5
41F3
  8
0
 10
477.0314695302489
 20
233.06509815075469
 30
0.0
 11
474.2814695302485
 21
235.81509815075509
 31
0.0
  0
LINE
  5
41F4
  8
0
 10
477.0314695302489
 20
245.56509815075549
 30
0.0
 11
474.2814695302485
 21
242.8150981507552
 31
0.0
  0
LINE
  5
41F5
  8
0
 10
474.2814695302485
 20
242.8150981507552
 30
0.0
 11
474.2814695302485
 21
239.3150981507552
 31
0.0
  0
SOLID
  5
41F6
  8
5
 62
     3
 10
403.6458929395676
 20
283.18104131263129
 30
0.0
 11
403.6458929395676
 21
282.34770797929792
 31
0.0
 12
406.14589293956749
 22
282.76437464596461
 32
0.0
 13
406.14589293956749
 23
282.76437464596461
 33
0.0
  0
SOLID
  5
41F7
  8
5
 62
     3
 10
412.1458929395676
 20
283.18104131263129
 30
0.0
 11
412.1458929395676
 21
282.34770797929792
 31
0.0
 12
409.6458929395676
 22
282.76437464596461
 32
0.0
 13
409.6458929395676
 23
282.76437464596461
 33
0.0
  0
LINE
  5
41F8
  8
5
 62
     3
 10
406.14589293956749
 20
277.3150981507556
 30
0.0
 11
406.14589293956749
 21
283.76437464596461
 31
0.0
  0
LINE
  5
41F9
  8
5
 62
     3
 10
409.6458929395676
 20
277.3150981507556
 30
0.0
 11
409.6458929395676
 21
283.76437464596461
 31
0.0
  0
LINE
  5
41FA
  8
0
 10
406.14589293956749
 20
261.3150981507556
 30
0.0
 11
406.14589293956749
 21
277.3150981507556
 31
0.0
1001
GENIUS_GENREC_14
1002
{
1000
PYDIR
1011
406.14589293956749
1021
0.0
1031
0.0
1021
261.3150981507556
1031
0.0
1002
}
1002
{
1000
PXDIR
1011
409.6458929395676
1021
0.0
1031
0.0
1021
277.3150981507556
1031
0.0
1002
}
1002
{
1000
PORI
1011
406.14589293956749
1021
0.0
1031
0.0
1021
277.3150981507556
1031
0.0
1002
}
1002
{
1000
PINS
1011
406.14589293956749
1021
0.0
1031
0.0
1021
277.3150981507556
1031
0.0
1002
}
1002
{
1000
PINS2
1011
409.6458929395676
1021
0.0
1031
0.0
1021
261.3150981507556
1031
0.0
1002
}
1002
{
1000
C
1070
     1
1002
}
1001
GENIUS_GENOBJ-N-REC_13
1002
{
1000
OWNER
1000
GEN
1002
}
1001
GENIUS_GENODEF_13
1002
{
1000
HIER
1070
     0
1002
}
1002
{
1000
MANEDIT
1070
     0
1002
}
1002
{
1000
NOSEL
1070
     0
1002
}
1002
{
1000
BEHIND
1070
     0
1002
}
1002
{
1000
OTHER
1070
     0
1002
}
1002
{
1000
REACTOR
1002
}
  0
LINE
  5
41FB
  8
0
 10
409.6458929395676
 20
277.3150981507556
 30
0.0
 11
409.6458929395676
 21
261.3150981507556
 31
0.0
1001
GENIUS_GENREC_14
1002
{
1000
PYDIR
1011
406.14589293956749
1021
0.0
1031
0.0
1021
261.3150981507556
1031
0.0
1002
}
1002
{
1000
PXDIR
1011
409.6458929395676
1021
0.0
1031
0.0
1021
277.3150981507556
1031
0.0
1002
}
1002
{
1000
PORI
1011
406.14589293956749
1021
0.0
1031
0.0
1021
277.3150981507556
1031
0.0
1002
}
1002
{
1000
PINS
1011
406.14589293956749
1021
0.0
1031
0.0
1021
277.3150981507556
1031
0.0
1002
}
1002
{
1000
PINS2
1011
409.6458929395676
1021
0.0
1031
0.0
1021
261.3150981507556
1031
0.0
1002
}
1002
{
1000
C
1070
     1
1002
}
1001
GENIUS_GENOBJ-N-REC_13
1002
{
1000
OWNER
1000
GEN
1002
}
1001
GENIUS_GENODEF_13
1002
{
1000
HIER
1070
     0
1002
}
1002
{
1000
MANEDIT
1070
     0
1002
}
1002
{
1000
NOSEL
1070
     0
1002
}
1002
{
1000
BEHIND
1070
     0
1002
}
1002
{
1000
OTHER
1070
     0
1002
}
1002
{
1000
REACTOR
1002
}
  0
LINE
  5
41FC
  8
5
 62
     3
 10
403.90521640960708
 20
274.8150981507556
 30
0.0
 11
403.90521640960708
 21
263.8150981507556
 31
0.0
  0
LINE
  5
41FD
  8
0
 10
400.71267364294579
 20
279.563514124135
 30
0.0
 11
400.71267364294579
 21
259.06668217737621
 31
0.0
  0
LINE
  5
41FE
  8
5
 62
     3
 10
409.6458929395676
 20
257.48107867311728
 30
0.0
 11
413.6458929395676
 21
257.48107867311728
 31
0.0
  0
LINE
  5
41FF
  8
5
 62
     3
 10
409.6458929395676
 20
261.3150981507556
 30
0.0
 11
409.6458929395676
 21
256.48107867311728
 31
0.0
  0
TEXT
  5
4200
  8
0
 62
     3
 10
402.74411818108757
 20
253.9887595323294
 30
0.0
 40
3.5
  1
R2
  0
LINE
  5
4201
  8
5
 62
     3
 10
407.14589293956749
 20
257.48107867311728
 30
0.0
 11
404.6458929395676
 21
257.48107867311728
 31
0.0
  0
LINE
  5
4202
  8
5
 62
     3
 10
402.85568150129751
 20
253.38841504414029
 30
0.0
 11
407.86588819421092
 21
253.38841504414029
 31
0.0
  0
SOLID
  5
4203
  8
5
 62
     3
 10
407.14589293956749
 20
257.89774533978402
 30
0.0
 11
407.14589293956749
 21
257.0644120064506
 31
0.0
 12
409.6458929395676
 22
257.48107867311728
 32
0.0
 13
409.6458929395676
 23
257.48107867311728
 33
0.0
  0
LINE
  5
4204
  8
5
 62
     3
 10
406.14589293956539
 20
261.3150981507556
 30
0.0
 11
402.90521640960708
 21
261.3150981507556
 31
0.0
  0
SOLID
  5
4205
  8
5
 62
     3
 10
403.48854974294051
 20
263.8150981507556
 30
0.0
 11
404.32188307627388
 21
263.8150981507556
 31
0.0
 12
403.90521640960708
 22
261.3150981507556
 32
0.0
 13
403.90521640960708
 23
261.3150981507556
 33
0.0
  0
LINE
  5
4206
  8
0
 10
409.6458929395676
 20
261.3150981507556
 30
0.0
 11
406.14589293956749
 21
261.3150981507556
 31
0.0
1001
GENIUS_GENREC_14
1002
{
1000
PYDIR
1011
406.14589293956749
1021
0.0
1031
0.0
1021
261.3150981507556
1031
0.0
1002
}
1002
{
1000
PXDIR
1011
409.6458929395676
1021
0.0
1031
0.0
1021
277.3150981507556
1031
0.0
1002
}
1002
{
1000
PORI
1011
406.14589293956749
1021
0.0
1031
0.0
1021
277.3150981507556
1031
0.0
1002
}
1002
{
1000
PINS
1011
406.14589293956749
1021
0.0
1031
0.0
1021
277.3150981507556
1031
0.0
1002
}
1002
{
1000
PINS2
1011
409.6458929395676
1021
0.0
1031
0.0
1021
261.3150981507556
1031
0.0
1002
}
1002
{
1000
C
1070
     1
1002
}
1001
GENIUS_GENOBJ-N-REC_13
1002
{
1000
OWNER
1000
GEN
1002
}
1001
GENIUS_GENODEF_13
1002
{
1000
HIER
1070
     0
1002
}
1002
{
1000
MANEDIT
1070
     0
1002
}
1002
{
1000
NOSEL
1070
     0
1002
}
1002
{
1000
BEHIND
1070
     0
1002
}
1002
{
1000
OTHER
1070
     0
1002
}
1002
{
1000
REACTOR
1002
}
  0
TEXT
  5
4207
  8
0
 62
     3
 10
410.3958929395676
 20
258.0810786731173
 30
0.0
 40
3.5
  1
4
  0
LINE
  5
4208
  8
5
 62
     3
 10
413.6458929395676
 20
261.3150981507556
 30
0.0
 11
413.6458929395676
 21
256.48107867311728
 31
0.0
  0
SOLID
  5
4209
  8
5
 62
     3
 10
416.1458929395676
 20
257.89774533978402
 30
0.0
 11
416.1458929395676
 21
257.0644120064506
 31
0.0
 12
413.6458929395676
 22
257.48107867311728
 32
0.0
 13
413.6458929395676
 23
257.48107867311728
 33
0.0
  0
LINE
  5
420A
  8
5
 62
     3
 10
416.1458929395676
 20
257.48107867311728
 30
0.0
 11
418.64589293956749
 21
257.48107867311728
 31
0.0
  0
SOLID
  5
420B
  8
5
 62
     3
 10
403.48854974294051
 20
274.8150981507556
 30
0.0
 11
404.32188307627388
 21
274.8150981507556
 31
0.0
 12
403.90521640960708
 22
277.3150981507556
 32
0.0
 13
403.90521640960708
 23
277.3150981507556
 33
0.0
  0
LINE
  5
420C
  8
5
 62
     3
 10
406.14589293956539
 20
277.3150981507556
 30
0.0
 11
402.90521640960708
 21
277.3150981507556
 31
0.0
  0
LINE
  5
420D
  8
0
 10
406.14589293956749
 20
277.3150981507556
 30
0.0
 11
409.6458929395676
 21
277.3150981507556
 31
0.0
1001
GENIUS_GENREC_14
1002
{
1000
PYDIR
1011
406.14589293956749
1021
0.0
1031
0.0
1021
261.3150981507556
1031
0.0
1002
}
1002
{
1000
PXDIR
1011
409.6458929395676
1021
0.0
1031
0.0
1021
277.3150981507556
1031
0.0
1002
}
1002
{
1000
PORI
1011
406.14589293956749
1021
0.0
1031
0.0
1021
277.3150981507556
1031
0.0
1002
}
1002
{
1000
PINS
1011
406.14589293956749
1021
0.0
1031
0.0
1021
277.3150981507556
1031
0.0
1002
}
1002
{
1000
PINS2
1011
409.6458929395676
1021
0.0
1031
0.0
1021
261.3150981507556
1031
0.0
1002
}
1002
{
1000
C
1070
     1
1002
}
1001
GENIUS_GENOBJ-N-REC_13
1002
{
1000
OWNER
1000
GEN
1002
}
1001
GENIUS_GENODEF_13
1002
{
1000
HIER
1070
     0
1002
}
1002
{
1000
MANEDIT
1070
     0
1002
}
1002
{
1000
NOSEL
1070
     0
1002
}
1002
{
1000
BEHIND
1070
     0
1002
}
1002
{
1000
OTHER
1070
     0
1002
}
1002
{
1000
REACTOR
1002
}
  0
LINE
  5
420E
  8
5
 62
     3
 10
409.06405077663868
 20
300.59424860800652
 30
0.0
 11
420.78337809500658
 21
303.46411521307232
 31
0.0
  0
LINE
  5
420F
  8
5
 62
     3
 10
411.85328431919902
 20
312.43285220660511
 30
0.0
 11
431.71551447592913
 21
312.43285220660499
 31
0.0
  0
LINE
  5
4210
  8
7A
 10
403.64589293956419
 20
299.3150981507556
 30
0.0
 11
403.64589293956459
 21
288.81509815075572
 31
0.0
1001
GENIUS_GENOREF_13
1005
0
  0
CIRCLE
  5
4211
  8
0
 10
403.7218973707113
 20
299.2860448824581
 30
0.0
 40
3.0
  0
LINE
  5
4212
  8
5
 62
     3
 10
409.6458929395676
 20
282.76437464596461
 30
0.0
 11
406.14589293956749
 21
282.76437464596461
 31
0.0
  0
LINE
  5
4213
  8
5
 62
     3
 10
412.1458929395676
 20
282.76437464596461
 30
0.0
 11
414.64589293956749
 21
282.76437464596461
 31
0.0
  0
LINE
  5
4214
  8
5
 62
     3
 10
408.94996901053611
 20
307.79252565167502
 30
0.0
 11
411.85328431919902
 21
312.43285220660511
 31
0.0
  0
LINE
  5
4215
  8
7A
 10
403.64589293956419
 20
299.3150981507556
 30
0.0
 11
414.14589293956431
 21
299.31509815075611
 31
0.0
1001
GENIUS_GENOREF_13
1005
0
  0
ARC
  5
4216
  8
0
 10
405.64589293956527
 20
301.3150981507556
 30
0.0
 40
8.0
 50
0.0
 51
90.0
1001
GENIUS_GENODEF_13
1002
{
1000
HIER
1070
     0
1002
}
1002
{
1000
MANEDIT
1070
     0
1002
}
1002
{
1000
NOSEL
1070
     0
1002
}
1002
{
1000
BEHIND
1070
     0
1002
}
1002
{
1000
OTHER
1070
     0
1002
}
1002
{
1000
REACTOR
1002
}
1001
GENIUS_GENOBJ-N-FIL_13
1002
{
1000
OWNER
1000
GEN
1002
}
  0
LINE
  5
4217
  8
7A
 10
403.64589293956419
 20
299.3150981507556
 30
0.0
 11
403.64589293956391
 21
309.8150981507556
 31
0.0
1001
GENIUS_GENOREF_13
1005
0
  0
LINE
  5
4218
  8
5
 62
     3
 10
400.80799551293279
 20
298.57247921397732
 30
0.0
 11
406.63579922848987
 21
299.999610550939
 31
0.0
  0
SOLID
  5
4219
  8
5
 62
     3
 10
408.96494443379419
 20
300.99895719936461
 30
0.0
 11
409.16315711948329
 21
300.18954001664832
 31
0.0
 12
406.63579922848987
 22
299.999610550939
 32
0.0
 13
406.63579922848987
 23
299.999610550939
 33
0.0
  0
SOLID
  5
421A
  8
5
 62
     3
 10
408.59674286466452
 20
308.01352882129879
 30
0.0
 11
409.30319515640781
 21
307.57152248205108
 31
0.0
 12
407.6239499927932
 22
305.67316877644521
 32
0.0
 13
407.6239499927932
 23
305.67316877644521
 33
0.0
  0
TEXT
  5
421B
  8
0
 62
     3
 10
420.2728137905446
 20
304.06411521307228
 30
0.0
 40
3.5
  1
6.0
  0
ARC
  5
421C
  8
0
 10
475.03146953024873
 20
284.813514124135
 30
0.0
 40
2.0000000000000391
 50
270.91665425638632
 51
0.0
  0
ARC
  5
421D
  8
0
 10
461.53146953024861
 20
279.34684216713748
 30
0.0
 40
3.25
 50
90.916654256386295
 51
180.0
  0
LINE
  5
421E
  8
8
 10
473.37526024973852
 20
281.53659880226741
 30
0.0
 11
474.6457480442113
 21
282.80708659674019
 31
0.0
1001
GENIUS_GENODEF_13
1002
{
1000
HIER
1070
     0
1002
}
1002
{
1000
MANEDIT
1070
     0
1002
}
1002
{
1000
NOSEL
1070
     0
1002
}
1002
{
1000
BEHIND
1070
     0
1002
}
1002
{
1000
OTHER
1070
     0
1002
}
1002
{
1000
REACTOR
1002
}
1001
GENIUS_GENOBJ-N-HTC_13
1002
{
1000
OWNER
1000
GEN
1002
}
1001
GENIUS_GENHATCH_13
1002
{
1000
DATA
1040
45.0
1042
2.5
1000
_U
1070
     0
1011
477.63506114795769
1021
0.0
1031
0.0
1021
246.8941746850187
1031
0.0
1002
}
1002
{
1000
UCS
1010
0.0
1020
0.0
1030
0.0
1010
1.0
1020
0.0
1030
0.0
1010
0.0
1020
1.0
1030
0.0
1002
}
  0
LINE
  5
421F
  8
8
 10
469.78223798761172
 20
281.47911044607338
 30
0.0
 11
471.05272578208451
 21
282.74959824054611
 31
0.0
1001
GENIUS_GENODEF_13
1002
{
1000
HIER
1070
     0
1002
}
1002
{
1000
MANEDIT
1070
     0
1002
}
1002
{
1000
NOSEL
1070
     0
1002
}
1002
{
1000
BEHIND
1070
     0
1002
}
1002
{
1000
OTHER
1070
     0
1002
}
1002
{
1000
REACTOR
1002
}
1001
GENIUS_GENOBJ-N-HTC_13
1002
{
1000
OWNER
1000
GEN
1002
}
1001
GENIUS_GENHATCH_13
1002
{
1000
DATA
1040
45.0
1042
2.5
1000
_U
1070
     0
1011
477.63506114795769
1021
0.0
1031
0.0
1021
246.8941746850187
1031
0.0
1002
}
1002
{
1000
UCS
1010
0.0
1020
0.0
1030
0.0
1010
1.0
1020
0.0
1030
0.0
1010
0.0
1020
1.0
1030
0.0
1002
}
  0
LINE
  5
4220
  8
8
 10
466.18921572548493
 20
281.42162208987929
 30
0.0
 11
467.45970351995783
 21
282.69210988435231
 31
0.0
1001
GENIUS_GENODEF_13
1002
{
1000
HIER
1070
     0
1002
}
1002
{
1000
MANEDIT
1070
     0
1002
}
1002
{
1000
NOSEL
1070
     0
1002
}
1002
{
1000
BEHIND
1070
     0
1002
}
1002
{
1000
OTHER
1070
     0
1002
}
1002
{
1000
REACTOR
1002
}
1001
GENIUS_GENOBJ-N-HTC_13
1002
{
1000
OWNER
1000
GEN
1002
}
1001
GENIUS_GENHATCH_13
1002
{
1000
DATA
1040
45.0
1042
2.5
1000
_U
1070
     0
1011
477.63506114795769
1021
0.0
1031
0.0
1021
246.8941746850187
1031
0.0
1002
}
1002
{
1000
UCS
1010
0.0
1020
0.0
1030
0.0
1010
1.0
1020
0.0
1030
0.0
1010
0.0
1020
1.0
1030
0.0
1002
}
  0
LINE
  5
4221
  8
8
 10
462.59619346335808
 20
281.36413373368521
 30
0.0
 11
463.86668125783109
 21
282.63462152815811
 31
0.0
1001
GENIUS_GENODEF_13
1002
{
1000
HIER
1070
     0
1002
}
1002
{
1000
MANEDIT
1070
     0
1002
}
1002
{
1000
NOSEL
1070
     0
1002
}
1002
{
1000
BEHIND
1070
     0
1002
}
1002
{
1000
OTHER
1070
     0
1002
}
1002
{
1000
REACTOR
1002
}
1001
GENIUS_GENOBJ-N-HTC_13
1002
{
1000
OWNER
1000
GEN
1002
}
1001
GENIUS_GENHATCH_13
1002
{
1000
DATA
1040
45.0
1042
2.5
1000
_U
1070
     0
1011
477.63506114795769
1021
0.0
1031
0.0
1021
246.8941746850187
1031
0.0
1002
}
1002
{
1000
UCS
1010
0.0
1020
0.0
1030
0.0
1010
1.0
1020
0.0
1030
0.0
1010
0.0
1020
1.0
1030
0.0
1002
}
  0
LINE
  5
4222
  8
5
 62
     3
 10
461.49947362546231
 20
257.28361008523223
 30
0.0
 11
450.49947362546231
 21
257.28361008523223
 31
0.0
  0
LINE
  5
4223
  8
5
 62
     3
 10
461.4994736254622
 20
281.34658621627898
 30
0.0
 11
450.49947362546231
 21
281.34658621627898
 31
0.0
  0
ARC
  5
4224
  8
0
 10
461.53146953024861
 20
259.28335413437378
 30
0.0
 40
3.2500000000000631
 50
180.0
 51
269.08334574361368
  0
TEXT
  5
4225
  8
0
 62
     3
 10
450.89912913727329
 20
266.39843148408897
 30
0.0
 40
3.5
  1
24
 50
90.0
  0
LINE
  5
4226
  8
5
 62
     3
 10
451.49947362546231
 20
278.84658621627898
 30
0.0
 11
451.49947362546231
 21
259.78361008523223
 31
0.0
  0
SOLID
  5
4227
  8
5
 62
     3
 10
451.08280695879557
 20
259.78361008523223
 30
0.0
 11
451.916140292129
 21
259.78361008523223
 31
0.0
 12
451.49947362546231
 22
257.28361008523223
 32
0.0
 13
451.49947362546231
 23
257.28361008523223
 33
0.0
  0
SOLID
  5
4228
  8
5
 62
     3
 10
451.08280695879557
 20
278.84658621627898
 30
0.0
 11
451.916140292129
 21
278.84658621627898
 31
0.0
 12
451.49947362546231
 22
281.34658621627898
 32
0.0
 13
451.49947362546231
 23
281.34658621627898
 33
0.0
  0
LINE
  5
4229
  8
0
 10
458.28146953024861
 20
259.28335413437372
 30
0.0
 11
458.28146953024861
 21
279.34684216713748
 31
0.0
  0
LINE
  5
422A
  8
8
 10
458.28146953024861
 20
266.4428080827775
 30
0.0
 11
459.53146953024861
 21
267.69280808277762
 31
0.0
1001
GENIUS_GENODEF_13
1002
{
1000
HIER
1070
     0
1002
}
1002
{
1000
MANEDIT
1070
     0
1002
}
1002
{
1000
NOSEL
1070
     0
1002
}
1002
{
1000
BEHIND
1070
     0
1002
}
1002
{
1000
OTHER
1070
     0
1002
}
1002
{
1000
REACTOR
1002
}
1001
GENIUS_GENOBJ-N-HTC_13
1002
{
1000
OWNER
1000
GEN
1002
}
1001
GENIUS_GENHATCH_13
1002
{
1000
DATA
1040
45.0
1042
2.5
1000
_U
1070
     0
1011
477.63506114795769
1021
0.0
1031
0.0
1021
246.8941746850187
1031
0.0
1002
}
1002
{
1000
UCS
1010
0.0
1020
0.0
1030
0.0
1010
1.0
1020
0.0
1030
0.0
1010
0.0
1020
1.0
1030
0.0
1002
}
  0
LINE
  5
422B
  8
0
 10
459.5314695302485
 20
259.28335413437372
 30
0.0
 11
459.5314695302485
 21
279.34684216713748
 31
0.0
  0
LINE
  5
422C
  8
0
 10
475.06346543503503
 20
255.81642622651771
 30
0.0
 11
461.47947618497079
 21
256.03377005451881
 31
0.0
  0
LINE
  5
422D
  8
0
 10
475.08346287552638
 20
257.06626625723118
 30
0.0
 11
461.4994736254622
 21
257.28361008523223
 31
0.0
  0
LINE
  5
422E
  8
8
 10
458.28146953024861
 20
259.37174027091203
 30
0.0
 11
459.5314695302485
 21
260.62174027091203
 31
0.0
1001
GENIUS_GENODEF_13
1002
{
1000
HIER
1070
     0
1002
}
1002
{
1000
MANEDIT
1070
     0
1002
}
1002
{
1000
NOSEL
1070
     0
1002
}
1002
{
1000
BEHIND
1070
     0
1002
}
1002
{
1000
OTHER
1070
     0
1002
}
1002
{
1000
REACTOR
1002
}
1001
GENIUS_GENOBJ-N-HTC_13
1002
{
1000
OWNER
1000
GEN
1002
}
1001
GENIUS_GENHATCH_13
1002
{
1000
DATA
1040
45.0
1042
2.5
1000
_U
1070
     0
1011
477.63506114795769
1021
0.0
1031
0.0
1021
246.8941746850187
1031
0.0
1002
}
1002
{
1000
UCS
1010
0.0
1020
0.0
1030
0.0
1010
1.0
1020
0.0
1030
0.0
1010
0.0
1020
1.0
1030
0.0
1002
}
  0
LINE
  5
422F
  8
8
 10
462.0061404967326
 20
256.02534342553059
 30
0.0
 11
463.23661292759988
 21
257.25581585639787
 31
0.0
1001
GENIUS_GENODEF_13
1002
{
1000
HIER
1070
     0
1002
}
1002
{
1000
MANEDIT
1070
     0
1002
}
1002
{
1000
NOSEL
1070
     0
1002
}
1002
{
1000
BEHIND
1070
     0
1002
}
1002
{
1000
OTHER
1070
     0
1002
}
1002
{
1000
REACTOR
1002
}
1001
GENIUS_GENOBJ-N-HTC_13
1002
{
1000
OWNER
1000
GEN
1002
}
1001
GENIUS_GENHATCH_13
1002
{
1000
DATA
1040
45.0
1042
2.5
1000
_U
1070
     0
1011
477.63506114795769
1021
0.0
1031
0.0
1021
246.8941746850187
1031
0.0
1002
}
1002
{
1000
UCS
1010
0.0
1020
0.0
1030
0.0
1010
1.0
1020
0.0
1030
0.0
1010
0.0
1020
1.0
1030
0.0
1002
}
  0
LINE
  5
4230
  8
8
 10
459.33406144871537
 20
256.88879828344602
 30
0.0
 11
460.21926944677938
 21
257.7740062815102
 31
0.0
1001
GENIUS_GENODEF_13
1002
{
1000
HIER
1070
     0
1002
}
1002
{
1000
MANEDIT
1070
     0
1002
}
1002
{
1000
NOSEL
1070
     0
1002
}
1002
{
1000
BEHIND
1070
     0
1002
}
1002
{
1000
OTHER
1070
     0
1002
}
1002
{
1000
REACTOR
1002
}
1001
GENIUS_GENOBJ-N-HTC_13
1002
{
1000
OWNER
1000
GEN
1002
}
1001
GENIUS_GENHATCH_13
1002
{
1000
DATA
1040
45.0
1042
2.5
1000
_U
1070
     0
1011
477.63506114795769
1021
0.0
1031
0.0
1021
246.8941746850187
1031
0.0
1002
}
1002
{
1000
UCS
1010
0.0
1020
0.0
1030
0.0
1010
1.0
1020
0.0
1030
0.0
1010
0.0
1020
1.0
1030
0.0
1002
}
  0
ARC
  5
4231
  8
0
 10
461.53146953024861
 20
259.28335413437372
 30
0.0
 40
1.9999999999999809
 50
180.0
 51
269.08334574361368
  0
LINE
  5
4232
  8
8
 10
465.48599670335932
 20
255.9696657262246
 30
0.0
 11
466.71646913422671
 21
257.20013815709189
 31
0.0
1001
GENIUS_GENODEF_13
1002
{
1000
HIER
1070
     0
1002
}
1002
{
1000
MANEDIT
1070
     0
1002
}
1002
{
1000
NOSEL
1070
     0
1002
}
1002
{
1000
BEHIND
1070
     0
1002
}
1002
{
1000
OTHER
1070
     0
1002
}
1002
{
1000
REACTOR
1002
}
1001
GENIUS_GENOBJ-N-HTC_13
1002
{
1000
OWNER
1000
GEN
1002
}
1001
GENIUS_GENHATCH_13
1002
{
1000
DATA
1040
45.0
1042
2.5
1000
_U
1070
     0
1011
477.63506114795769
1021
0.0
1031
0.0
1021
246.8941746850187
1031
0.0
1002
}
1002
{
1000
UCS
1010
0.0
1020
0.0
1030
0.0
1010
1.0
1020
0.0
1030
0.0
1010
0.0
1020
1.0
1030
0.0
1002
}
  0
LINE
  5
4233
  8
8
 10
458.28146953024861
 20
262.90727417684468
 30
0.0
 11
459.5314695302485
 21
264.15727417684479
 31
0.0
1001
GENIUS_GENODEF_13
1002
{
1000
HIER
1070
     0
1002
}
1002
{
1000
MANEDIT
1070
     0
1002
}
1002
{
1000
NOSEL
1070
     0
1002
}
1002
{
1000
BEHIND
1070
     0
1002
}
1002
{
1000
OTHER
1070
     0
1002
}
1002
{
1000
REACTOR
1002
}
1001
GENIUS_GENOBJ-N-HTC_13
1002
{
1000
OWNER
1000
GEN
1002
}
1001
GENIUS_GENHATCH_13
1002
{
1000
DATA
1040
45.0
1042
2.5
1000
_U
1070
     0
1011
477.63506114795769
1021
0.0
1031
0.0
1021
246.8941746850187
1031
0.0
1002
}
1002
{
1000
UCS
1010
0.0
1020
0.0
1030
0.0
1010
1.0
1020
0.0
1030
0.0
1010
0.0
1020
1.0
1030
0.0
1002
}
  0
LINE
  5
4234
  8
8
 10
472.4457091166127
 20
255.8583103276124
 30
0.0
 11
473.6761815474801
 21
257.08878275847979
 31
0.0
1001
GENIUS_GENODEF_13
1002
{
1000
HIER
1070
     0
1002
}
1002
{
1000
MANEDIT
1070
     0
1002
}
1002
{
1000
NOSEL
1070
     0
1002
}
1002
{
1000
BEHIND
1070
     0
1002
}
1002
{
1000
OTHER
1070
     0
1002
}
1002
{
1000
REACTOR
1002
}
1001
GENIUS_GENOBJ-N-HTC_13
1002
{
1000
OWNER
1000
GEN
1002
}
1001
GENIUS_GENHATCH_13
1002
{
1000
DATA
1040
45.0
1042
2.5
1000
_U
1070
     0
1011
477.63506114795769
1021
0.0
1031
0.0
1021
246.8941746850187
1031
0.0
1002
}
1002
{
1000
UCS
1010
0.0
1020
0.0
1030
0.0
1010
1.0
1020
0.0
1030
0.0
1010
0.0
1020
1.0
1030
0.0
1002
}
  0
LINE
  5
4235
  8
8
 10
468.96585290998593
 20
255.9139880269185
 30
0.0
 11
470.19632534085349
 21
257.1444604577859
 31
0.0
1001
GENIUS_GENODEF_13
1002
{
1000
HIER
1070
     0
1002
}
1002
{
1000
MANEDIT
1070
     0
1002
}
1002
{
1000
NOSEL
1070
     0
1002
}
1002
{
1000
BEHIND
1070
     0
1002
}
1002
{
1000
OTHER
1070
     0
1002
}
1002
{
1000
REACTOR
1002
}
1001
GENIUS_GENOBJ-N-HTC_13
1002
{
1000
OWNER
1000
GEN
1002
}
1001
GENIUS_GENHATCH_13
1002
{
1000
DATA
1040
45.0
1042
2.5
1000
_U
1070
     0
1011
477.63506114795769
1021
0.0
1031
0.0
1021
246.8941746850187
1031
0.0
1002
}
1002
{
1000
UCS
1010
0.0
1020
0.0
1030
0.0
1010
1.0
1020
0.0
1030
0.0
1010
0.0
1020
1.0
1030
0.0
1002
}
  0
ARC
  5
4236
  8
0
 10
475.03146953024873
 20
253.81668217737621
 30
0.0
 40
2.0
 50
0.0
 51
89.083345743613719
  0
LINE
  5
4237
  8
8
 10
475.7901353759828
 20
255.66720268104979
 30
0.0
 11
476.71785341423367
 21
256.59492071930077
 31
0.0
1001
GENIUS_GENODEF_13
1002
{
1000
HIER
1070
     0
1002
}
1002
{
1000
MANEDIT
1070
     0
1002
}
1002
{
1000
NOSEL
1070
     0
1002
}
1002
{
1000
BEHIND
1070
     0
1002
}
1002
{
1000
OTHER
1070
     0
1002
}
1002
{
1000
REACTOR
1002
}
1001
GENIUS_GENOBJ-N-HTC_13
1002
{
1000
OWNER
1000
GEN
1002
}
1001
GENIUS_GENHATCH_13
1002
{
1000
DATA
1040
45.0
1042
2.5
1000
_U
1070
     0
1011
477.63506114795769
1021
0.0
1031
0.0
1021
246.8941746850187
1031
0.0
1002
}
1002
{
1000
UCS
1010
0.0
1020
0.0
1030
0.0
1010
1.0
1020
0.0
1030
0.0
1010
0.0
1020
1.0
1030
0.0
1002
}
  0
TEXT
  5
4238
  8
0
 62
     3
 10
466.54820938711021
 20
275.39121815513022
 30
0.0
 40
3.5
  1
R2
  0
LINE
  5
4239
  8
0
 62
     3
 10
471.66997940023361
 20
274.7908736669412
 30
0.0
 11
466.65977270732009
 21
274.7908736669412
 31
0.0
  0
LINE
  5
423A
  8
0
 10
461.4994736254622
 20
281.34658621627898
 30
0.0
 11
475.08346287552638
 21
281.56393004428003
 31
0.0
  0
LINE
  5
423B
  8
0
 62
     3
 10
466.65977270732009
 20
274.7908736669412
 30
0.0
 11
461.90526549828189
 21
279.01476299844188
 31
0.0
  0
LINE
  5
423C
  8
8
 10
458.28146953024861
 20
269.97834198871021
 30
0.0
 11
459.5314695302485
 21
271.22834198871021
 31
0.0
1001
GENIUS_GENODEF_13
1002
{
1000
HIER
1070
     0
1002
}
1002
{
1000
MANEDIT
1070
     0
1002
}
1002
{
1000
NOSEL
1070
     0
1002
}
1002
{
1000
BEHIND
1070
     0
1002
}
1002
{
1000
OTHER
1070
     0
1002
}
1002
{
1000
REACTOR
1002
}
1001
GENIUS_GENOBJ-N-HTC_13
1002
{
1000
OWNER
1000
GEN
1002
}
1001
GENIUS_GENHATCH_13
1002
{
1000
DATA
1040
45.0
1042
2.5
1000
_U
1070
     0
1011
477.63506114795769
1021
0.0
1031
0.0
1021
246.8941746850187
1031
0.0
1002
}
1002
{
1000
UCS
1010
0.0
1020
0.0
1030
0.0
1010
1.0
1020
0.0
1030
0.0
1010
0.0
1020
1.0
1030
0.0
1002
}
  0
LINE
  5
423D
  8
8
 10
458.28146953024861
 20
273.51387589464292
 30
0.0
 11
459.5314695302485
 21
274.76387589464298
 31
0.0
1001
GENIUS_GENODEF_13
1002
{
1000
HIER
1070
     0
1002
}
1002
{
1000
MANEDIT
1070
     0
1002
}
1002
{
1000
NOSEL
1070
     0
1002
}
1002
{
1000
BEHIND
1070
     0
1002
}
1002
{
1000
OTHER
1070
     0
1002
}
1002
{
1000
REACTOR
1002
}
1001
GENIUS_GENOBJ-N-HTC_13
1002
{
1000
OWNER
1000
GEN
1002
}
1001
GENIUS_GENHATCH_13
1002
{
1000
DATA
1040
45.0
1042
2.5
1000
_U
1070
     0
1011
477.63506114795769
1021
0.0
1031
0.0
1021
246.8941746850187
1031
0.0
1002
}
1002
{
1000
UCS
1010
0.0
1020
0.0
1030
0.0
1010
1.0
1020
0.0
1030
0.0
1010
0.0
1020
1.0
1030
0.0
1002
}
  0
SOLID
  5
423E
  8
0
 62
     3
 10
462.18199813886179
 20
279.32625963846999
 30
0.0
 11
461.62853285770223
 21
278.70326635841383
 31
0.0
 12
460.03628565811317
 22
280.67515884192102
 32
0.0
 13
460.03628565811317
 23
280.67515884192102
 33
0.0
  0
LINE
  5
423F
  8
8
 10
458.28146953024861
 20
277.04940980057569
 30
0.0
 11
459.53146953024861
 21
278.2994098005758
 31
0.0
1001
GENIUS_GENODEF_13
1002
{
1000
HIER
1070
     0
1002
}
1002
{
1000
MANEDIT
1070
     0
1002
}
1002
{
1000
NOSEL
1070
     0
1002
}
1002
{
1000
BEHIND
1070
     0
1002
}
1002
{
1000
OTHER
1070
     0
1002
}
1002
{
1000
REACTOR
1002
}
1001
GENIUS_GENOBJ-N-HTC_13
1002
{
1000
OWNER
1000
GEN
1002
}
1001
GENIUS_GENHATCH_13
1002
{
1000
DATA
1040
45.0
1042
2.5
1000
_U
1070
     0
1011
477.63506114795769
1021
0.0
1031
0.0
1021
246.8941746850187
1031
0.0
1002
}
1002
{
1000
UCS
1010
0.0
1020
0.0
1030
0.0
1010
1.0
1020
0.0
1030
0.0
1010
0.0
1020
1.0
1030
0.0
1002
}
  0
LINE
  5
4240
  8
8
 10
458.79195317843431
 20
281.09542735469421
 30
0.0
 11
459.78288434269189
 21
282.08635851895173
 31
0.0
1001
GENIUS_GENODEF_13
1002
{
1000
HIER
1070
     0
1002
}
1002
{
1000
MANEDIT
1070
     0
1002
}
1002
{
1000
NOSEL
1070
     0
1002
}
1002
{
1000
BEHIND
1070
     0
1002
}
1002
{
1000
OTHER
1070
     0
1002
}
1002
{
1000
REACTOR
1002
}
1001
GENIUS_GENOBJ-N-HTC_13
1002
{
1000
OWNER
1000
GEN
1002
}
1001
GENIUS_GENHATCH_13
1002
{
1000
DATA
1040
45.0
1042
2.5
1000
_U
1070
     0
1011
477.63506114795769
1021
0.0
1031
0.0
1021
246.8941746850187
1031
0.0
1002
}
1002
{
1000
UCS
1010
0.0
1020
0.0
1030
0.0
1010
1.0
1020
0.0
1030
0.0
1010
0.0
1020
1.0
1030
0.0
1002
}
  0
ARC
  5
4241
  8
0
 10
461.53146953024861
 20
279.34684216713748
 30
0.0
 40
2.0
 50
90.916654256386295
 51
180.0
  0
LINE
  5
4242
  8
0
 10
477.03146953024873
 20
284.813514124135
 30
0.0
 11
477.03146953024873
 21
309.31509815075572
 31
0.0
  0
LINE
  5
4243
  8
0
 10
474.2814695302485
 20
295.815098150756
 30
0.0
 11
474.2814695302485
 21
299.31509815075611
 31
0.0
  0
TEXT
  5
4244
  8
0
 62
     3
 10
463.72381709807991
 20
288.73904654208133
 30
0.0
 40
3.5
  1
R2
  0
LINE
  5
4245
  8
0
 62
     3
 10
464.43538041828992
 20
288.13870205389219
 30
0.0
 11
469.44558711120322
 21
288.1387020538923
 31
0.0
  0
LINE
  5
4246
  8
0
 10
461.47947618497079
 20
282.59642624699239
 30
0.0
 11
475.06346543503503
 21
282.81377007499339
 31
0.0
  0
LINE
  5
4247
  8
0
 62
     3
 10
469.44558711120322
 20
288.1387020538923
 30
0.0
 11
474.60183180728228
 21
285.06927070177159
 31
0.0
  0
SOLID
  5
4248
  8
0
 62
     3
 10
474.81496228864609
 20
285.42730213757687
 30
0.0
 11
474.3887013259183
 21
284.71123926596653
 31
0.0
 12
476.75002042211338
 22
283.79048781358853
 32
0.0
 13
476.75002042211338
 23
283.79048781358853
 33
0.0
  0
LINE
  5
4249
  8
0
 10
477.03146953024861
 20
293.065098150756
 30
0.0
 11
474.2814695302485
 21
295.815098150756
 31
0.0
  0
LINE
  5
424A
  8
0
 10
477.0314695302485
 20
305.565098150756
 30
0.0
 11
474.2814695302485
 21
302.81509815075611
 31
0.0
  0
LINE
  5
424B
  8
0
 10
474.2814695302485
 20
302.81509815075611
 30
0.0
 11
474.2814695302485
 21
299.31509815075611
 31
0.0
  0
LINE
  5
424C
  8
0
 10
478.2814695302485
 20
229.31509815075469
 30
0.0
 11
478.28146953024873
 21
253.81668217737621
 31
0.0
  0
LINE
  5
424D
  8
0
 10
478.28146953024878
 20
249.8814131912597
 30
0.0
 11
478.2814695302485
 21
288.74878311025162
 31
0.0
  0
LINE
  5
424E
  8
8
 10
477.72230209314938
 20
229.31509815075461
 30
0.0
 11
478.28146953024861
 21
229.8742655878537
 31
0.0
1001
GENIUS_GENODEF_13
1002
{
1000
HIER
1070
     0
1002
}
1002
{
1000
MANEDIT
1070
     0
1002
}
1002
{
1000
NOSEL
1070
     0
1002
}
1002
{
1000
BEHIND
1070
     0
1002
}
1002
{
1000
OTHER
1070
     0
1002
}
1002
{
1000
REACTOR
1002
}
1001
GENIUS_GENOBJ-N-HTC_13
1002
{
1000
OWNER
1000
GEN
1002
}
1001
GENIUS_GENHATCH_13
1002
{
1000
DATA
1040
45.0
1042
2.5
1000
_U
1070
     0
1011
477.63506114795769
1021
0.0
1031
0.0
1021
246.8941746850187
1031
0.0
1002
}
1002
{
1000
UCS
1010
0.0
1020
0.0
1030
0.0
1010
1.0
1020
0.0
1030
0.0
1010
0.0
1020
1.0
1030
0.0
1002
}
  0
LINE
  5
424F
  8
0
 10
478.28146953024873
 20
284.81351412413488
 30
0.0
 11
478.28146953024873
 21
253.81668217737621
 31
0.0
  0
LINE
  5
4250
  8
5
 62
     3
 10
481.28146953024873
 20
269.31509815075572
 30
0.0
 11
488.9740054287156
 21
269.31509815075628
 31
0.0
  0
TEXT
  5
4251
  8
0
 62
     3
 10
488.535748400709
 20
277.21345357489508
 30
0.0
 40
3.5
  1
1°
 50
270.45832712819328
  0
ARC
  5
4252
  8
5
 62
     3
 10
-290.4685304695933
 20
269.31509815075498
 30
0.0
 40
778.44253589830885
 50
0.184007815264294
 51
0.7326464411199496
  0
SOLID
  5
4253
  8
5
 62
     3
 10
488.38665713213771
 20
271.81576399864031
 30
0.0
 11
487.55332487317952
 21
271.81442585662131
 31
0.0
 12
487.9740054287156
 22
269.31509815075623
 32
0.0
 13
487.9740054287156
 23
269.31509815075623
 33
0.0
  0
SOLID
  5
4254
  8
5
 62
     3
 10
487.49374131793593
 20
279.26284690001972
 30
0.0
 11
488.32698833837281
 21
279.27484053905641
 31
0.0
 12
487.87438391104399
 22
281.76858478084898
 32
0.0
 13
487.87438391104399
 23
281.76858478084898
 33
0.0
  0
LINE
  5
4255
  8
0
 10
478.28146953024873
 20
284.81351412413488
 30
0.0
 11
478.28146953024873
 21
309.31509815075572
 31
0.0
  0
SOLID
  5
4262
  8
5
 62
     3
 10
418.65996299629558
 20
373.09690534512498
 30
0.0
 11
419.493296329629
 21
373.09690534512498
 31
0.0
 12
419.07662966296232
 22
370.59690534512509
 32
0.0
 13
419.07662966296232
 23
370.59690534512509
 33
0.0
  0
LINE
  5
4263
  8
7A
 10
403.64589293956442
 20
363.59690534512492
 30
0.0
 11
403.64589293956419
 21
373.59690534512492
 31
0.0
1001
GENIUS_GENOBJ-N-CEN_13
1002
{
1000
OWNER
1000
GEN
1002
}
1001
GENIUS_GENODEF_13
1002
{
1000
HIER
1070
     0
1002
}
1002
{
1000
MANEDIT
1070
     0
1002
}
1002
{
1000
NOSEL
1070
     0
1002
}
1002
{
1000
BEHIND
1070
     0
1002
}
1002
{
1000
OTHER
1070
     0
1002
}
1002
{
1000
REACTOR
1002
}
  0
TEXT
  5
426D
  8
0
 62
     3
 10
413.08439939756408
 20
313.03285220660513
 30
0.0
 40
3.5
  1
15.0x90°
  0
SOLID
  5
426E
  8
5
 62
     3
 10
401.14589293956431
 20
319.73176481742217
 30
0.0
 11
401.14589293956431
 21
318.8984314840888
 31
0.0
 12
403.64589293956419
 22
319.31509815075549
 32
0.0
 13
403.64589293956419
 23
319.31509815075549
 33
0.0
  0
TEXT
  5
426F
  8
0
 62
     3
 10
409.9177327308974
 20
313.03285220660513
 30
0.0
 40
3.5
  1
\U+2205
  0
SOLID
  5
4270
  8
5
 62
     3
 10
411.14589293956527
 20
333.73176582742241
 30
0.0
 11
411.14589293956527
 21
332.89843249408898
 31
0.0
 12
413.64589293956527
 22
333.31509916075572
 32
0.0
 13
413.64589293956527
 23
333.31509916075572
 33
0.0
  0
LINE
  5
4271
  8
5
 62
     3
 10
413.64589293956527
 20
370.59690534512509
 30
0.0
 11
420.07662966296232
 21
370.59690534512509
 31
0.0
  0
LINE
  5
4272
  8
5
 62
     3
 10
413.64589293956527
 20
369.34690534512498
 30
0.0
 11
420.07662966296232
 21
369.34690534512498
 31
0.0
  0
LINE
  5
4273
  8
0
 10
413.64589293956527
 20
370.59690534512509
 30
0.0
 11
400.71267364294579
 21
370.59690534512509
 31
0.0
  0
LINE
  5
4274
  8
0
 10
413.64589293956527
 20
369.34690534512498
 30
0.0
 11
400.71267364294579
 21
369.34690534512509
 31
0.0
  0
LINE
  5
4275
  8
8
 10
409.1576088374884
 20
369.34690534512498
 30
0.0
 11
410.4076088374884
 21
370.59690534512509
 31
0.0
1001
GENIUS_GENODEF_13
1002
{
1000
HIER
1070
     0
1002
}
1002
{
1000
MANEDIT
1070
     0
1002
}
1002
{
1000
NOSEL
1070
     0
1002
}
1002
{
1000
BEHIND
1070
     0
1002
}
1002
{
1000
OTHER
1070
     0
1002
}
1002
{
1000
REACTOR
1002
}
1001
GENIUS_GENOBJ-N-HTC_13
1002
{
1000
OWNER
1000
GEN
1002
}
1001
GENIUS_GENHATCH_13
1002
{
1000
DATA
1040
45.0
1042
2.5
1000
_U
1070
     0
1011
380.66451261481239
1021
0.0
1031
0.0
1021
369.8586706364959
1031
0.0
1002
}
1002
{
1000
UCS
1010
0.0
1020
0.0
1030
0.0
1010
1.0
1020
0.0
1030
0.0
1010
0.0
1020
1.0
1030
0.0
1002
}
  0
LINE
  5
4276
  8
0
 10
409.89589293956448
 20
369.34690534512509
 30
0.0
 11
407.14589293956442
 21
366.59690534512492
 31
0.0
  0
LINE
  5
4277
  8
0
 10
407.14589293956442
 20
366.59690534512492
 30
0.0
 11
403.64589293956431
 21
366.59690534512492
 31
0.0
  0
LINE
  5
4278
  8
8
 10
402.08654102562292
 20
369.34690534512498
 30
0.0
 11
403.33654102562292
 21
370.59690534512509
 31
0.0
1001
GENIUS_GENODEF_13
1002
{
1000
HIER
1070
     0
1002
}
1002
{
1000
MANEDIT
1070
     0
1002
}
1002
{
1000
NOSEL
1070
     0
1002
}
1002
{
1000
BEHIND
1070
     0
1002
}
1002
{
1000
OTHER
1070
     0
1002
}
1002
{
1000
REACTOR
1002
}
1001
GENIUS_GENOBJ-N-HTC_13
1002
{
1000
OWNER
1000
GEN
1002
}
1001
GENIUS_GENHATCH_13
1002
{
1000
DATA
1040
45.0
1042
2.5
1000
_U
1070
     0
1011
380.66451261481239
1021
0.0
1031
0.0
1021
369.8586706364959
1031
0.0
1002
}
1002
{
1000
UCS
1010
0.0
1020
0.0
1030
0.0
1010
1.0
1020
0.0
1030
0.0
1010
0.0
1020
1.0
1030
0.0
1002
}
  0
LINE
  5
4279
  8
0
 10
400.17062311648772
 20
366.59690534512492
 30
0.0
 11
403.64589293956431
 21
366.59690534512492
 31
0.0
  0
LINE
  5
427A
  8
8
 10
405.62207493155557
 20
369.34690534512498
 30
0.0
 11
406.87207493155569
 21
370.59690534512509
 31
0.0
1001
GENIUS_GENODEF_13
1002
{
1000
HIER
1070
     0
1002
}
1002
{
1000
MANEDIT
1070
     0
1002
}
1002
{
1000
NOSEL
1070
     0
1002
}
1002
{
1000
BEHIND
1070
     0
1002
}
1002
{
1000
OTHER
1070
     0
1002
}
1002
{
1000
REACTOR
1002
}
1001
GENIUS_GENOBJ-N-HTC_13
1002
{
1000
OWNER
1000
GEN
1002
}
1001
GENIUS_GENHATCH_13
1002
{
1000
DATA
1040
45.0
1042
2.5
1000
_U
1070
     0
1011
380.66451261481239
1021
0.0
1031
0.0
1021
369.8586706364959
1031
0.0
1002
}
1002
{
1000
UCS
1010
0.0
1020
0.0
1030
0.0
1010
1.0
1020
0.0
1030
0.0
1010
0.0
1020
1.0
1030
0.0
1002
}
  0
LINE
  5
427B
  8
5
 62
     3
 10
419.07662966296232
 20
366.84690534512498
 30
0.0
 11
419.07662966296232
 21
364.34690534512509
 31
0.0
  0
LINE
  5
427C
  8
8
 10
412.69314274342111
 20
369.34690534512498
 30
0.0
 11
413.64589293956539
 21
370.2996555412692
 31
0.0
1001
GENIUS_GENODEF_13
1002
{
1000
HIER
1070
     0
1002
}
1002
{
1000
MANEDIT
1070
     0
1002
}
1002
{
1000
NOSEL
1070
     0
1002
}
1002
{
1000
BEHIND
1070
     0
1002
}
1002
{
1000
OTHER
1070
     0
1002
}
1002
{
1000
REACTOR
1002
}
1001
GENIUS_GENOBJ-N-HTC_13
1002
{
1000
OWNER
1000
GEN
1002
}
1001
GENIUS_GENHATCH_13
1002
{
1000
DATA
1040
45.0
1042
2.5
1000
_U
1070
     0
1011
380.66451261481239
1021
0.0
1031
0.0
1021
369.8586706364959
1031
0.0
1002
}
1002
{
1000
UCS
1010
0.0
1020
0.0
1030
0.0
1010
1.0
1020
0.0
1030
0.0
1010
0.0
1020
1.0
1030
0.0
1002
}
  0
LINE
  5
427D
  8
0
 10
413.64589293956527
 20
370.59690534512509
 30
0.0
 11
413.64589293956527
 21
369.34690534512498
 31
0.0
  0
SOLID
  5
427E
  8
5
 62
     3
 10
418.65996299629558
 20
366.84690534512498
 30
0.0
 11
419.493296329629
 21
366.84690534512498
 31
0.0
 12
419.07662966296232
 22
369.34690534512498
 32
0.0
 13
419.07662966296232
 23
369.34690534512498
 33
0.0
  0
LINE
  5
427F
  8
5
 62
     3
 10
419.07662966296232
 20
369.34690534512498
 30
0.0
 11
419.07662966296232
 21
370.59690534512509
 31
0.0
  0
TEXT
  5
4290
  8
0
 62
     3
 10
418.4762851747733
 20
374.5943927185404
 30
0.0
 40
3.5
  1
1.25
 50
90.0
  0
LINE
  5
4291
  8
5
 62
     3
 10
419.07662966296232
 20
373.09690534512498
 30
0.0
 11
419.07662966296232
 21
383.5918800919556
 31
0.0
  0
LINE
  5
4364
  8
0
 10
500.78484603772881
 20
403.49956466194323
 30
0.0
 11
500.78484603772881
 21
121.4995646619432
 31
0.0
  0
LINE
  5
4365
  8
0
 10
495.78484603772881
 20
126.4995646619432
 30
0.0
 11
495.78484603772881
 21
398.49956466194323
 31
0.0
  0
LINE
  5
4366
  8
0
 10
305.78484603772881
 20
121.4995646619432
 30
0.0
 11
305.78484603772881
 21
403.49956466194323
 31
0.0
  0
LINE
  5
4367
  8
0
 10
325.7848460377287
 20
398.49956466194323
 30
0.0
 11
325.7848460377287
 21
126.4995646619432
 31
0.0
  0
LINE
  5
4368
  8
KOPF
 10
325.7848460377287
 20
161.29956466194329
 30
0.0
 11
444.4509626847464
 21
161.29956466194329
 31
0.0
  0
LINE
  5
4369
  8
KOPF
 10
325.7848460377287
 20
141.79956466194329
 30
0.0
 11
495.78484603772881
 21
141.79956466194329
 31
0.0
  0
LINE
  5
436A
  8
0
 10
500.78484603772881
 20
121.4995646619432
 30
0.0
 11
305.78484603772881
 21
121.4995646619432
 31
0.0
  0
LINE
  5
436B
  8
0
 10
325.7848460377287
 20
126.4995646619432
 30
0.0
 11
495.78484603772881
 21
126.4995646619432
 31
0.0
  0
INSERT
  5
436C
  8
0
  2
*U19
 10
0.0
 20
0.0
 30
0.0
  0
INSERT
  5
436D
  8
0
  2
*U20
 10
0.0
 20
0.0
 30
0.0
  0
INSERT
  5
436E
  8
0
  2
*U21
 10
0.0
 20
0.0
 30
0.0
  0
INSERT
  5
436F
  8
0
  2
*U22
 10
0.0
 20
0.0
 30
0.0
  0
LINE
  5
4370
  8
KOPF
 10
428.96059728784849
 20
126.4995646619432
 30
0.0
 11
428.96059728784849
 21
161.29956466194329
 31
0.0
  0
INSERT
  5
4371
  8
0
  2
*U23
 10
0.0
 20
0.0
 30
0.0
  0
LINE
  5
4372
  8
KOPF
 10
464.2521752409408
 20
148.29956466194329
 30
0.0
 11
464.2521752409408
 21
141.79956466194329
 31
0.0
  0
TEXT
  5
4373
  8
KOPF
 10
432.12124490229138
 20
138.2566108825059
 30
0.0
 40
2.0
  1
Zeichnungsnummer
  0
INSERT
  5
4374
  8
0
  2
*U24
 10
0.0
 20
0.0
 30
0.0
  0
INSERT
  5
4375
  8
0
  2
*U25
 10
0.0
 20
0.0
 30
0.0
  0
TEXT
  5
4376
  8
KOPF
 10
471.62763998246339
 20
138.07039279776311
 30
0.0
 40
2.0
  1
Index
  0
INSERT
  5
4377
  8
0
  2
*U26
 10
0.0
 20
0.0
 30
0.0
  0
INSERT
  5
4378
  8
0
  2
*U27
 10
0.0
 20
0.0
 30
0.0
  0
LINE
  5
4379
  8
KOPF
 10
444.4509626847464
 20
161.29956466194329
 30
0.0
 11
495.78484603772881
 21
161.29956466194329
 31
0.0
  0
LINE
  5
437A
  8
KOPF
 10
428.96059728784849
 20
148.29956466194329
 30
0.0
 11
495.78484603772881
 21
148.29956466194329
 31
0.0
  0
LINE
  5
437B
  8
KOPF
 10
428.96059728784849
 20
154.79956466194329
 30
0.0
 11
495.78484603772881
 21
154.79956466194329
 31
0.0
  0
TEXT
  5
437C
  8
KOPF
 10
430.53093214795439
 20
151.0378011330537
 30
0.0
 40
2.0
  1
Datum
  0
TEXT
  5
437D
  8
KOPF
 10
430.53093214795439
 20
144.08591048574331
 30
0.0
 40
2.0
  1
Massstab
  0
TEXT
  5
437E
  8
KOPF
 10
430.53093214795439
 20
157.01624763911241
 30
0.0
 40
2.0
  1
Gezeichnet
  0
LINE
  5
437F
  8
KOPF
 10
448.2527645686389
 20
161.29956466194329
 30
0.0
 11
448.2527645686389
 21
148.29956466194329
 31
0.0
  0
TEXT
  5
4380
  8
KOPF
 10
466.67693551946547
 20
144.2079213654921
 30
0.0
 40
2.0
  1
Format
  0
TEXT
  5
4381
  8
0
 10
436.99707621932248
 20
355.66395898810038
 30
0.0
 40
3.0
  1
900276-4
  0
TEXT
  5
4382
  8
0
 10
436.99707621932248
 20
349.07473712784099
 30
0.0
 40
3.0
  1
900276-2
  0
TEXT
  5
4383
  8
0
 10
436.99707621932248
 20
342.4855152675816
 30
0.0
 40
3.0
  1
900276-0
  0
LINE
  5
4384
  8
0
 10
469.88050675502512
 20
360.4593401618942
 30
0.0
 11
434.57116736403162
 21
360.4593401618942
 31
0.0
1001
GENIUS_GENREC_14
1002
{
1000
PYDIR
1011
434.57116736403162
1021
0.0
1031
0.0
1021
360.4593401618942
1031
0.0
1002
}
1002
{
1000
PXDIR
1011
469.88050675502512
1021
0.0
1031
0.0
1021
367.0485620221537
1031
0.0
1002
}
1002
{
1000
PORI
1011
434.57116736403162
1021
0.0
1031
0.0
1021
367.0485620221537
1031
0.0
1002
}
1002
{
1000
PINS
1011
434.57116736403162
1021
0.0
1031
0.0
1021
367.0485620221537
1031
0.0
1002
}
1002
{
1000
PINS2
1011
469.88050675502512
1021
0.0
1031
0.0
1021
360.4593401618942
1031
0.0
1002
}
1002
{
1000
C
1070
     1
1002
}
1001
GENIUS_GENOBJ-N-REC_13
1002
{
1000
OWNER
1000
GEN
1002
}
1001
GENIUS_GENODEF_13
1002
{
1000
HIER
1070
     0
1002
}
1002
{
1000
MANEDIT
1070
     0
1002
}
1002
{
1000
NOSEL
1070
     0
1002
}
1002
{
1000
BEHIND
1070
     0
1002
}
1002
{
1000
OTHER
1070
     0
1002
}
1002
{
1000
REACTOR
1002
}
  0
LINE
  5
4385
  8
0
 10
434.57116736403162
 20
367.0485620221537
 30
0.0
 11
469.88050675502512
 21
367.0485620221537
 31
0.0
1001
GENIUS_GENREC_14
1002
{
1000
PYDIR
1011
434.57116736403162
1021
0.0
1031
0.0
1021
360.4593401618942
1031
0.0
1002
}
1002
{
1000
PXDIR
1011
469.88050675502512
1021
0.0
1031
0.0
1021
367.0485620221537
1031
0.0
1002
}
1002
{
1000
PORI
1011
434.57116736403162
1021
0.0
1031
0.0
1021
367.0485620221537
1031
0.0
1002
}
1002
{
1000
PINS
1011
434.57116736403162
1021
0.0
1031
0.0
1021
367.0485620221537
1031
0.0
1002
}
1002
{
1000
PINS2
1011
469.88050675502512
1021
0.0
1031
0.0
1021
360.4593401618942
1031
0.0
1002
}
1002
{
1000
C
1070
     1
1002
}
1001
GENIUS_GENOBJ-N-REC_13
1002
{
1000
OWNER
1000
GEN
1002
}
1001
GENIUS_GENODEF_13
1002
{
1000
HIER
1070
     0
1002
}
1002
{
1000
MANEDIT
1070
     0
1002
}
1002
{
1000
NOSEL
1070
     0
1002
}
1002
{
1000
BEHIND
1070
     0
1002
}
1002
{
1000
OTHER
1070
     0
1002
}
1002
{
1000
REACTOR
1002
}
  0
LINE
  5
4386
  8
0
 10
469.88050675502512
 20
353.87011830163488
 30
0.0
 11
434.57116736403162
 21
353.87011830163488
 31
0.0
1001
GENIUS_GENREC_14
1002
{
1000
PYDIR
1011
434.57116736403162
1021
0.0
1031
0.0
1021
353.87011830163488
1031
0.0
1002
}
1002
{
1000
PXDIR
1011
469.88050675502512
1021
0.0
1031
0.0
1021
360.4593401618942
1031
0.0
1002
}
1002
{
1000
PORI
1011
434.57116736403162
1021
0.0
1031
0.0
1021
360.4593401618942
1031
0.0
1002
}
1002
{
1000
PINS
1011
434.57116736403162
1021
0.0
1031
0.0
1021
360.4593401618942
1031
0.0
1002
}
1002
{
1000
PINS2
1011
469.88050675502512
1021
0.0
1031
0.0
1021
353.87011830163488
1031
0.0
1002
}
1002
{
1000
C
1070
     1
1002
}
1001
GENIUS_GENOBJ-N-REC_13
1002
{
1000
OWNER
1000
GEN
1002
}
1001
GENIUS_GENODEF_13
1002
{
1000
HIER
1070
     0
1002
}
1002
{
1000
MANEDIT
1070
     0
1002
}
1002
{
1000
NOSEL
1070
     0
1002
}
1002
{
1000
BEHIND
1070
     0
1002
}
1002
{
1000
OTHER
1070
     0
1002
}
1002
{
1000
REACTOR
1002
}
  0
LINE
  5
4387
  8
0
 10
434.57116736403162
 20
360.4593401618942
 30
0.0
 11
469.88050675502512
 21
360.4593401618942
 31
0.0
1001
GENIUS_GENREC_14
1002
{
1000
PYDIR
1011
434.57116736403162
1021
0.0
1031
0.0
1021
353.87011830163488
1031
0.0
1002
}
1002
{
1000
PXDIR
1011
469.88050675502512
1021
0.0
1031
0.0
1021
360.4593401618942
1031
0.0
1002
}
1002
{
1000
PORI
1011
434.57116736403162
1021
0.0
1031
0.0
1021
360.4593401618942
1031
0.0
1002
}
1002
{
1000
PINS
1011
434.57116736403162
1021
0.0
1031
0.0
1021
360.4593401618942
1031
0.0
1002
}
1002
{
1000
PINS2
1011
469.88050675502512
1021
0.0
1031
0.0
1021
353.87011830163488
1031
0.0
1002
}
1002
{
1000
C
1070
     1
1002
}
1001
GENIUS_GENOBJ-N-REC_13
1002
{
1000
OWNER
1000
GEN
1002
}
1001
GENIUS_GENODEF_13
1002
{
1000
HIER
1070
     0
1002
}
1002
{
1000
MANEDIT
1070
     0
1002
}
1002
{
1000
NOSEL
1070
     0
1002
}
1002
{
1000
BEHIND
1070
     0
1002
}
1002
{
1000
OTHER
1070
     0
1002
}
1002
{
1000
REACTOR
1002
}
  0
LINE
  5
4388
  8
0
 10
469.88050675502512
 20
347.28089644137549
 30
0.0
 11
434.57116736403162
 21
347.28089644137549
 31
0.0
1001
GENIUS_GENREC_14
1002
{
1000
PYDIR
1011
434.57116736403162
1021
0.0
1031
0.0
1021
347.28089644137549
1031
0.0
1002
}
1002
{
1000
PXDIR
1011
469.88050675502512
1021
0.0
1031
0.0
1021
353.87011830163488
1031
0.0
1002
}
1002
{
1000
PORI
1011
434.57116736403162
1021
0.0
1031
0.0
1021
353.87011830163488
1031
0.0
1002
}
1002
{
1000
PINS
1011
434.57116736403162
1021
0.0
1031
0.0
1021
353.87011830163488
1031
0.0
1002
}
1002
{
1000
PINS2
1011
469.88050675502512
1021
0.0
1031
0.0
1021
347.28089644137549
1031
0.0
1002
}
1002
{
1000
C
1070
     1
1002
}
1001
GENIUS_GENOBJ-N-REC_13
1002
{
1000
OWNER
1000
GEN
1002
}
1001
GENIUS_GENODEF_13
1002
{
1000
HIER
1070
     0
1002
}
1002
{
1000
MANEDIT
1070
     0
1002
}
1002
{
1000
NOSEL
1070
     0
1002
}
1002
{
1000
BEHIND
1070
     0
1002
}
1002
{
1000
OTHER
1070
     0
1002
}
1002
{
1000
REACTOR
1002
}
  0
LINE
  5
4389
  8
0
 10
434.57116736403162
 20
353.87011830163488
 30
0.0
 11
469.88050675502512
 21
353.87011830163488
 31
0.0
1001
GENIUS_GENREC_14
1002
{
1000
PYDIR
1011
434.57116736403162
1021
0.0
1031
0.0
1021
347.28089644137549
1031
0.0
1002
}
1002
{
1000
PXDIR
1011
469.88050675502512
1021
0.0
1031
0.0
1021
353.87011830163488
1031
0.0
1002
}
1002
{
1000
PORI
1011
434.57116736403162
1021
0.0
1031
0.0
1021
353.87011830163488
1031
0.0
1002
}
1002
{
1000
PINS
1011
434.57116736403162
1021
0.0
1031
0.0
1021
353.87011830163488
1031
0.0
1002
}
1002
{
1000
PINS2
1011
469.88050675502512
1021
0.0
1031
0.0
1021
347.28089644137549
1031
0.0
1002
}
1002
{
1000
C
1070
     1
1002
}
1001
GENIUS_GENOBJ-N-REC_13
1002
{
1000
OWNER
1000
GEN
1002
}
1001
GENIUS_GENODEF_13
1002
{
1000
HIER
1070
     0
1002
}
1002
{
1000
MANEDIT
1070
     0
1002
}
1002
{
1000
NOSEL
1070
     0
1002
}
1002
{
1000
BEHIND
1070
     0
1002
}
1002
{
1000
OTHER
1070
     0
1002
}
1002
{
1000
REACTOR
1002
}
  0
LINE
  5
438A
  8
0
 10
434.57116736403162
 20
347.28089644137549
 30
0.0
 11
469.88050675502512
 21
347.28089644137549
 31
0.0
1001
GENIUS_GENREC_14
1002
{
1000
PYDIR
1011
434.57116736403162
1021
0.0
1031
0.0
1021
340.6916745811161
1031
0.0
1002
}
1002
{
1000
PXDIR
1011
469.88050675502512
1021
0.0
1031
0.0
1021
347.28089644137549
1031
0.0
1002
}
1002
{
1000
PORI
1011
434.57116736403162
1021
0.0
1031
0.0
1021
347.28089644137549
1031
0.0
1002
}
1002
{
1000
PINS
1011
434.57116736403162
1021
0.0
1031
0.0
1021
347.28089644137549
1031
0.0
1002
}
1002
{
1000
PINS2
1011
469.88050675502512
1021
0.0
1031
0.0
1021
340.6916745811161
1031
0.0
1002
}
1002
{
1000
C
1070
     1
1002
}
1001
GENIUS_GENOBJ-N-REC_13
1002
{
1000
OWNER
1000
GEN
1002
}
1001
GENIUS_GENODEF_13
1002
{
1000
HIER
1070
     0
1002
}
1002
{
1000
MANEDIT
1070
     0
1002
}
1002
{
1000
NOSEL
1070
     0
1002
}
1002
{
1000
BEHIND
1070
     0
1002
}
1002
{
1000
OTHER
1070
     0
1002
}
1002
{
1000
REACTOR
1002
}
  0
LINE
  5
438B
  8
0
 10
469.88050675502512
 20
340.6916745811161
 30
0.0
 11
434.57116736403162
 21
340.6916745811161
 31
0.0
1001
GENIUS_GENREC_14
1002
{
1000
PYDIR
1011
434.57116736403162
1021
0.0
1031
0.0
1021
340.6916745811161
1031
0.0
1002
}
1002
{
1000
PXDIR
1011
469.88050675502512
1021
0.0
1031
0.0
1021
347.28089644137549
1031
0.0
1002
}
1002
{
1000
PORI
1011
434.57116736403162
1021
0.0
1031
0.0
1021
347.28089644137549
1031
0.0
1002
}
1002
{
1000
PINS
1011
434.57116736403162
1021
0.0
1031
0.0
1021
347.28089644137549
1031
0.0
1002
}
1002
{
1000
PINS2
1011
469.88050675502512
1021
0.0
1031
0.0
1021
340.6916745811161
1031
0.0
1002
}
1002
{
1000
C
1070
     1
1002
}
1001
GENIUS_GENOBJ-N-REC_13
1002
{
1000
OWNER
1000
GEN
1002
}
1001
GENIUS_GENODEF_13
1002
{
1000
HIER
1070
     0
1002
}
1002
{
1000
MANEDIT
1070
     0
1002
}
1002
{
1000
NOSEL
1070
     0
1002
}
1002
{
1000
BEHIND
1070
     0
1002
}
1002
{
1000
OTHER
1070
     0
1002
}
1002
{
1000
REACTOR
1002
}
  0
TEXT
  5
438C
  8
0
 10
436.99707621932248
 20
362.25318084835982
 30
0.0
 40
3.0
  1
Art. Nr.
  0
LINE
  5
438D
  8
0
 10
434.57116736403162
 20
353.87011830163488
 30
0.0
 11
434.57116736403162
 21
360.4593401618942
 31
0.0
1001
GENIUS_GENREC_14
1002
{
1000
PYDIR
1011
434.57116736403162
1021
0.0
1031
0.0
1021
353.87011830163488
1031
0.0
1002
}
1002
{
1000
PXDIR
1011
469.88050675502512
1021
0.0
1031
0.0
1021
360.4593401618942
1031
0.0
1002
}
1002
{
1000
PORI
1011
434.57116736403162
1021
0.0
1031
0.0
1021
360.4593401618942
1031
0.0
1002
}
1002
{
1000
PINS
1011
434.57116736403162
1021
0.0
1031
0.0
1021
360.4593401618942
1031
0.0
1002
}
1002
{
1000
PINS2
1011
469.88050675502512
1021
0.0
1031
0.0
1021
353.87011830163488
1031
0.0
1002
}
1002
{
1000
C
1070
     1
1002
}
1001
GENIUS_GENOBJ-N-REC_13
1002
{
1000
OWNER
1000
GEN
1002
}
1001
GENIUS_GENODEF_13
1002
{
1000
HIER
1070
     0
1002
}
1002
{
1000
MANEDIT
1070
     0
1002
}
1002
{
1000
NOSEL
1070
     0
1002
}
1002
{
1000
BEHIND
1070
     0
1002
}
1002
{
1000
OTHER
1070
     0
1002
}
1002
{
1000
REACTOR
1002
}
  0
LINE
  5
438E
  8
0
 10
434.57116736403162
 20
347.28089644137549
 30
0.0
 11
434.57116736403162
 21
353.87011830163488
 31
0.0
1001
GENIUS_GENREC_14
1002
{
1000
PYDIR
1011
434.57116736403162
1021
0.0
1031
0.0
1021
347.28089644137549
1031
0.0
1002
}
1002
{
1000
PXDIR
1011
469.88050675502512
1021
0.0
1031
0.0
1021
353.87011830163488
1031
0.0
1002
}
1002
{
1000
PORI
1011
434.57116736403162
1021
0.0
1031
0.0
1021
353.87011830163488
1031
0.0
1002
}
1002
{
1000
PINS
1011
434.57116736403162
1021
0.0
1031
0.0
1021
353.87011830163488
1031
0.0
1002
}
1002
{
1000
PINS2
1011
469.88050675502512
1021
0.0
1031
0.0
1021
347.28089644137549
1031
0.0
1002
}
1002
{
1000
C
1070
     1
1002
}
1001
GENIUS_GENOBJ-N-REC_13
1002
{
1000
OWNER
1000
GEN
1002
}
1001
GENIUS_GENODEF_13
1002
{
1000
HIER
1070
     0
1002
}
1002
{
1000
MANEDIT
1070
     0
1002
}
1002
{
1000
NOSEL
1070
     0
1002
}
1002
{
1000
BEHIND
1070
     0
1002
}
1002
{
1000
OTHER
1070
     0
1002
}
1002
{
1000
REACTOR
1002
}
  0
LINE
  5
438F
  8
0
 10
434.57116736403162
 20
340.6916745811161
 30
0.0
 11
434.57116736403162
 21
347.28089644137549
 31
0.0
1001
GENIUS_GENREC_14
1002
{
1000
PYDIR
1011
434.57116736403162
1021
0.0
1031
0.0
1021
340.6916745811161
1031
0.0
1002
}
1002
{
1000
PXDIR
1011
469.88050675502512
1021
0.0
1031
0.0
1021
347.28089644137549
1031
0.0
1002
}
1002
{
1000
PORI
1011
434.57116736403162
1021
0.0
1031
0.0
1021
347.28089644137549
1031
0.0
1002
}
1002
{
1000
PINS
1011
434.57116736403162
1021
0.0
1031
0.0
1021
347.28089644137549
1031
0.0
1002
}
1002
{
1000
PINS2
1011
469.88050675502512
1021
0.0
1031
0.0
1021
340.6916745811161
1031
0.0
1002
}
1002
{
1000
C
1070
     1
1002
}
1001
GENIUS_GENOBJ-N-REC_13
1002
{
1000
OWNER
1000
GEN
1002
}
1001
GENIUS_GENODEF_13
1002
{
1000
HIER
1070
     0
1002
}
1002
{
1000
MANEDIT
1070
     0
1002
}
1002
{
1000
NOSEL
1070
     0
1002
}
1002
{
1000
BEHIND
1070
     0
1002
}
1002
{
1000
OTHER
1070
     0
1002
}
1002
{
1000
REACTOR
1002
}
  0
LINE
  5
4390
  8
0
 10
434.57116736403162
 20
360.4593401618942
 30
0.0
 11
434.57116736403162
 21
367.0485620221537
 31
0.0
1001
GENIUS_GENREC_14
1002
{
1000
PYDIR
1011
434.57116736403162
1021
0.0
1031
0.0
1021
360.4593401618942
1031
0.0
1002
}
1002
{
1000
PXDIR
1011
469.88050675502512
1021
0.0
1031
0.0
1021
367.0485620221537
1031
0.0
1002
}
1002
{
1000
PORI
1011
434.57116736403162
1021
0.0
1031
0.0
1021
367.0485620221537
1031
0.0
1002
}
1002
{
1000
PINS
1011
434.57116736403162
1021
0.0
1031
0.0
1021
367.0485620221537
1031
0.0
1002
}
1002
{
1000
PINS2
1011
469.88050675502512
1021
0.0
1031
0.0
1021
360.4593401618942
1031
0.0
1002
}
1002
{
1000
C
1070
     1
1002
}
1001
GENIUS_GENOBJ-N-REC_13
1002
{
1000
OWNER
1000
GEN
1002
}
1001
GENIUS_GENODEF_13
1002
{
1000
HIER
1070
     0
1002
}
1002
{
1000
MANEDIT
1070
     0
1002
}
1002
{
1000
NOSEL
1070
     0
1002
}
1002
{
1000
BEHIND
1070
     0
1002
}
1002
{
1000
OTHER
1070
     0
1002
}
1002
{
1000
REACTOR
1002
}
  0
TEXT
  5
4391
  8
0
 10
474.38204401499303
 20
349.09486155434797
 30
0.0
 40
3.0
  1
2mm
  0
TEXT
  5
4392
  8
0
 10
474.38204401499303
 20
342.50563969408859
 30
0.0
 40
3.0
  1
0mm
  0
TEXT
  5
4393
  8
0
 10
472.30641561031592
 20
362.27330527486669
 30
0.0
 40
3.0
  1
Mass C
  0
TEXT
  5
4394
  8
0
 10
474.38204401499303
 20
355.68408341460741
 30
0.0
 40
3.0
  1
4mm
  0
LINE
  5
4395
  8
0
 10
490.4912867556572
 20
360.47946458840119
 30
0.0
 11
469.88050675502512
 21
360.47946458840119
 31
0.0
1001
GENIUS_GENREC_14
1002
{
1000
PYDIR
1011
469.88050675502512
1021
0.0
1031
0.0
1021
360.47946458840119
1031
0.0
1002
}
1002
{
1000
PXDIR
1011
490.4912867556572
1021
0.0
1031
0.0
1021
367.06868644866063
1031
0.0
1002
}
1002
{
1000
PORI
1011
469.88050675502512
1021
0.0
1031
0.0
1021
367.06868644866063
1031
0.0
1002
}
1002
{
1000
PINS
1011
469.88050675502512
1021
0.0
1031
0.0
1021
367.06868644866063
1031
0.0
1002
}
1002
{
1000
PINS2
1011
490.4912867556572
1021
0.0
1031
0.0
1021
360.47946458840119
1031
0.0
1002
}
1002
{
1000
C
1070
     1
1002
}
1001
GENIUS_GENOBJ-N-REC_13
1002
{
1000
OWNER
1000
GEN
1002
}
1001
GENIUS_GENODEF_13
1002
{
1000
HIER
1070
     0
1002
}
1002
{
1000
MANEDIT
1070
     0
1002
}
1002
{
1000
NOSEL
1070
     0
1002
}
1002
{
1000
BEHIND
1070
     0
1002
}
1002
{
1000
OTHER
1070
     0
1002
}
1002
{
1000
REACTOR
1002
}
  0
LINE
  5
4396
  8
0
 10
469.88050675502512
 20
367.06868644866063
 30
0.0
 11
490.4912867556572
 21
367.06868644866063
 31
0.0
1001
GENIUS_GENREC_14
1002
{
1000
PYDIR
1011
469.88050675502512
1021
0.0
1031
0.0
1021
360.47946458840119
1031
0.0
1002
}
1002
{
1000
PXDIR
1011
490.4912867556572
1021
0.0
1031
0.0
1021
367.06868644866063
1031
0.0
1002
}
1002
{
1000
PORI
1011
469.88050675502512
1021
0.0
1031
0.0
1021
367.06868644866063
1031
0.0
1002
}
1002
{
1000
PINS
1011
469.88050675502512
1021
0.0
1031
0.0
1021
367.06868644866063
1031
0.0
1002
}
1002
{
1000
PINS2
1011
490.4912867556572
1021
0.0
1031
0.0
1021
360.47946458840119
1031
0.0
1002
}
1002
{
1000
C
1070
     1
1002
}
1001
GENIUS_GENOBJ-N-REC_13
1002
{
1000
OWNER
1000
GEN
1002
}
1001
GENIUS_GENODEF_13
1002
{
1000
HIER
1070
     0
1002
}
1002
{
1000
MANEDIT
1070
     0
1002
}
1002
{
1000
NOSEL
1070
     0
1002
}
1002
{
1000
BEHIND
1070
     0
1002
}
1002
{
1000
OTHER
1070
     0
1002
}
1002
{
1000
REACTOR
1002
}
  0
LINE
  5
4397
  8
0
 10
490.4912867556572
 20
353.8902427281418
 30
0.0
 11
469.88050675502512
 21
353.8902427281418
 31
0.0
1001
GENIUS_GENREC_14
1002
{
1000
PYDIR
1011
469.88050675502512
1021
0.0
1031
0.0
1021
353.8902427281418
1031
0.0
1002
}
1002
{
1000
PXDIR
1011
490.4912867556572
1021
0.0
1031
0.0
1021
360.47946458840119
1031
0.0
1002
}
1002
{
1000
PORI
1011
469.88050675502512
1021
0.0
1031
0.0
1021
360.47946458840119
1031
0.0
1002
}
1002
{
1000
PINS
1011
469.88050675502512
1021
0.0
1031
0.0
1021
360.47946458840119
1031
0.0
1002
}
1002
{
1000
PINS2
1011
490.4912867556572
1021
0.0
1031
0.0
1021
353.8902427281418
1031
0.0
1002
}
1002
{
1000
C
1070
     1
1002
}
1001
GENIUS_GENOBJ-N-REC_13
1002
{
1000
OWNER
1000
GEN
1002
}
1001
GENIUS_GENODEF_13
1002
{
1000
HIER
1070
     0
1002
}
1002
{
1000
MANEDIT
1070
     0
1002
}
1002
{
1000
NOSEL
1070
     0
1002
}
1002
{
1000
BEHIND
1070
     0
1002
}
1002
{
1000
OTHER
1070
     0
1002
}
1002
{
1000
REACTOR
1002
}
  0
LINE
  5
4398
  8
0
 10
469.88050675502512
 20
360.47946458840119
 30
0.0
 11
490.4912867556572
 21
360.47946458840119
 31
0.0
1001
GENIUS_GENREC_14
1002
{
1000
PYDIR
1011
469.88050675502512
1021
0.0
1031
0.0
1021
353.8902427281418
1031
0.0
1002
}
1002
{
1000
PXDIR
1011
490.4912867556572
1021
0.0
1031
0.0
1021
360.47946458840119
1031
0.0
1002
}
1002
{
1000
PORI
1011
469.88050675502512
1021
0.0
1031
0.0
1021
360.47946458840119
1031
0.0
1002
}
1002
{
1000
PINS
1011
469.88050675502512
1021
0.0
1031
0.0
1021
360.47946458840119
1031
0.0
1002
}
1002
{
1000
PINS2
1011
490.4912867556572
1021
0.0
1031
0.0
1021
353.8902427281418
1031
0.0
1002
}
1002
{
1000
C
1070
     1
1002
}
1001
GENIUS_GENOBJ-N-REC_13
1002
{
1000
OWNER
1000
GEN
1002
}
1001
GENIUS_GENODEF_13
1002
{
1000
HIER
1070
     0
1002
}
1002
{
1000
MANEDIT
1070
     0
1002
}
1002
{
1000
NOSEL
1070
     0
1002
}
1002
{
1000
BEHIND
1070
     0
1002
}
1002
{
1000
OTHER
1070
     0
1002
}
1002
{
1000
REACTOR
1002
}
  0
LINE
  5
4399
  8
0
 10
490.4912867556572
 20
347.30102086788253
 30
0.0
 11
469.88050675502512
 21
347.30102086788253
 31
0.0
1001
GENIUS_GENREC_14
1002
{
1000
PYDIR
1011
469.88050675502512
1021
0.0
1031
0.0
1021
347.30102086788253
1031
0.0
1002
}
1002
{
1000
PXDIR
1011
490.4912867556572
1021
0.0
1031
0.0
1021
353.8902427281418
1031
0.0
1002
}
1002
{
1000
PORI
1011
469.88050675502512
1021
0.0
1031
0.0
1021
353.8902427281418
1031
0.0
1002
}
1002
{
1000
PINS
1011
469.88050675502512
1021
0.0
1031
0.0
1021
353.8902427281418
1031
0.0
1002
}
1002
{
1000
PINS2
1011
490.4912867556572
1021
0.0
1031
0.0
1021
347.30102086788253
1031
0.0
1002
}
1002
{
1000
C
1070
     1
1002
}
1001
GENIUS_GENOBJ-N-REC_13
1002
{
1000
OWNER
1000
GEN
1002
}
1001
GENIUS_GENODEF_13
1002
{
1000
HIER
1070
     0
1002
}
1002
{
1000
MANEDIT
1070
     0
1002
}
1002
{
1000
NOSEL
1070
     0
1002
}
1002
{
1000
BEHIND
1070
     0
1002
}
1002
{
1000
OTHER
1070
     0
1002
}
1002
{
1000
REACTOR
1002
}
  0
LINE
  5
439A
  8
0
 10
469.88050675502512
 20
353.8902427281418
 30
0.0
 11
490.4912867556572
 21
353.8902427281418
 31
0.0
1001
GENIUS_GENREC_14
1002
{
1000
PYDIR
1011
469.88050675502512
1021
0.0
1031
0.0
1021
347.30102086788253
1031
0.0
1002
}
1002
{
1000
PXDIR
1011
490.4912867556572
1021
0.0
1031
0.0
1021
353.8902427281418
1031
0.0
1002
}
1002
{
1000
PORI
1011
469.88050675502512
1021
0.0
1031
0.0
1021
353.8902427281418
1031
0.0
1002
}
1002
{
1000
PINS
1011
469.88050675502512
1021
0.0
1031
0.0
1021
353.8902427281418
1031
0.0
1002
}
1002
{
1000
PINS2
1011
490.4912867556572
1021
0.0
1031
0.0
1021
347.30102086788253
1031
0.0
1002
}
1002
{
1000
C
1070
     1
1002
}
1001
GENIUS_GENOBJ-N-REC_13
1002
{
1000
OWNER
1000
GEN
1002
}
1001
GENIUS_GENODEF_13
1002
{
1000
HIER
1070
     0
1002
}
1002
{
1000
MANEDIT
1070
     0
1002
}
1002
{
1000
NOSEL
1070
     0
1002
}
1002
{
1000
BEHIND
1070
     0
1002
}
1002
{
1000
OTHER
1070
     0
1002
}
1002
{
1000
REACTOR
1002
}
  0
LINE
  5
439B
  8
0
 10
469.88050675502512
 20
347.30102086788253
 30
0.0
 11
490.4912867556572
 21
347.30102086788253
 31
0.0
1001
GENIUS_GENREC_14
1002
{
1000
PYDIR
1011
469.88050675502512
1021
0.0
1031
0.0
1021
340.71179900762309
1031
0.0
1002
}
1002
{
1000
PXDIR
1011
490.4912867556572
1021
0.0
1031
0.0
1021
347.30102086788253
1031
0.0
1002
}
1002
{
1000
PORI
1011
469.88050675502512
1021
0.0
1031
0.0
1021
347.30102086788253
1031
0.0
1002
}
1002
{
1000
PINS
1011
469.88050675502512
1021
0.0
1031
0.0
1021
347.30102086788253
1031
0.0
1002
}
1002
{
1000
PINS2
1011
490.4912867556572
1021
0.0
1031
0.0
1021
340.71179900762309
1031
0.0
1002
}
1002
{
1000
C
1070
     1
1002
}
1001
GENIUS_GENOBJ-N-REC_13
1002
{
1000
OWNER
1000
GEN
1002
}
1001
GENIUS_GENODEF_13
1002
{
1000
HIER
1070
     0
1002
}
1002
{
1000
MANEDIT
1070
     0
1002
}
1002
{
1000
NOSEL
1070
     0
1002
}
1002
{
1000
BEHIND
1070
     0
1002
}
1002
{
1000
OTHER
1070
     0
1002
}
1002
{
1000
REACTOR
1002
}
  0
LINE
  5
439C
  8
0
 10
490.4912867556572
 20
340.71179900762309
 30
0.0
 11
469.88050675502512
 21
340.71179900762309
 31
0.0
1001
GENIUS_GENREC_14
1002
{
1000
PYDIR
1011
469.88050675502512
1021
0.0
1031
0.0
1021
340.71179900762309
1031
0.0
1002
}
1002
{
1000
PXDIR
1011
490.4912867556572
1021
0.0
1031
0.0
1021
347.30102086788253
1031
0.0
1002
}
1002
{
1000
PORI
1011
469.88050675502512
1021
0.0
1031
0.0
1021
347.30102086788253
1031
0.0
1002
}
1002
{
1000
PINS
1011
469.88050675502512
1021
0.0
1031
0.0
1021
347.30102086788253
1031
0.0
1002
}
1002
{
1000
PINS2
1011
490.4912867556572
1021
0.0
1031
0.0
1021
340.71179900762309
1031
0.0
1002
}
1002
{
1000
C
1070
     1
1002
}
1001
GENIUS_GENOBJ-N-REC_13
1002
{
1000
OWNER
1000
GEN
1002
}
1001
GENIUS_GENODEF_13
1002
{
1000
HIER
1070
     0
1002
}
1002
{
1000
MANEDIT
1070
     0
1002
}
1002
{
1000
NOSEL
1070
     0
1002
}
1002
{
1000
BEHIND
1070
     0
1002
}
1002
{
1000
OTHER
1070
     0
1002
}
1002
{
1000
REACTOR
1002
}
  0
LINE
  5
439D
  8
0
 10
469.88050675502512
 20
360.4593401618942
 30
0.0
 11
469.88050675502512
 21
353.87011830163488
 31
0.0
1001
GENIUS_GENREC_14
1002
{
1000
PYDIR
1011
434.57116736403162
1021
0.0
1031
0.0
1021
353.87011830163488
1031
0.0
1002
}
1002
{
1000
PXDIR
1011
469.88050675502512
1021
0.0
1031
0.0
1021
360.4593401618942
1031
0.0
1002
}
1002
{
1000
PORI
1011
434.57116736403162
1021
0.0
1031
0.0
1021
360.4593401618942
1031
0.0
1002
}
1002
{
1000
PINS
1011
434.57116736403162
1021
0.0
1031
0.0
1021
360.4593401618942
1031
0.0
1002
}
1002
{
1000
PINS2
1011
469.88050675502512
1021
0.0
1031
0.0
1021
353.87011830163488
1031
0.0
1002
}
1002
{
1000
C
1070
     1
1002
}
1001
GENIUS_GENOBJ-N-REC_13
1002
{
1000
OWNER
1000
GEN
1002
}
1001
GENIUS_GENODEF_13
1002
{
1000
HIER
1070
     0
1002
}
1002
{
1000
MANEDIT
1070
     0
1002
}
1002
{
1000
NOSEL
1070
     0
1002
}
1002
{
1000
BEHIND
1070
     0
1002
}
1002
{
1000
OTHER
1070
     0
1002
}
1002
{
1000
REACTOR
1002
}
  0
LINE
  5
439E
  8
0
 10
469.88050675502512
 20
353.8902427281418
 30
0.0
 11
469.88050675502512
 21
360.47946458840119
 31
0.0
1001
GENIUS_GENREC_14
1002
{
1000
PYDIR
1011
469.88050675502512
1021
0.0
1031
0.0
1021
353.8902427281418
1031
0.0
1002
}
1002
{
1000
PXDIR
1011
490.4912867556572
1021
0.0
1031
0.0
1021
360.47946458840119
1031
0.0
1002
}
1002
{
1000
PORI
1011
469.88050675502512
1021
0.0
1031
0.0
1021
360.47946458840119
1031
0.0
1002
}
1002
{
1000
PINS
1011
469.88050675502512
1021
0.0
1031
0.0
1021
360.47946458840119
1031
0.0
1002
}
1002
{
1000
PINS2
1011
490.4912867556572
1021
0.0
1031
0.0
1021
353.8902427281418
1031
0.0
1002
}
1002
{
1000
C
1070
     1
1002
}
1001
GENIUS_GENOBJ-N-REC_13
1002
{
1000
OWNER
1000
GEN
1002
}
1001
GENIUS_GENODEF_13
1002
{
1000
HIER
1070
     0
1002
}
1002
{
1000
MANEDIT
1070
     0
1002
}
1002
{
1000
NOSEL
1070
     0
1002
}
1002
{
1000
BEHIND
1070
     0
1002
}
1002
{
1000
OTHER
1070
     0
1002
}
1002
{
1000
REACTOR
1002
}
  0
LINE
  5
439F
  8
0
 10
469.88050675502512
 20
353.87011830163488
 30
0.0
 11
469.88050675502512
 21
347.28089644137549
 31
0.0
1001
GENIUS_GENREC_14
1002
{
1000
PYDIR
1011
434.57116736403162
1021
0.0
1031
0.0
1021
347.28089644137549
1031
0.0
1002
}
1002
{
1000
PXDIR
1011
469.88050675502512
1021
0.0
1031
0.0
1021
353.87011830163488
1031
0.0
1002
}
1002
{
1000
PORI
1011
434.57116736403162
1021
0.0
1031
0.0
1021
353.87011830163488
1031
0.0
1002
}
1002
{
1000
PINS
1011
434.57116736403162
1021
0.0
1031
0.0
1021
353.87011830163488
1031
0.0
1002
}
1002
{
1000
PINS2
1011
469.88050675502512
1021
0.0
1031
0.0
1021
347.28089644137549
1031
0.0
1002
}
1002
{
1000
C
1070
     1
1002
}
1001
GENIUS_GENOBJ-N-REC_13
1002
{
1000
OWNER
1000
GEN
1002
}
1001
GENIUS_GENODEF_13
1002
{
1000
HIER
1070
     0
1002
}
1002
{
1000
MANEDIT
1070
     0
1002
}
1002
{
1000
NOSEL
1070
     0
1002
}
1002
{
1000
BEHIND
1070
     0
1002
}
1002
{
1000
OTHER
1070
     0
1002
}
1002
{
1000
REACTOR
1002
}
  0
LINE
  5
43A0
  8
0
 10
469.88050675502512
 20
347.30102086788253
 30
0.0
 11
469.88050675502512
 21
353.8902427281418
 31
0.0
1001
GENIUS_GENREC_14
1002
{
1000
PYDIR
1011
469.88050675502512
1021
0.0
1031
0.0
1021
347.30102086788253
1031
0.0
1002
}
1002
{
1000
PXDIR
1011
490.4912867556572
1021
0.0
1031
0.0
1021
353.8902427281418
1031
0.0
1002
}
1002
{
1000
PORI
1011
469.88050675502512
1021
0.0
1031
0.0
1021
353.8902427281418
1031
0.0
1002
}
1002
{
1000
PINS
1011
469.88050675502512
1021
0.0
1031
0.0
1021
353.8902427281418
1031
0.0
1002
}
1002
{
1000
PINS2
1011
490.4912867556572
1021
0.0
1031
0.0
1021
347.30102086788253
1031
0.0
1002
}
1002
{
1000
C
1070
     1
1002
}
1001
GENIUS_GENOBJ-N-REC_13
1002
{
1000
OWNER
1000
GEN
1002
}
1001
GENIUS_GENODEF_13
1002
{
1000
HIER
1070
     0
1002
}
1002
{
1000
MANEDIT
1070
     0
1002
}
1002
{
1000
NOSEL
1070
     0
1002
}
1002
{
1000
BEHIND
1070
     0
1002
}
1002
{
1000
OTHER
1070
     0
1002
}
1002
{
1000
REACTOR
1002
}
  0
LINE
  5
43A1
  8
0
 10
469.88050675502512
 20
347.28089644137549
 30
0.0
 11
469.88050675502512
 21
340.6916745811161
 31
0.0
1001
GENIUS_GENREC_14
1002
{
1000
PYDIR
1011
434.57116736403162
1021
0.0
1031
0.0
1021
340.6916745811161
1031
0.0
1002
}
1002
{
1000
PXDIR
1011
469.88050675502512
1021
0.0
1031
0.0
1021
347.28089644137549
1031
0.0
1002
}
1002
{
1000
PORI
1011
434.57116736403162
1021
0.0
1031
0.0
1021
347.28089644137549
1031
0.0
1002
}
1002
{
1000
PINS
1011
434.57116736403162
1021
0.0
1031
0.0
1021
347.28089644137549
1031
0.0
1002
}
1002
{
1000
PINS2
1011
469.88050675502512
1021
0.0
1031
0.0
1021
340.6916745811161
1031
0.0
1002
}
1002
{
1000
C
1070
     1
1002
}
1001
GENIUS_GENOBJ-N-REC_13
1002
{
1000
OWNER
1000
GEN
1002
}
1001
GENIUS_GENODEF_13
1002
{
1000
HIER
1070
     0
1002
}
1002
{
1000
MANEDIT
1070
     0
1002
}
1002
{
1000
NOSEL
1070
     0
1002
}
1002
{
1000
BEHIND
1070
     0
1002
}
1002
{
1000
OTHER
1070
     0
1002
}
1002
{
1000
REACTOR
1002
}
  0
LINE
  5
43A2
  8
0
 10
469.88050675502512
 20
340.71179900762309
 30
0.0
 11
469.88050675502512
 21
347.30102086788253
 31
0.0
1001
GENIUS_GENREC_14
1002
{
1000
PYDIR
1011
469.88050675502512
1021
0.0
1031
0.0
1021
340.71179900762309
1031
0.0
1002
}
1002
{
1000
PXDIR
1011
490.4912867556572
1021
0.0
1031
0.0
1021
347.30102086788253
1031
0.0
1002
}
1002
{
1000
PORI
1011
469.88050675502512
1021
0.0
1031
0.0
1021
347.30102086788253
1031
0.0
1002
}
1002
{
1000
PINS
1011
469.88050675502512
1021
0.0
1031
0.0
1021
347.30102086788253
1031
0.0
1002
}
1002
{
1000
PINS2
1011
490.4912867556572
1021
0.0
1031
0.0
1021
340.71179900762309
1031
0.0
1002
}
1002
{
1000
C
1070
     1
1002
}
1001
GENIUS_GENOBJ-N-REC_13
1002
{
1000
OWNER
1000
GEN
1002
}
1001
GENIUS_GENODEF_13
1002
{
1000
HIER
1070
     0
1002
}
1002
{
1000
MANEDIT
1070
     0
1002
}
1002
{
1000
NOSEL
1070
     0
1002
}
1002
{
1000
BEHIND
1070
     0
1002
}
1002
{
1000
OTHER
1070
     0
1002
}
1002
{
1000
REACTOR
1002
}
  0
LINE
  5
43A3
  8
0
 10
469.88050675502512
 20
367.0485620221537
 30
0.0
 11
469.88050675502512
 21
360.4593401618942
 31
0.0
1001
GENIUS_GENREC_14
1002
{
1000
PYDIR
1011
434.57116736403162
1021
0.0
1031
0.0
1021
360.4593401618942
1031
0.0
1002
}
1002
{
1000
PXDIR
1011
469.88050675502512
1021
0.0
1031
0.0
1021
367.0485620221537
1031
0.0
1002
}
1002
{
1000
PORI
1011
434.57116736403162
1021
0.0
1031
0.0
1021
367.0485620221537
1031
0.0
1002
}
1002
{
1000
PINS
1011
434.57116736403162
1021
0.0
1031
0.0
1021
367.0485620221537
1031
0.0
1002
}
1002
{
1000
PINS2
1011
469.88050675502512
1021
0.0
1031
0.0
1021
360.4593401618942
1031
0.0
1002
}
1002
{
1000
C
1070
     1
1002
}
1001
GENIUS_GENOBJ-N-REC_13
1002
{
1000
OWNER
1000
GEN
1002
}
1001
GENIUS_GENODEF_13
1002
{
1000
HIER
1070
     0
1002
}
1002
{
1000
MANEDIT
1070
     0
1002
}
1002
{
1000
NOSEL
1070
     0
1002
}
1002
{
1000
BEHIND
1070
     0
1002
}
1002
{
1000
OTHER
1070
     0
1002
}
1002
{
1000
REACTOR
1002
}
  0
LINE
  5
43A4
  8
0
 10
469.88050675502512
 20
360.47946458840119
 30
0.0
 11
469.88050675502512
 21
367.06868644866063
 31
0.0
1001
GENIUS_GENREC_14
1002
{
1000
PYDIR
1011
469.88050675502512
1021
0.0
1031
0.0
1021
360.47946458840119
1031
0.0
1002
}
1002
{
1000
PXDIR
1011
490.4912867556572
1021
0.0
1031
0.0
1021
367.06868644866063
1031
0.0
1002
}
1002
{
1000
PORI
1011
469.88050675502512
1021
0.0
1031
0.0
1021
367.06868644866063
1031
0.0
1002
}
1002
{
1000
PINS
1011
469.88050675502512
1021
0.0
1031
0.0
1021
367.06868644866063
1031
0.0
1002
}
1002
{
1000
PINS2
1011
490.4912867556572
1021
0.0
1031
0.0
1021
360.47946458840119
1031
0.0
1002
}
1002
{
1000
C
1070
     1
1002
}
1001
GENIUS_GENOBJ-N-REC_13
1002
{
1000
OWNER
1000
GEN
1002
}
1001
GENIUS_GENODEF_13
1002
{
1000
HIER
1070
     0
1002
}
1002
{
1000
MANEDIT
1070
     0
1002
}
1002
{
1000
NOSEL
1070
     0
1002
}
1002
{
1000
BEHIND
1070
     0
1002
}
1002
{
1000
OTHER
1070
     0
1002
}
1002
{
1000
REACTOR
1002
}
  0
LINE
  5
43A5
  8
0
 10
490.4912867556572
 20
360.47946458840119
 30
0.0
 11
490.4912867556572
 21
353.8902427281418
 31
0.0
1001
GENIUS_GENREC_14
1002
{
1000
PYDIR
1011
469.88050675502512
1021
0.0
1031
0.0
1021
353.8902427281418
1031
0.0
1002
}
1002
{
1000
PXDIR
1011
490.4912867556572
1021
0.0
1031
0.0
1021
360.47946458840119
1031
0.0
1002
}
1002
{
1000
PORI
1011
469.88050675502512
1021
0.0
1031
0.0
1021
360.47946458840119
1031
0.0
1002
}
1002
{
1000
PINS
1011
469.88050675502512
1021
0.0
1031
0.0
1021
360.47946458840119
1031
0.0
1002
}
1002
{
1000
PINS2
1011
490.4912867556572
1021
0.0
1031
0.0
1021
353.8902427281418
1031
0.0
1002
}
1002
{
1000
C
1070
     1
1002
}
1001
GENIUS_GENOBJ-N-REC_13
1002
{
1000
OWNER
1000
GEN
1002
}
1001
GENIUS_GENODEF_13
1002
{
1000
HIER
1070
     0
1002
}
1002
{
1000
MANEDIT
1070
     0
1002
}
1002
{
1000
NOSEL
1070
     0
1002
}
1002
{
1000
BEHIND
1070
     0
1002
}
1002
{
1000
OTHER
1070
     0
1002
}
1002
{
1000
REACTOR
1002
}
  0
LINE
  5
43A6
  8
0
 10
490.4912867556572
 20
353.8902427281418
 30
0.0
 11
490.4912867556572
 21
347.30102086788253
 31
0.0
1001
GENIUS_GENREC_14
1002
{
1000
PYDIR
1011
469.88050675502512
1021
0.0
1031
0.0
1021
347.30102086788253
1031
0.0
1002
}
1002
{
1000
PXDIR
1011
490.4912867556572
1021
0.0
1031
0.0
1021
353.8902427281418
1031
0.0
1002
}
1002
{
1000
PORI
1011
469.88050675502512
1021
0.0
1031
0.0
1021
353.8902427281418
1031
0.0
1002
}
1002
{
1000
PINS
1011
469.88050675502512
1021
0.0
1031
0.0
1021
353.8902427281418
1031
0.0
1002
}
1002
{
1000
PINS2
1011
490.4912867556572
1021
0.0
1031
0.0
1021
347.30102086788253
1031
0.0
1002
}
1002
{
1000
C
1070
     1
1002
}
1001
GENIUS_GENOBJ-N-REC_13
1002
{
1000
OWNER
1000
GEN
1002
}
1001
GENIUS_GENODEF_13
1002
{
1000
HIER
1070
     0
1002
}
1002
{
1000
MANEDIT
1070
     0
1002
}
1002
{
1000
NOSEL
1070
     0
1002
}
1002
{
1000
BEHIND
1070
     0
1002
}
1002
{
1000
OTHER
1070
     0
1002
}
1002
{
1000
REACTOR
1002
}
  0
LINE
  5
43A7
  8
0
 10
490.4912867556572
 20
347.30102086788253
 30
0.0
 11
490.4912867556572
 21
340.71179900762309
 31
0.0
1001
GENIUS_GENREC_14
1002
{
1000
PYDIR
1011
469.88050675502512
1021
0.0
1031
0.0
1021
340.71179900762309
1031
0.0
1002
}
1002
{
1000
PXDIR
1011
490.4912867556572
1021
0.0
1031
0.0
1021
347.30102086788253
1031
0.0
1002
}
1002
{
1000
PORI
1011
469.88050675502512
1021
0.0
1031
0.0
1021
347.30102086788253
1031
0.0
1002
}
1002
{
1000
PINS
1011
469.88050675502512
1021
0.0
1031
0.0
1021
347.30102086788253
1031
0.0
1002
}
1002
{
1000
PINS2
1011
490.4912867556572
1021
0.0
1031
0.0
1021
340.71179900762309
1031
0.0
1002
}
1002
{
1000
C
1070
     1
1002
}
1001
GENIUS_GENOBJ-N-REC_13
1002
{
1000
OWNER
1000
GEN
1002
}
1001
GENIUS_GENODEF_13
1002
{
1000
HIER
1070
     0
1002
}
1002
{
1000
MANEDIT
1070
     0
1002
}
1002
{
1000
NOSEL
1070
     0
1002
}
1002
{
1000
BEHIND
1070
     0
1002
}
1002
{
1000
OTHER
1070
     0
1002
}
1002
{
1000
REACTOR
1002
}
  0
LINE
  5
43A8
  8
0
 10
490.4912867556572
 20
367.06868644866063
 30
0.0
 11
490.4912867556572
 21
360.47946458840119
 31
0.0
1001
GENIUS_GENREC_14
1002
{
1000
PYDIR
1011
469.88050675502512
1021
0.0
1031
0.0
1021
360.47946458840119
1031
0.0
1002
}
1002
{
1000
PXDIR
1011
490.4912867556572
1021
0.0
1031
0.0
1021
367.06868644866063
1031
0.0
1002
}
1002
{
1000
PORI
1011
469.88050675502512
1021
0.0
1031
0.0
1021
367.06868644866063
1031
0.0
1002
}
1002
{
1000
PINS
1011
469.88050675502512
1021
0.0
1031
0.0
1021
367.06868644866063
1031
0.0
1002
}
1002
{
1000
PINS2
1011
490.4912867556572
1021
0.0
1031
0.0
1021
360.47946458840119
1031
0.0
1002
}
1002
{
1000
C
1070
     1
1002
}
1001
GENIUS_GENOBJ-N-REC_13
1002
{
1000
OWNER
1000
GEN
1002
}
1001
GENIUS_GENODEF_13
1002
{
1000
HIER
1070
     0
1002
}
1002
{
1000
MANEDIT
1070
     0
1002
}
1002
{
1000
NOSEL
1070
     0
1002
}
1002
{
1000
BEHIND
1070
     0
1002
}
1002
{
1000
OTHER
1070
     0
1002
}
1002
{
1000
REACTOR
1002
}
  0
LINE
  5
43A9
  8
0
 10
305.78484603772881
 20
403.49956466194323
 30
0.0
 11
500.78484603772881
 21
403.49956466194323
 31
0.0
  0
LINE
  5
43AA
  8
0
 10
495.78484603772881
 20
398.49956466194323
 30
0.0
 11
325.7848460377287
 21
398.49956466194323
 31
0.0
  0
LINE
  5
43B1
  8
0
 10
304.78484603772881
 20
405.49956466194323
 30
0.0
 11
304.77484603772882
 21
405.49956466194323
 31
0.0
  0
VIEWPORT
  5
1D9
 67
     1
  8
0
 10
-28.148376663143299
 20
47.50990442655899
 30
0.0
 40
446.21578689314822
 41
299.83025813719451
 68
     1
 69
     1
1001
ACAD
1000
MVIEW
1002
{
1070
    16
1010
0.0
1020
0.0
1030
0.0
1010
0.0
1020
0.0
1030
1.0
1040
0.0
1040
299.83025813719451
1040
-28.148376663143299
1040
47.50990442655899
1040
50.0
1040
0.0
1040
0.0
1070
    16
1070
   100
1070
     1
1070
     1
1070
     0
1070
     0
1070
     0
1070
     0
1040
0.0
1040
0.0
1040
0.0
1040
2.5
1040
2.5
1040
10.0
1040
10.0
1070
     0
1002
{
1002
}
1002
}
  0
INSERT
  5
E26
 67
     1
  8
0
  2
GEN_A4
 10
-145.51728296973101
 20
-100.9923473003192
 30
0.0
1001
GENIUS_GENOREF_13
1005
EC2
1001
GENIUS_GENOBJ-N-SDF_13
1002
{
1000
OWNER
1000
GEN
1002
}
1001
GENIUS_GENODEF_13
1002
{
1000
HIER
1070
     0
1002
}
1002
{
1000
MANEDIT
1070
     0
1002
}
1002
{
1000
NOSEL
1070
     0
1002
}
1002
{
1000
BEHIND
1070
     0
1002
}
1002
{
1000
OTHER
1070
     0
1002
}
1002
{
1000
REACTOR
1002
}
1001
GENIUS_GENSCREG_15
1040
1.0
1040
1.0
1011
-145.51728296973101
1021
0.0
1031
0.0
1021
-100.9923473003192
1031
0.0
1011
64.482717030268986
1021
0.0
1031
0.0
1021
196.0076526996807
1031
0.0
1070
     3
  0
POINT
  5
EC2
 67
     1
  8
0
 10
0.0
 20
0.0
 30
0.0
1001
GENIUS_GENODEF_13
1002
{
1000
HIER
1070
     1
1002
}
1002
{
1000
MANEDIT
1070
     0
1002
}
1002
{
1000
NOSEL
1070
     0
1002
}
1002
{
1000
BEHIND
1070
     0
1002
}
1002
{
1000
OTHER
1070
     0
1002
}
1002
{
1000
REACTOR
1002
}
1001
GENIUS_GENOENT_13
1002
{
1000
MYREF
1005
EC2
1002
}
1002
{
1000
GRP
1005
0
1002
}
1001
GENIUS_GENOBJ-N-TIT_13
1002
{
1000
OWNER
1000
GEN
1002
}
1001
GENIUS_GENOLIS_13
1002
{
1000
ENT
1005
EAC
1005
E26
1002
}
1001
GENIUS_GENTITLE_13
1002
{
1000
BORDER
1000
C:\Programme\MDT6\acadm\Gen\Dwg\Format\GEN_A4
1002
}
1002
{
1000
TITLE
1000
C:\Programme\MDT6\acadm\Gen\Dwg\Title\WKK_Stückzeichnungen
1002
}
1002
{
1000
SCALE
1000
1:1
1002
}
1002
{
1000
TITLESTD
1000
ISO
1002
}
1002
{
1000
HRA
1005
E26
1002
}
1002
{
1000
HTIT
1005
EAC
1002
}
1002
{
1000
UNCHG
1002
{
1000
GEN-TITLE-SIZ
1000
GEN-TITLE-SCA
1002
}
1002
}
1002
{
1000
GENIUSID
1005
EC2
1002
}
  0
VIEWPORT
  5
EC6
 67
     1
  8
VIEW
 10
-35.517282969731014
 20
75.657652699680796
 30
0.0
 40
190.0
 41
220.6999999999999
 68
     2
 69
     2
1001
ACAD
1000
MVIEW
1002
{
1070
    16
1010
417.74591973687319
1020
292.76677875888822
1030
0.0
1010
0.0
1020
0.0
1030
1.0
1040
0.0
1040
220.69999998061351
1040
5.1988892404401659
1040
9.9660691060277458
1040
50.0
1040
0.0
1040
0.0
1070
     0
1070
   100
1070
     1
1070
     3
1070
     0
1070
     0
1070
     0
1070
     0
1040
0.0
1040
0.0
1040
0.0
1040
10.0
1040
10.0
1040
10.0
1040
10.0
1070
     0
1002
{
1002
}
1002
}
1001
GENIUS_GENOBJ-N-SDF_13
1002
{
1000
OWNER
1000
GEN
1002
}
1001
GENIUS_GENODEF_13
1002
{
1000
HIER
1070
     0
1002
}
1002
{
1000
MANEDIT
1070
     0
1002
}
1002
{
1000
NOSEL
1070
     0
1002
}
1002
{
1000
BEHIND
1070
     0
1002
}
1002
{
1000
OTHER
1070
     0
1002
}
1002
{
1000
REACTOR
1002
}
1001
GENIUS_GENSCREG_15
1000
PF
1040
1.0
1000
DF
1040
1.0
1000
MIN
1011
-130.51728296973101
1021
0.0
1031
0.0
1021
-34.69234730031917
1031
0.0
1000
MAX
1011
59.482717030268986
1021
0.0
1031
0.0
1021
186.0076526996807
1031
0.0
1000
FLAGS
1070
     4
1000
CENTER
1010
417.74591973687319
1020
292.76677875888822
1030
0.0
  0
INSERT
  5
EF7
 67
     1
  8
0
  2
DIN_6930_M_TEIL_2
 10
-66.088251131717627
 20
178.15991972507081
 30
0.0
  0
INSERT
  5
1019
 67
     1
  8
0
  2
ZEICHNUNGSFREIGABE
 10
-20.746563332061211
 20
181.70649337413931
 30
0.0
  0
ENDSEC
  0
EOF
