  0
SECTION
  2
HEADER
  9
$ACADVER
  1
AC1014
  9
$ACADMAINTVER
 70
     9
  9
$DWGCODEPAGE
  3
ANSI_1252
  9
$INSBASE
 10
0.0
 20
0.0
 30
0.0
  9
$EXTMIN
 10
493.6222855698995
 20
-585.8983987842
 30
0.0
  9
$EXTMAX
 10
594.66886339285
 20
308.1016012158
 30
0.0
  9
$LIMMIN
 10
0.0
 20
0.0
  9
$LIMMAX
 10
420.0
 20
594.0
  9
$ORTHOMODE
 70
     0
  9
$REGENMODE
 70
     1
  9
$FILLMODE
 70
     1
  9
$QTEXTMODE
 70
     0
  9
$MIRRTEXT
 70
     1
  9
$DRAGMODE
 70
     2
  9
$LTSCALE
 40
1.0
  9
$OSMODE
 70
    37
  9
$ATTMODE
 70
     1
  9
$TEXTSIZE
 40
2.5
  9
$TRACEWID
 40
1.0
  9
$TEXTSTYLE
  7
STANDARD
  9
$CLAYER
  8
0
  9
$CELTYPE
  6
BYLAYER
  9
$CECOLOR
 62
   256
  9
$CELTSCALE
 40
1.0
  9
$DELOBJ
 70
     1
  9
$DISPSILH
 70
     0
  9
$DIMSCALE
 40
1.0
  9
$DIMASZ
 40
2.5
  9
$DIMEXO
 40
0.0
  9
$DIMDLI
 40
3.75
  9
$DIMRND
 40
0.0
  9
$DIMDLE
 40
0.0
  9
$DIMEXE
 40
1.0
  9
$DIMTP
 40
0.0
  9
$DIMTM
 40
0.0
  9
$DIMTXT
 40
2.5
  9
$DIMCEN
 40
2.5
  9
$DIMTSZ
 40
0.0
  9
$DIMTOL
 70
     0
  9
$DIMLIM
 70
     0
  9
$DIMTIH
 70
     1
  9
$DIMTOH
 70
     1
  9
$DIMSE1
 70
     0
  9
$DIMSE2
 70
     0
  9
$DIMTAD
 70
     1
  9
$DIMZIN
 70
     0
  9
$DIMBLK
  1

  9
$DIMASO
 70
     1
  9
$DIMSHO
 70
     1
  9
$DIMPOST
  1

  9
$DIMAPOST
  1

  9
$DIMALT
 70
     0
  9
$DIMALTD
 70
     3
  9
$DIMALTF
 40
0.0393700787
  9
$DIMLFAC
 40
2.0
  9
$DIMTOFL
 70
     1
  9
$DIMTVP
 40
0.0
  9
$DIMTIX
 70
     0
  9
$DIMSOXD
 70
     0
  9
$DIMSAH
 70
     0
  9
$DIMBLK1
  1

  9
$DIMBLK2
  1

  9
$DIMSTYLE
  2
ISO-25
  9
$DIMCLRD
 70
     0
  9
$DIMCLRE
 70
     0
  9
$DIMCLRT
 70
     0
  9
$DIMTFAC
 40
1.0
  9
$DIMGAP
 40
2.0
  9
$DIMJUST
 70
     0
  9
$DIMSD1
 70
     0
  9
$DIMSD2
 70
     0
  9
$DIMTOLJ
 70
     1
  9
$DIMTZIN
 70
     0
  9
$DIMALTZ
 70
     0
  9
$DIMALTTZ
 70
     0
  9
$DIMFIT
 70
     5
  9
$DIMUPT
 70
     0
  9
$DIMUNIT
 70
     2
  9
$DIMDEC
 70
     2
  9
$DIMTDEC
 70
     2
  9
$DIMALTU
 70
     2
  9
$DIMALTTD
 70
     2
  9
$DIMTXSTY
  7
STANDARD
  9
$DIMAUNIT
 70
     0
  9
$LUNITS
 70
     2
  9
$LUPREC
 70
     2
  9
$SKETCHINC
 40
1.0
  9
$FILLETRAD
 40
0.0
  9
$AUNITS
 70
     0
  9
$AUPREC
 70
     1
  9
$MENU
  1
.
  9
$ELEVATION
 40
0.0
  9
$PELEVATION
 40
0.0
  9
$THICKNESS
 40
0.0
  9
$LIMCHECK
 70
     0
  9
$CHAMFERA
 40
0.0
  9
$CHAMFERB
 40
0.0
  9
$CHAMFERC
 40
0.0
  9
$CHAMFERD
 40
0.0
  9
$SKPOLY
 70
     0
  9
$TDCREATE
 40
2460249.748306088
  9
$TDUPDATE
 40
2460255.683650394
  9
$TDINDWG
 40
0.0007820833
  9
$TDUSRTIMER
 40
0.0009302546
  9
$USRTIMER
 70
     1
  9
$ANGBASE
 50
0.0
  9
$ANGDIR
 70
     0
  9
$PDMODE
 70
     0
  9
$PDSIZE
 40
-1.0
  9
$PLINEWID
 40
0.0
  9
$COORDS
 70
     1
  9
$SPLFRAME
 70
     0
  9
$SPLINETYPE
 70
     6
  9
$SPLINESEGS
 70
     8
  9
$ATTDIA
 70
     0
  9
$ATTREQ
 70
     1
  9
$HANDLING
 70
     1
  9
$HANDSEED
  5
105B
  9
$SURFTAB1
 70
     6
  9
$SURFTAB2
 70
     6
  9
$SURFTYPE
 70
     6
  9
$SURFU
 70
     6
  9
$SURFV
 70
     6
  9
$UCSNAME
  2

  9
$UCSORG
 10
0.0
 20
0.0
 30
0.0
  9
$UCSXDIR
 10
1.0
 20
0.0
 30
0.0
  9
$UCSYDIR
 10
0.0
 20
1.0
 30
0.0
  9
$PUCSNAME
  2

  9
$PUCSORG
 10
0.0
 20
0.0
 30
0.0
  9
$PUCSXDIR
 10
1.0
 20
0.0
 30
0.0
  9
$PUCSYDIR
 10
0.0
 20
1.0
 30
0.0
  9
$USERI1
 70
     0
  9
$USERI2
 70
     0
  9
$USERI3
 70
     0
  9
$USERI4
 70
     0
  9
$USERI5
 70
     0
  9
$USERR1
 40
0.0
  9
$USERR2
 40
0.0
  9
$USERR3
 40
0.0
  9
$USERR4
 40
0.0
  9
$USERR5
 40
0.0
  9
$WORLDVIEW
 70
     1
  9
$SHADEDGE
 70
     3
  9
$SHADEDIF
 70
    70
  9
$TILEMODE
 70
     1
  9
$MAXACTVP
 70
    64
  9
$PINSBASE
 10
0.0
 20
0.0
 30
0.0
  9
$PLIMCHECK
 70
     0
  9
$PEXTMIN
 10
1.000000000000000E+20
 20
1.000000000000000E+20
 30
1.000000000000000E+20
  9
$PEXTMAX
 10
-1.000000000000000E+20
 20
-1.000000000000000E+20
 30
-1.000000000000000E+20
  9
$PLIMMIN
 10
0.0
 20
0.0
  9
$PLIMMAX
 10
0.0
 20
0.0
  9
$UNITMODE
 70
     0
  9
$VISRETAIN
 70
     1
  9
$PLINEGEN
 70
     0
  9
$PSLTSCALE
 70
     1
  9
$TREEDEPTH
 70
  3020
  9
$PICKSTYLE
 70
     1
  9
$CMLSTYLE
  2
STANDARD
  9
$CMLJUST
 70
     0
  9
$CMLSCALE
 40
1.0
  9
$PROXYGRAPHICS
 70
     1
  9
$MEASUREMENT
 70
     0
  0
ENDSEC
  0
SECTION
  2
CLASSES
  0
CLASS
  1
ACDBDICTIONARYWDFLT
  2
AcDbDictionaryWithDefault
  3
ObjectDBX Classes
 90
        0
280
     0
281
     0
  0
CLASS
  1
MATERIAL
  2
AcDbMaterial
  3
ObjectDBX Classes
 90
     1153
280
     0
281
     0
  0
CLASS
  1
SCALE
  2
AcDbScale
  3
ObjectDBX Classes
 90
     1153
280
     0
281
     0
  0
CLASS
  1
VISUALSTYLE
  2
AcDbVisualStyle
  3
ObjectDBX Classes
 90
     4095
280
     0
281
     0
  0
CLASS
  1
TABLESTYLE
  2
AcDbTableStyle
  3
ObjectDBX Classes
 90
     4095
280
     0
281
     0
  0
CLASS
  1
MLEADERSTYLE
  2
AcDbMLeaderStyle
  3
ACDB_MLEADERSTYLE_CLASS
 90
     4095
280
     0
281
     0
  0
CLASS
  1
DICTIONARYVAR
  2
AcDbDictionaryVar
  3
ObjectDBX Classes
 90
        0
280
     0
281
     0
  0
CLASS
  1
CELLSTYLEMAP
  2
AcDbCellStyleMap
  3
ObjectDBX Classes
 90
     1152
280
     0
281
     0
  0
CLASS
  1
SUN
  2
AcDbSun
  3
SCENEOE
 90
     1153
280
     0
281
     0
  0
CLASS
  1
DIMASSOC
  2
AcDbDimAssoc
  3
"AcDbDimAssoc|Product Desc:     AcDim ARX App For Dimension|Company:          Autodesk, Inc.|WEB Address:      www.autodesk.com"
 90
        0
280
     0
281
     0
  0
CLASS
  1
XRECORD
  2
AcDbXrecord
  3
ObjectDBX Classes
 90
        0
280
     0
281
     0
  0
CLASS
  1
LWPOLYLINE
  2
AcDbPolyline
  3
ObjectDBX Classes
 90
        0
280
     0
281
     1
  0
CLASS
  1
HATCH
  2
AcDbHatch
  3
ObjectDBX Classes
 90
        0
280
     0
281
     1
  0
ENDSEC
  0
SECTION
  2
TABLES
  0
TABLE
  2
VPORT
  5
F25
330
0
100
AcDbSymbolTable
 70
     1
  0
VPORT
  5
F3C
330
F25
100
AcDbSymbolTableRecord
100
AcDbViewportTableRecord
  2
*ACTIVE
 70
     0
 10
0.0
 20
0.0
 11
1.0
 21
1.0
 12
544.145574481375
 22
-138.8983987842
 13
0.0
 23
0.0
 14
10.0
 24
10.0
 15
10.0
 25
10.0
 16
0.0
 26
0.0
 36
1.0
 17
0.0
 27
0.0
 37
0.0
 40
911.88
 41
1.718213058419244
 42
50.0
 43
0.0
 44
0.0
 50
0.0
 51
0.0
 71
    16
 72
  2000
 73
     1
 74
     3
 75
     0
 76
     0
 77
     0
 78
     0
  0
ENDTAB
  0
TABLE
  2
LTYPE
  5
F22
330
0
100
AcDbSymbolTable
 70
     6
  0
LTYPE
  5
F30
330
F22
100
AcDbSymbolTableRecord
100
AcDbLinetypeTableRecord
  2
BYBLOCK
 70
     0
  3

 72
    65
 73
     0
 40
0.0
  0
LTYPE
  5
F31
330
F22
100
AcDbSymbolTableRecord
100
AcDbLinetypeTableRecord
  2
BYLAYER
 70
     0
  3

 72
    65
 73
     0
 40
0.0
  0
LTYPE
  5
F32
330
F22
100
AcDbSymbolTableRecord
100
AcDbLinetypeTableRecord
  2
CONTINUOUS
 70
     0
  3
Solid line
 72
    65
 73
     0
 40
0.0
  0
LTYPE
  5
F3E
330
F22
100
AcDbSymbolTableRecord
100
AcDbLinetypeTableRecord
  2
HIDDEN
 70
     0
  3
Hidden __ __ __ __ __ __ __ __ __ __ __ __ __ __
 72
    65
 73
     2
 40
1.905
 49
1.27
 74
     0
 49
-0.635
 74
     0
  0
LTYPE
  5
F3F
330
F22
100
AcDbSymbolTableRecord
100
AcDbLinetypeTableRecord
  2
PHANTOM
 70
     0
  3
Phantom ______  __  __  ______  __  __  ______
 72
    65
 73
     6
 40
12.7
 49
6.35
 74
     0
 49
-1.27
 74
     0
 49
1.27
 74
     0
 49
-1.27
 74
     0
 49
1.27
 74
     0
 49
-1.27
 74
     0
  0
LTYPE
  5
F40
330
F22
100
AcDbSymbolTableRecord
100
AcDbLinetypeTableRecord
  2
CENTER
 70
     0
  3
Center ____ _ ____ _ ____ _ ____ _ ____ _ ____
 72
    65
 73
     4
 40
10.16
 49
6.35
 74
     0
 49
-1.27
 74
     0
 49
1.27
 74
     0
 49
-1.27
 74
     0
  0
LTYPE
  5
F41
330
F22
100
AcDbSymbolTableRecord
100
AcDbLinetypeTableRecord
  2
CENTERX2
 70
     0
  3
Center (2x) ________  __  ________  __  _____
 72
    65
 73
     4
 40
20.32
 49
12.7
 74
     0
 49
-2.54
 74
     0
 49
2.54
 74
     0
 49
-2.54
 74
     0
  0
LTYPE
  5
F42
330
F22
100
AcDbSymbolTableRecord
100
AcDbLinetypeTableRecord
  2
DOT2
 70
     0
  3
Dot (.5x) ........................................
 72
    65
 73
     2
 40
0.635
 49
0.0
 74
     0
 49
-0.635
 74
     0
  0
ENDTAB
  0
TABLE
  2
LAYER
  5
F20
330
0
100
AcDbSymbolTable
 70
     3
  0
LAYER
  5
F2D
330
F20
100
AcDbSymbolTableRecord
100
AcDbLayerTableRecord
  2
0
 70
     0
 62
     7
  6
CONTINUOUS
  0
LAYER
  5
F48
330
F20
100
AcDbSymbolTableRecord
100
AcDbLayerTableRecord
  2
REVISIONNOTES
 70
     0
 62
     1
  6
CONTINUOUS
  0
LAYER
  5
103E
330
F20
100
AcDbSymbolTableRecord
100
AcDbLayerTableRecord
  2
DEFPOINTS
 70
     0
 62
     7
  6
CONTINUOUS
  0
ENDTAB
  0
TABLE
  2
STYLE
  5
F21
330
0
100
AcDbSymbolTable
 70
     1
  0
STYLE
  5
F2E
330
F21
100
AcDbSymbolTableRecord
100
AcDbTextStyleTableRecord
  2
STANDARD
 70
     0
 40
0.0
 41
1.0
 50
0.0
 71
     0
 42
2.5
  3
txt
  4

  0
ENDTAB
  0
TABLE
  2
VIEW
  5
F23
330
0
100
AcDbSymbolTable
 70
     0
  0
ENDTAB
  0
TABLE
  2
UCS
  5
F24
330
0
100
AcDbSymbolTable
 70
     0
  0
ENDTAB
  0
TABLE
  2
APPID
  5
F26
330
0
100
AcDbSymbolTable
 70
     2
  0
APPID
  5
F2F
330
F26
100
AcDbSymbolTableRecord
100
AcDbRegAppTableRecord
  2
ACAD
 70
     0
  0
APPID
  5
103D
330
F26
100
AcDbSymbolTableRecord
100
AcDbRegAppTableRecord
  2
ACAD_DSTYLE_DIMRADIAL_EXTE
 70
     0
  0
ENDTAB
  0
TABLE
  2
DIMSTYLE
  5
F27
330
0
100
AcDbSymbolTable
 70
     5
  0
DIMSTYLE
105
F4B
330
F27
100
AcDbSymbolTableRecord
100
AcDbDimStyleTableRecord
  2
ISO-25
 70
     0
  3

  4

  5

  6

  7

 40
1.0
 41
2.5
 42
0.625
 43
3.75
 44
1.25
 45
0.0
 46
0.0
 47
0.0
 48
0.0
140
2.5
141
2.5
142
0.0
143
0.0393700787
144
1.0
145
0.0
146
1.0
147
0.625
 71
     0
 72
     0
 73
     0
 74
     0
 75
     0
 76
     0
 77
     1
 78
     8
170
     0
171
     3
172
     1
173
     0
174
     0
175
     0
176
     0
177
     0
178
     0
270
     2
271
     4
272
     4
273
     2
274
     2
340
F2E
275
     0
280
     0
281
     0
282
     0
283
     1
284
     0
285
     0
286
     0
287
     3
288
     0
  0
DIMSTYLE
105
F4C
330
F27
100
AcDbSymbolTableRecord
100
AcDbDimStyleTableRecord
  2
SLDDIMSTYLE0
 70
     0
  3

  4

  5

  6

  7

 40
1.0
 41
2.5
 42
0.0625
 43
0.38
 44
0.0
 45
0.000000001
 46
0.0
 47
0.0
 48
0.0
140
2.5
141
0.09
142
0.0
143
25.4
144
2.0
145
0.0
146
1.0
147
0.625
 71
     0
 72
     0
 73
     0
 74
     0
 75
     0
 76
     0
 77
     1
 78
    12
170
     0
171
     2
172
     1
173
     1
174
     0
175
     0
176
     0
177
     0
178
     0
270
     2
271
     4
272
     4
273
     2
274
     2
340
F2E
275
     0
280
     0
281
     0
282
     0
283
     1
284
     0
285
     0
286
     0
287
     3
288
     0
  0
DIMSTYLE
105
F4D
330
F27
100
AcDbSymbolTableRecord
100
AcDbDimStyleTableRecord
  2
SLDDIMSTYLE1
 70
     0
  3

  4

  5

  6

  7

 40
1.0
 41
2.5
 42
0.0625
 43
0.38
 44
0.0
 45
0.000000001
 46
0.0
 47
0.0
 48
0.0
140
2.5
141
0.09
142
0.0
143
25.4
144
2.0
145
0.0
146
1.0
147
0.625
 71
     0
 72
     0
 73
     0
 74
     0
 75
     0
 76
     0
 77
     1
 78
    12
170
     0
171
     2
172
     0
173
     1
174
     0
175
     0
176
     0
177
     0
178
     0
270
     2
271
     4
272
     4
273
     2
274
     2
340
F2E
275
     0
280
     0
281
     0
282
     0
283
     1
284
     0
285
     0
286
     0
287
     3
288
     0
  0
DIMSTYLE
105
F4E
330
F27
100
AcDbSymbolTableRecord
100
AcDbDimStyleTableRecord
  2
SLDDIMSTYLE2
 70
     0
  3

  4

  5

  6

  7

 40
1.0
 41
2.5
 42
0.0625
 43
0.38
 44
0.0
 45
0.000000001
 46
0.0
 47
0.0
 48
0.0
140
2.5
141
0.09
142
0.0
143
25.4
144
2.0
145
0.0
146
1.0
147
0.625
 71
     0
 72
     0
 73
     0
 74
     0
 75
     0
 76
     0
 77
     1
 78
    12
170
     0
171
     2
172
     0
173
     1
174
     0
175
     0
176
     0
177
     0
178
     0
270
     2
271
     4
272
     4
273
     2
274
     2
340
F2E
275
     0
280
     0
281
     0
282
     0
283
     1
284
     0
285
     0
286
     0
287
     3
288
     0
  0
DIMSTYLE
105
F4F
330
F27
100
AcDbSymbolTableRecord
100
AcDbDimStyleTableRecord
  2
SLDDIMSTYLE3
 70
     0
  3

  4

  5

  6

  7

 40
1.0
 41
2.5
 42
0.0625
 43
0.38
 44
0.0
 45
0.000000001
 46
0.0
 47
0.0
 48
0.0
140
2.5
141
0.0
142
0.0
143
25.4
144
2.0
145
0.0
146
1.0
147
0.625
 71
     0
 72
     0
 73
     0
 74
     0
 75
     0
 76
     0
 77
     1
 78
    12
170
     0
171
     2
172
     1
173
     1
174
     0
175
     0
176
     0
177
     0
178
     0
270
     2
271
     4
272
     4
273
     2
274
     2
340
F2E
275
     0
280
     0
281
     0
282
     0
283
     1
284
     0
285
     0
286
     0
287
     3
288
     0
  0
ENDTAB
  0
TABLE
  2
BLOCK_RECORD
  5
F1F
330
0
100
AcDbSymbolTable
 70
    81
  0
BLOCK_RECORD
  5
F39
102
{ACAD_XDICTIONARY
360
1030
102
}
330
F1F
100
AcDbSymbolTableRecord
100
AcDbBlockTableRecord
  2
*MODEL_SPACE
  0
BLOCK_RECORD
  5
F37
330
F1F
100
AcDbSymbolTableRecord
100
AcDbBlockTableRecord
  2
*PAPER_SPACE
  0
BLOCK_RECORD
  5
F53
330
F1F
100
AcDbSymbolTableRecord
100
AcDbBlockTableRecord
  2
SW_BROKEN_VIEW_0
  0
BLOCK_RECORD
  5
F55
330
F1F
100
AcDbSymbolTableRecord
100
AcDbBlockTableRecord
  2
_D
  0
BLOCK_RECORD
  5
F57
330
F1F
100
AcDbSymbolTableRecord
100
AcDbBlockTableRecord
  2
_D_1
  0
BLOCK_RECORD
  5
F59
330
F1F
100
AcDbSymbolTableRecord
100
AcDbBlockTableRecord
  2
_D_2
  0
BLOCK_RECORD
  5
F5B
330
F1F
100
AcDbSymbolTableRecord
100
AcDbBlockTableRecord
  2
_D_3
  0
BLOCK_RECORD
  5
F5D
330
F1F
100
AcDbSymbolTableRecord
100
AcDbBlockTableRecord
  2
_D_4
  0
BLOCK_RECORD
  5
F5F
330
F1F
100
AcDbSymbolTableRecord
100
AcDbBlockTableRecord
  2
_D_5
  0
BLOCK_RECORD
  5
F61
330
F1F
100
AcDbSymbolTableRecord
100
AcDbBlockTableRecord
  2
_D_6
  0
BLOCK_RECORD
  5
F63
330
F1F
100
AcDbSymbolTableRecord
100
AcDbBlockTableRecord
  2
_D_7
  0
BLOCK_RECORD
  5
F65
330
F1F
100
AcDbSymbolTableRecord
100
AcDbBlockTableRecord
  2
_D_8
  0
BLOCK_RECORD
  5
F67
330
F1F
100
AcDbSymbolTableRecord
100
AcDbBlockTableRecord
  2
_D_9
  0
BLOCK_RECORD
  5
F69
330
F1F
100
AcDbSymbolTableRecord
100
AcDbBlockTableRecord
  2
_D_10
  0
BLOCK_RECORD
  5
F6B
330
F1F
100
AcDbSymbolTableRecord
100
AcDbBlockTableRecord
  2
_D_11
  0
BLOCK_RECORD
  5
F6D
330
F1F
100
AcDbSymbolTableRecord
100
AcDbBlockTableRecord
  2
SW_CENTERMARKSYMBOL_0
  0
BLOCK_RECORD
  5
F6F
330
F1F
100
AcDbSymbolTableRecord
100
AcDbBlockTableRecord
  2
SW_CENTERMARKSYMBOL_1
  0
BLOCK_RECORD
  5
F71
330
F1F
100
AcDbSymbolTableRecord
100
AcDbBlockTableRecord
  2
SW_CENTERMARKSYMBOL_2
  0
BLOCK_RECORD
  5
F73
330
F1F
100
AcDbSymbolTableRecord
100
AcDbBlockTableRecord
  2
SW_CENTERMARKSYMBOL_3
  0
BLOCK_RECORD
  5
F75
330
F1F
100
AcDbSymbolTableRecord
100
AcDbBlockTableRecord
  2
SW_CENTERMARKSYMBOL_4
  0
BLOCK_RECORD
  5
F77
330
F1F
100
AcDbSymbolTableRecord
100
AcDbBlockTableRecord
  2
SW_CENTERMARKSYMBOL_5
  0
BLOCK_RECORD
  5
F79
330
F1F
100
AcDbSymbolTableRecord
100
AcDbBlockTableRecord
  2
SW_CENTERMARKSYMBOL_6
  0
BLOCK_RECORD
  5
F7B
330
F1F
100
AcDbSymbolTableRecord
100
AcDbBlockTableRecord
  2
SW_CENTERMARKSYMBOL_7
  0
BLOCK_RECORD
  5
F7D
330
F1F
100
AcDbSymbolTableRecord
100
AcDbBlockTableRecord
  2
SW_CENTERMARKSYMBOL_8
  0
BLOCK_RECORD
  5
F7F
330
F1F
100
AcDbSymbolTableRecord
100
AcDbBlockTableRecord
  2
SW_CENTERMARKSYMBOL_9
  0
BLOCK_RECORD
  5
F81
330
F1F
100
AcDbSymbolTableRecord
100
AcDbBlockTableRecord
  2
SW_CENTERMARKSYMBOL_10
  0
BLOCK_RECORD
  5
F83
330
F1F
100
AcDbSymbolTableRecord
100
AcDbBlockTableRecord
  2
SW_CENTERMARKSYMBOL_11
  0
BLOCK_RECORD
  5
F85
330
F1F
100
AcDbSymbolTableRecord
100
AcDbBlockTableRecord
  2
SW_CENTERMARKSYMBOL_12
  0
BLOCK_RECORD
  5
F87
330
F1F
100
AcDbSymbolTableRecord
100
AcDbBlockTableRecord
  2
SW_BROKEN_VIEW_1
  0
BLOCK_RECORD
  5
F89
330
F1F
100
AcDbSymbolTableRecord
100
AcDbBlockTableRecord
  2
_D_12
  0
BLOCK_RECORD
  5
F8B
330
F1F
100
AcDbSymbolTableRecord
100
AcDbBlockTableRecord
  2
_D_13
  0
BLOCK_RECORD
  5
F8D
330
F1F
100
AcDbSymbolTableRecord
100
AcDbBlockTableRecord
  2
_D_14
  0
BLOCK_RECORD
  5
F8F
330
F1F
100
AcDbSymbolTableRecord
100
AcDbBlockTableRecord
  2
SW_SYMBOL_MOD_BOX
  0
BLOCK_RECORD
  5
F91
330
F1F
100
AcDbSymbolTableRecord
100
AcDbBlockTableRecord
  2
_D_15
  0
BLOCK_RECORD
  5
F93
330
F1F
100
AcDbSymbolTableRecord
100
AcDbBlockTableRecord
  2
_D_16
  0
BLOCK_RECORD
  5
F95
330
F1F
100
AcDbSymbolTableRecord
100
AcDbBlockTableRecord
  2
_D_17
  0
BLOCK_RECORD
  5
F97
330
F1F
100
AcDbSymbolTableRecord
100
AcDbBlockTableRecord
  2
_D_18
  0
BLOCK_RECORD
  5
F99
330
F1F
100
AcDbSymbolTableRecord
100
AcDbBlockTableRecord
  2
_D_19
  0
BLOCK_RECORD
  5
F9B
330
F1F
100
AcDbSymbolTableRecord
100
AcDbBlockTableRecord
  2
_D_20
  0
BLOCK_RECORD
  5
F9D
330
F1F
100
AcDbSymbolTableRecord
100
AcDbBlockTableRecord
  2
_D_21
  0
BLOCK_RECORD
  5
F9F
330
F1F
100
AcDbSymbolTableRecord
100
AcDbBlockTableRecord
  2
_D_22
  0
BLOCK_RECORD
  5
FA1
330
F1F
100
AcDbSymbolTableRecord
100
AcDbBlockTableRecord
  2
_D_23
  0
BLOCK_RECORD
  5
FA3
330
F1F
100
AcDbSymbolTableRecord
100
AcDbBlockTableRecord
  2
_D_24
  0
BLOCK_RECORD
  5
FA5
330
F1F
100
AcDbSymbolTableRecord
100
AcDbBlockTableRecord
  2
_D_25
  0
BLOCK_RECORD
  5
FA7
330
F1F
100
AcDbSymbolTableRecord
100
AcDbBlockTableRecord
  2
_D_26
  0
BLOCK_RECORD
  5
FA9
330
F1F
100
AcDbSymbolTableRecord
100
AcDbBlockTableRecord
  2
_D_27
  0
BLOCK_RECORD
  5
FAB
330
F1F
100
AcDbSymbolTableRecord
100
AcDbBlockTableRecord
  2
_D_28
  0
BLOCK_RECORD
  5
FAD
330
F1F
100
AcDbSymbolTableRecord
100
AcDbBlockTableRecord
  2
_D_29
  0
BLOCK_RECORD
  5
FAF
330
F1F
100
AcDbSymbolTableRecord
100
AcDbBlockTableRecord
  2
_D_30
  0
BLOCK_RECORD
  5
FB1
330
F1F
100
AcDbSymbolTableRecord
100
AcDbBlockTableRecord
  2
_D_31
  0
BLOCK_RECORD
  5
FB3
330
F1F
100
AcDbSymbolTableRecord
100
AcDbBlockTableRecord
  2
_D_32
  0
BLOCK_RECORD
  5
FB5
330
F1F
100
AcDbSymbolTableRecord
100
AcDbBlockTableRecord
  2
_D_33
  0
BLOCK_RECORD
  5
FB7
330
F1F
100
AcDbSymbolTableRecord
100
AcDbBlockTableRecord
  2
_D_34
  0
BLOCK_RECORD
  5
FB9
330
F1F
100
AcDbSymbolTableRecord
100
AcDbBlockTableRecord
  2
_D_35
  0
BLOCK_RECORD
  5
FBB
330
F1F
100
AcDbSymbolTableRecord
100
AcDbBlockTableRecord
  2
_D_36
  0
BLOCK_RECORD
  5
FBD
330
F1F
100
AcDbSymbolTableRecord
100
AcDbBlockTableRecord
  2
_D_37
  0
BLOCK_RECORD
  5
FBF
330
F1F
100
AcDbSymbolTableRecord
100
AcDbBlockTableRecord
  2
_D_38
  0
BLOCK_RECORD
  5
FC1
330
F1F
100
AcDbSymbolTableRecord
100
AcDbBlockTableRecord
  2
_D_39
  0
BLOCK_RECORD
  5
FC3
330
F1F
100
AcDbSymbolTableRecord
100
AcDbBlockTableRecord
  2
_D_40
  0
BLOCK_RECORD
  5
FC5
330
F1F
100
AcDbSymbolTableRecord
100
AcDbBlockTableRecord
  2
_D_41
  0
BLOCK_RECORD
  5
FC7
330
F1F
100
AcDbSymbolTableRecord
100
AcDbBlockTableRecord
  2
_D_42
  0
BLOCK_RECORD
  5
FC9
330
F1F
100
AcDbSymbolTableRecord
100
AcDbBlockTableRecord
  2
_D_43
  0
BLOCK_RECORD
  5
FCB
330
F1F
100
AcDbSymbolTableRecord
100
AcDbBlockTableRecord
  2
_D_44
  0
BLOCK_RECORD
  5
FCD
330
F1F
100
AcDbSymbolTableRecord
100
AcDbBlockTableRecord
  2
_D_45
  0
BLOCK_RECORD
  5
FCF
330
F1F
100
AcDbSymbolTableRecord
100
AcDbBlockTableRecord
  2
_D_46
  0
BLOCK_RECORD
  5
FD1
330
F1F
100
AcDbSymbolTableRecord
100
AcDbBlockTableRecord
  2
_D_47
  0
BLOCK_RECORD
  5
FD3
330
F1F
100
AcDbSymbolTableRecord
100
AcDbBlockTableRecord
  2
_D_48
  0
BLOCK_RECORD
  5
FD5
330
F1F
100
AcDbSymbolTableRecord
100
AcDbBlockTableRecord
  2
_D_49
  0
BLOCK_RECORD
  5
FD7
330
F1F
100
AcDbSymbolTableRecord
100
AcDbBlockTableRecord
  2
_D_50
  0
BLOCK_RECORD
  5
FD9
330
F1F
100
AcDbSymbolTableRecord
100
AcDbBlockTableRecord
  2
_D_51
  0
BLOCK_RECORD
  5
FDB
330
F1F
100
AcDbSymbolTableRecord
100
AcDbBlockTableRecord
  2
SW_CENTERMARKSYMBOL_13
  0
BLOCK_RECORD
  5
FDD
330
F1F
100
AcDbSymbolTableRecord
100
AcDbBlockTableRecord
  2
SW_CENTERMARKSYMBOL_14
  0
BLOCK_RECORD
  5
FDF
330
F1F
100
AcDbSymbolTableRecord
100
AcDbBlockTableRecord
  2
SW_CENTERMARKSYMBOL_15
  0
BLOCK_RECORD
  5
FE1
330
F1F
100
AcDbSymbolTableRecord
100
AcDbBlockTableRecord
  2
SW_CENTERMARKSYMBOL_16
  0
BLOCK_RECORD
  5
FE3
330
F1F
100
AcDbSymbolTableRecord
100
AcDbBlockTableRecord
  2
SW_CENTERMARKSYMBOL_17
  0
BLOCK_RECORD
  5
FE5
330
F1F
100
AcDbSymbolTableRecord
100
AcDbBlockTableRecord
  2
SW_CENTERMARKSYMBOL_18
  0
BLOCK_RECORD
  5
FE7
330
F1F
100
AcDbSymbolTableRecord
100
AcDbBlockTableRecord
  2
SW_CENTERMARKSYMBOL_19
  0
BLOCK_RECORD
  5
FE9
330
F1F
100
AcDbSymbolTableRecord
100
AcDbBlockTableRecord
  2
SW_CENTERMARKSYMBOL_20
  0
BLOCK_RECORD
  5
FEB
330
F1F
100
AcDbSymbolTableRecord
100
AcDbBlockTableRecord
  2
_D_52
  0
BLOCK_RECORD
  5
FED
330
F1F
100
AcDbSymbolTableRecord
100
AcDbBlockTableRecord
  2
_D_53
  0
BLOCK_RECORD
  5
FEF
330
F1F
100
AcDbSymbolTableRecord
100
AcDbBlockTableRecord
  2
_D_54
  0
BLOCK_RECORD
  5
1042
330
F1F
100
AcDbSymbolTableRecord
100
AcDbBlockTableRecord
  2
*D79
  0
BLOCK_RECORD
  5
104F
330
F1F
100
AcDbSymbolTableRecord
100
AcDbBlockTableRecord
  2
*D80
  0
ENDTAB
  0
ENDSEC
  0
SECTION
  2
BLOCKS
  0
BLOCK
  5
F50
330
F39
100
AcDbEntity
  8
0
100
AcDbBlockBegin
  2
*MODEL_SPACE
 70
     0
 10
0.0
 20
0.0
 30
0.0
  3
*MODEL_SPACE
  1

  0
ENDBLK
  5
21
330
F39
100
AcDbEntity
  8
0
100
AcDbBlockEnd
  0
BLOCK
  5
F51
330
F37
100
AcDbEntity
 67
     1
  8
0
100
AcDbBlockBegin
  2
*PAPER_SPACE
 70
     0
 10
0.0
 20
0.0
 30
0.0
  3
*PAPER_SPACE
  1

  0
ENDBLK
  5
1D
330
F37
100
AcDbEntity
 67
     1
  8
0
100
AcDbBlockEnd
  0
BLOCK
  5
F52
330
F53
100
AcDbEntity
  8
0
100
AcDbBlockBegin
  2
SW_BROKEN_VIEW_0
 70
     0
 10
0.0
 20
0.0
 30
0.0
  3
SW_BROKEN_VIEW_0
  1

  0
LINE
  5
417
330
F53
100
AcDbEntity
  8
0
  6
CONTINUOUS
 62
     0
100
AcDbLine
 10
0.0
 20
0.0
 30
0.0
 11
1.0263273725
 21
0.0
 31
0.0
  0
ENDBLK
  5
416
330
F53
100
AcDbEntity
  8
0
100
AcDbBlockEnd
  0
BLOCK
  5
F54
330
F55
100
AcDbEntity
  8
0
100
AcDbBlockBegin
  2
_D
 70
     0
 10
0.0
 20
0.0
 30
0.0
  3
_D
  1

  0
SOLID
  5
6A2
330
F55
100
AcDbEntity
  8
0
  6
CONTINUOUS
 62
     7
100
AcDbTrace
 10
289.3869328592
 20
458.0968422214
 30
0.0
 11
289.7715482438
 21
460.5968422214
 31
0.0
 12
289.0023174746
 22
460.5968422214
 32
0.0
 13
289.0023174746
 23
460.5968422214
 33
0.0
  0
SOLID
  5
6A3
330
F55
100
AcDbEntity
  8
0
  6
CONTINUOUS
 62
     7
100
AcDbTrace
 10
289.3869328592
 20
448.0968422214
 30
0.0
 11
289.0023174746
 21
445.5968422214
 31
0.0
 12
289.7715482438
 22
445.5968422214
 32
0.0
 13
289.7715482438
 23
445.5968422214
 33
0.0
  0
LINE
  5
6A4
330
F55
100
AcDbEntity
  8
0
  6
CONTINUOUS
 62
     7
100
AcDbLine
 10
301.4229538233
 20
458.0968422214
 30
0.0
 11
288.3869328592
 21
458.0968422214
 31
0.0
  0
LINE
  5
6A5
330
F55
100
AcDbEntity
  8
0
  6
CONTINUOUS
 62
     7
100
AcDbLine
 10
301.9724591008
 20
448.0968422214
 30
0.0
 11
288.3869328592
 21
448.0968422214
 31
0.0
  0
LINE
  5
6A6
330
F55
100
AcDbEntity
  8
0
  6
CONTINUOUS
 62
     7
100
AcDbLine
 10
289.3869328592
 20
458.0968422214
 30
0.0
 11
289.3869328592
 21
462.9045345291
 31
0.0
  0
LINE
  5
6A7
330
F55
100
AcDbEntity
  8
0
  6
CONTINUOUS
 62
     7
100
AcDbLine
 10
289.3869328592
 20
458.0968422214
 30
0.0
 11
289.3869328592
 21
448.0968422214
 31
0.0
  0
LINE
  5
6A8
330
F55
100
AcDbEntity
  8
0
  6
CONTINUOUS
 62
     7
100
AcDbLine
 10
289.3869328592
 20
448.0968422214
 30
0.0
 11
289.3869328592
 21
443.2891499137
 31
0.0
  0
TEXT
  5
6A9
330
F55
100
AcDbEntity
  8
0
  6
CONTINUOUS
 62
     7
100
AcDbText
 10
-2930.7824163961
 20
451.1871199966
 30
0.0
 40
2.5
  1
20
 50
90.0
 41
0.7
 11
-2933.2824163961
 21
451.1871199966
 31
0.0
100
AcDbText
 73
     3
  0
ENDBLK
  5
6A1
330
F55
100
AcDbEntity
  8
0
100
AcDbBlockEnd
  0
BLOCK
  5
F56
330
F57
100
AcDbEntity
  8
0
100
AcDbBlockBegin
  2
_D_1
 70
     0
 10
0.0
 20
0.0
 30
0.0
  3
_D_1
  1

  0
SOLID
  5
6AF
330
F57
100
AcDbEntity
  8
0
  6
CONTINUOUS
 62
     7
100
AcDbTrace
 10
334.9118296546
 20
563.2468422214
 30
0.0
 11
334.52721427
 21
560.7468422214
 31
0.0
 12
335.2964450392
 22
560.7468422214
 32
0.0
 13
335.2964450392
 23
560.7468422214
 33
0.0
  0
SOLID
  5
6B0
330
F57
100
AcDbEntity
  8
0
  6
CONTINUOUS
 62
     7
100
AcDbTrace
 10
334.9118296546
 20
476.7468422214
 30
0.0
 11
335.2964450392
 21
479.2468422214
 31
0.0
 12
334.52721427
 22
479.2468422214
 32
0.0
 13
334.52721427
 23
479.2468422214
 33
0.0
  0
LINE
  5
6B1
330
F57
100
AcDbEntity
  8
0
  6
CONTINUOUS
 62
     7
100
AcDbLine
 10
305.7224591008
 20
563.2468422214
 30
0.0
 11
335.9118296546
 21
563.2468422214
 31
0.0
  0
LINE
  5
6B2
330
F57
100
AcDbEntity
  8
0
  6
CONTINUOUS
 62
     7
100
AcDbLine
 10
305.7224591008
 20
476.7468422214
 30
0.0
 11
335.9118296546
 21
476.7468422214
 31
0.0
  0
LINE
  5
6B3
330
F57
100
AcDbEntity
  8
0
  6
CONTINUOUS
 62
     7
100
AcDbLine
 10
334.9118296546
 20
563.2468422214
 30
0.0
 11
334.9118296546
 21
476.7468422214
 31
0.0
  0
TEXT
  5
6B4
330
F57
100
AcDbEntity
  8
0
  6
CONTINUOUS
 62
     7
100
AcDbText
 10
-2885.2575196007
 20
517.1322588259
 30
23.0654880601
 40
2.5
  1
173
 50
90.0
 41
0.7
 11
-2887.7575196007
 21
517.1322588259
 31
23.0654880601
100
AcDbText
 73
     3
  0
ENDBLK
  5
6AE
330
F57
100
AcDbEntity
  8
0
100
AcDbBlockEnd
  0
BLOCK
  5
F58
330
F59
100
AcDbEntity
  8
0
100
AcDbBlockBegin
  2
_D_2
 70
     0
 10
0.0
 20
0.0
 30
0.0
  3
_D_2
  1

  0
SOLID
  5
6B9
330
F59
100
AcDbEntity
  8
0
  6
CONTINUOUS
 62
     7
100
AcDbTrace
 10
334.9118296546
 20
476.7468422214
 30
0.0
 11
334.52721427
 21
474.2468422214
 31
0.0
 12
335.2964450392
 22
474.2468422214
 32
0.0
 13
335.2964450392
 23
474.2468422214
 33
0.0
  0
SOLID
  5
6BA
330
F59
100
AcDbEntity
  8
0
  6
CONTINUOUS
 62
     7
100
AcDbTrace
 10
334.9118296546
 20
429.408904329
 30
0.0
 11
335.2964450392
 21
431.908904329
 31
0.0
 12
334.52721427
 22
431.908904329
 32
0.0
 13
334.52721427
 23
431.908904329
 33
0.0
  0
LINE
  5
6BB
330
F59
100
AcDbEntity
  8
0
  6
CONTINUOUS
 62
     7
100
AcDbLine
 10
305.7224591008
 20
476.7468422214
 30
0.0
 11
335.9118296546
 21
476.7468422214
 31
0.0
  0
LINE
  5
6BC
330
F59
100
AcDbEntity
  8
0
  6
CONTINUOUS
 62
     7
100
AcDbLine
 10
305.7224591008
 20
429.408904329
 30
0.0
 11
335.9118296546
 21
429.408904329
 31
0.0
  0
LINE
  5
6BD
330
F59
100
AcDbEntity
  8
0
  6
CONTINUOUS
 62
     7
100
AcDbLine
 10
334.9118296546
 20
476.7468422214
 30
0.0
 11
334.9118296546
 21
429.408904329
 31
0.0
  0
TEXT
  5
6BE
330
F59
100
AcDbEntity
  8
0
  6
CONTINUOUS
 62
     7
100
AcDbText
 10
-2885.2575196007
 20
450.2132898797
 30
23.0654880601
 40
2.5
  1
182
 50
90.0
 41
0.7
 11
-2887.7575196007
 21
450.2132898797
 31
23.0654880601
100
AcDbText
 73
     3
  0
ENDBLK
  5
6B8
330
F59
100
AcDbEntity
  8
0
100
AcDbBlockEnd
  0
BLOCK
  5
F5A
330
F5B
100
AcDbEntity
  8
0
100
AcDbBlockBegin
  2
_D_3
 70
     0
 10
0.0
 20
0.0
 30
0.0
  3
_D_3
  1

  0
SOLID
  5
6C3
330
F5B
100
AcDbEntity
  8
0
  6
CONTINUOUS
 62
     7
100
AcDbTrace
 10
334.9118296546
 20
429.408904329
 30
0.0
 11
334.52721427
 21
426.908904329
 31
0.0
 12
335.2964450392
 22
426.908904329
 32
0.0
 13
335.2964450392
 23
426.908904329
 33
0.0
  0
SOLID
  5
6C4
330
F5B
100
AcDbEntity
  8
0
  6
CONTINUOUS
 62
     7
100
AcDbTrace
 10
334.9118296546
 20
395.1179813509
 30
0.0
 11
335.2964450392
 21
397.6179813509
 31
0.0
 12
334.52721427
 22
397.6179813509
 32
0.0
 13
334.52721427
 23
397.6179813509
 33
0.0
  0
LINE
  5
6C5
330
F5B
100
AcDbEntity
  8
0
  6
CONTINUOUS
 62
     7
100
AcDbLine
 10
305.7224591008
 20
429.408904329
 30
0.0
 11
335.9118296546
 21
429.408904329
 31
0.0
  0
LINE
  5
6C6
330
F5B
100
AcDbEntity
  8
0
  6
CONTINUOUS
 62
     7
100
AcDbLine
 10
305.7224591008
 20
395.1179813509
 30
0.0
 11
335.9118296546
 21
395.1179813509
 31
0.0
  0
LINE
  5
6C7
330
F5B
100
AcDbEntity
  8
0
  6
CONTINUOUS
 62
     7
100
AcDbLine
 10
334.9118296546
 20
429.408904329
 30
0.0
 11
334.9118296546
 21
395.1179813509
 31
0.0
  0
TEXT
  5
6C8
330
F5B
100
AcDbEntity
  8
0
  6
CONTINUOUS
 62
     7
100
AcDbText
 10
-2885.2575196007
 20
409.3988594445
 30
23.0654880601
 40
2.5
  1
182
 50
90.0
 41
0.7
 11
-2887.7575196007
 21
409.3988594445
 31
23.0654880601
100
AcDbText
 73
     3
  0
ENDBLK
  5
6C2
330
F5B
100
AcDbEntity
  8
0
100
AcDbBlockEnd
  0
BLOCK
  5
F5C
330
F5D
100
AcDbEntity
  8
0
100
AcDbBlockBegin
  2
_D_4
 70
     0
 10
0.0
 20
0.0
 30
0.0
  3
_D_4
  1

  0
SOLID
  5
6CD
330
F5D
100
AcDbEntity
  8
0
  6
CONTINUOUS
 62
     7
100
AcDbTrace
 10
334.9118296546
 20
395.1179813509
 30
0.0
 11
334.52721427
 21
392.6179813509
 31
0.0
 12
335.2964450392
 22
392.6179813509
 32
0.0
 13
335.2964450392
 23
392.6179813509
 33
0.0
  0
SOLID
  5
6CE
330
F5D
100
AcDbEntity
  8
0
  6
CONTINUOUS
 62
     7
100
AcDbTrace
 10
334.9118296546
 20
378.3513958611
 30
0.0
 11
335.2964450392
 21
380.8513958611
 31
0.0
 12
334.52721427
 22
380.8513958611
 32
0.0
 13
334.52721427
 23
380.8513958611
 33
0.0
  0
LINE
  5
6CF
330
F5D
100
AcDbEntity
  8
0
  6
CONTINUOUS
 62
     7
100
AcDbLine
 10
305.7224591008
 20
395.1179813509
 30
0.0
 11
335.9118296546
 21
395.1179813509
 31
0.0
  0
LINE
  5
6D0
330
F5D
100
AcDbEntity
  8
0
  6
CONTINUOUS
 62
     7
100
AcDbLine
 10
305.7224591008
 20
378.3513958611
 30
0.0
 11
335.9118296546
 21
378.3513958611
 31
0.0
  0
LINE
  5
6D1
330
F5D
100
AcDbEntity
  8
0
  6
CONTINUOUS
 62
     7
100
AcDbLine
 10
334.9118296546
 20
395.1179813509
 30
0.0
 11
334.9118296546
 21
378.3513958611
 31
0.0
  0
TEXT
  5
6D2
330
F5D
100
AcDbEntity
  8
0
  6
CONTINUOUS
 62
     7
100
AcDbText
 10
-2885.2575196007
 20
383.8701052106
 30
23.0654880601
 40
2.5
  1
180
 50
90.0
 41
0.7
 11
-2887.7575196007
 21
383.8701052106
 31
23.0654880601
100
AcDbText
 73
     3
  0
ENDBLK
  5
6CC
330
F5D
100
AcDbEntity
  8
0
100
AcDbBlockEnd
  0
BLOCK
  5
F5E
330
F5F
100
AcDbEntity
  8
0
100
AcDbBlockBegin
  2
_D_5
 70
     0
 10
0.0
 20
0.0
 30
0.0
  3
_D_5
  1

  0
SOLID
  5
6D7
330
F5F
100
AcDbEntity
  8
0
  6
CONTINUOUS
 62
     7
100
AcDbTrace
 10
334.9118296546
 20
378.3513958611
 30
0.0
 11
334.52721427
 21
375.8513958611
 31
0.0
 12
335.2964450392
 22
375.8513958611
 32
0.0
 13
335.2964450392
 23
375.8513958611
 33
0.0
  0
SOLID
  5
6D8
330
F5F
100
AcDbEntity
  8
0
  6
CONTINUOUS
 62
     7
100
AcDbTrace
 10
334.9118296546
 20
251.3513958611
 30
0.0
 11
335.2964450392
 21
253.8513958611
 31
0.0
 12
334.52721427
 22
253.8513958611
 32
0.0
 13
334.52721427
 23
253.8513958611
 33
0.0
  0
LINE
  5
6D9
330
F5F
100
AcDbEntity
  8
0
  6
CONTINUOUS
 62
     7
100
AcDbLine
 10
305.7224591008
 20
378.3513958611
 30
0.0
 11
335.9118296546
 21
378.3513958611
 31
0.0
  0
LINE
  5
6DA
330
F5F
100
AcDbEntity
  8
0
  6
CONTINUOUS
 62
     7
100
AcDbLine
 10
305.7224591008
 20
251.3513958611
 30
0.0
 11
335.9118296546
 21
251.3513958611
 31
0.0
  0
LINE
  5
6DB
330
F5F
100
AcDbEntity
  8
0
  6
CONTINUOUS
 62
     7
100
AcDbLine
 10
334.9118296546
 20
378.3513958611
 30
0.0
 11
334.9118296546
 21
251.3513958611
 31
0.0
  0
TEXT
  5
6DC
330
F5F
100
AcDbEntity
  8
0
  6
CONTINUOUS
 62
     7
100
AcDbText
 10
-2885.2575196007
 20
311.9868124656
 30
23.0654880601
 40
2.5
  1
254
 50
90.0
 41
0.7
 11
-2887.7575196007
 21
311.9868124656
 31
23.0654880601
100
AcDbText
 73
     3
  0
ENDBLK
  5
6D6
330
F5F
100
AcDbEntity
  8
0
100
AcDbBlockEnd
  0
BLOCK
  5
F60
330
F61
100
AcDbEntity
  8
0
100
AcDbBlockBegin
  2
_D_6
 70
     0
 10
0.0
 20
0.0
 30
0.0
  3
_D_6
  1

  0
SOLID
  5
6E1
330
F61
100
AcDbEntity
  8
0
  6
CONTINUOUS
 62
     7
100
AcDbTrace
 10
334.9118296546
 20
251.3513958611
 30
0.0
 11
334.52721427
 21
248.8513958611
 31
0.0
 12
335.2964450392
 22
248.8513958611
 32
0.0
 13
335.2964450392
 23
248.8513958611
 33
0.0
  0
SOLID
  5
6E2
330
F61
100
AcDbEntity
  8
0
  6
CONTINUOUS
 62
     7
100
AcDbTrace
 10
334.9118296546
 20
230.9609059444
 30
0.0
 11
335.2964450392
 21
233.4609059444
 31
0.0
 12
334.52721427
 22
233.4609059444
 32
0.0
 13
334.52721427
 23
233.4609059444
 33
0.0
  0
LINE
  5
6E3
330
F61
100
AcDbEntity
  8
0
  6
CONTINUOUS
 62
     7
100
AcDbLine
 10
305.7224591008
 20
251.3513958611
 30
0.0
 11
335.9118296546
 21
251.3513958611
 31
0.0
  0
LINE
  5
6E4
330
F61
100
AcDbEntity
  8
0
  6
CONTINUOUS
 62
     7
100
AcDbLine
 10
305.7224591008
 20
230.9609059444
 30
0.0
 11
335.9118296546
 21
230.9609059444
 31
0.0
  0
LINE
  5
6E5
330
F61
100
AcDbEntity
  8
0
  6
CONTINUOUS
 62
     7
100
AcDbLine
 10
334.9118296546
 20
251.3513958611
 30
0.0
 11
334.9118296546
 21
230.9609059444
 31
0.0
  0
TEXT
  5
6E6
330
F61
100
AcDbEntity
  8
0
  6
CONTINUOUS
 62
     7
100
AcDbText
 10
-2885.2575196007
 20
238.2915675073
 30
23.0654880601
 40
2.5
  1
182
 50
90.0
 41
0.7
 11
-2887.7575196007
 21
238.2915675073
 31
23.0654880601
100
AcDbText
 73
     3
  0
ENDBLK
  5
6E0
330
F61
100
AcDbEntity
  8
0
100
AcDbBlockEnd
  0
BLOCK
  5
F62
330
F63
100
AcDbEntity
  8
0
100
AcDbBlockBegin
  2
_D_7
 70
     0
 10
0.0
 20
0.0
 30
0.0
  3
_D_7
  1

  0
SOLID
  5
6EB
330
F63
100
AcDbEntity
  8
0
  6
CONTINUOUS
 62
     7
100
AcDbTrace
 10
334.9118296546
 20
230.9609059444
 30
0.0
 11
334.52721427
 21
228.4609059444
 31
0.0
 12
335.2964450392
 22
228.4609059444
 32
0.0
 13
335.2964450392
 23
228.4609059444
 33
0.0
  0
SOLID
  5
6EC
330
F63
100
AcDbEntity
  8
0
  6
CONTINUOUS
 62
     7
100
AcDbTrace
 10
334.9118296546
 20
196.5808581923
 30
0.0
 11
335.2964450392
 21
199.0808581923
 31
0.0
 12
334.52721427
 22
199.0808581923
 32
0.0
 13
334.52721427
 23
199.0808581923
 33
0.0
  0
LINE
  5
6ED
330
F63
100
AcDbEntity
  8
0
  6
CONTINUOUS
 62
     7
100
AcDbLine
 10
305.7224591008
 20
230.9609059444
 30
0.0
 11
335.9118296546
 21
230.9609059444
 31
0.0
  0
LINE
  5
6EE
330
F63
100
AcDbEntity
  8
0
  6
CONTINUOUS
 62
     7
100
AcDbLine
 10
305.7224591008
 20
196.5808581923
 30
0.0
 11
335.9118296546
 21
196.5808581923
 31
0.0
  0
LINE
  5
6EF
330
F63
100
AcDbEntity
  8
0
  6
CONTINUOUS
 62
     7
100
AcDbLine
 10
334.9118296546
 20
230.9609059444
 30
0.0
 11
334.9118296546
 21
196.5808581923
 31
0.0
  0
TEXT
  5
6F0
330
F63
100
AcDbEntity
  8
0
  6
CONTINUOUS
 62
     7
100
AcDbText
 10
-2885.2575196007
 20
210.9062986729
 30
23.0654880601
 40
2.5
  1
182
 50
90.0
 41
0.7
 11
-2887.7575196007
 21
210.9062986729
 31
23.0654880601
100
AcDbText
 73
     3
  0
ENDBLK
  5
6EA
330
F63
100
AcDbEntity
  8
0
100
AcDbBlockEnd
  0
BLOCK
  5
F64
330
F65
100
AcDbEntity
  8
0
100
AcDbBlockBegin
  2
_D_8
 70
     0
 10
0.0
 20
0.0
 30
0.0
  3
_D_8
  1

  0
SOLID
  5
6F5
330
F65
100
AcDbEntity
  8
0
  6
CONTINUOUS
 62
     7
100
AcDbTrace
 10
334.9118296546
 20
196.5808581923
 30
0.0
 11
334.52721427
 21
194.0808581923
 31
0.0
 12
335.2964450392
 22
194.0808581923
 32
0.0
 13
335.2964450392
 23
194.0808581923
 33
0.0
  0
SOLID
  5
6F6
330
F65
100
AcDbEntity
  8
0
  6
CONTINUOUS
 62
     7
100
AcDbTrace
 10
334.9118296546
 20
159.1748548006
 30
0.0
 11
335.2964450392
 21
161.6748548006
 31
0.0
 12
334.52721427
 22
161.6748548006
 32
0.0
 13
334.52721427
 23
161.6748548006
 33
0.0
  0
LINE
  5
6F7
330
F65
100
AcDbEntity
  8
0
  6
CONTINUOUS
 62
     7
100
AcDbLine
 10
305.7224591008
 20
196.5808581923
 30
0.0
 11
335.9118296546
 21
196.5808581923
 31
0.0
  0
LINE
  5
6F8
330
F65
100
AcDbEntity
  8
0
  6
CONTINUOUS
 62
     7
100
AcDbLine
 10
305.7224591008
 20
159.1748548006
 30
0.0
 11
335.9118296546
 21
159.1748548006
 31
0.0
  0
LINE
  5
6F9
330
F65
100
AcDbEntity
  8
0
  6
CONTINUOUS
 62
     7
100
AcDbLine
 10
334.9118296546
 20
196.5808581923
 30
0.0
 11
334.9118296546
 21
159.1748548006
 31
0.0
  0
TEXT
  5
6FA
330
F65
100
AcDbEntity
  8
0
  6
CONTINUOUS
 62
     7
100
AcDbText
 10
-2885.2575196007
 20
175.013273101
 30
23.0654880601
 40
2.5
  1
182
 50
90.0
 41
0.7
 11
-2887.7575196007
 21
175.013273101
 31
23.0654880601
100
AcDbText
 73
     3
  0
ENDBLK
  5
6F4
330
F65
100
AcDbEntity
  8
0
100
AcDbBlockEnd
  0
BLOCK
  5
F66
330
F67
100
AcDbEntity
  8
0
100
AcDbBlockBegin
  2
_D_9
 70
     0
 10
0.0
 20
0.0
 30
0.0
  3
_D_9
  1

  0
SOLID
  5
6FF
330
F67
100
AcDbEntity
  8
0
  6
CONTINUOUS
 62
     7
100
AcDbTrace
 10
334.9118296546
 20
159.1748548006
 30
0.0
 11
334.52721427
 21
156.6748548006
 31
0.0
 12
335.2964450392
 22
156.6748548006
 32
0.0
 13
335.2964450392
 23
156.6748548006
 33
0.0
  0
SOLID
  5
700
330
F67
100
AcDbEntity
  8
0
  6
CONTINUOUS
 62
     7
100
AcDbTrace
 10
334.9118296546
 20
68.1748548006
 30
0.0
 11
335.2964450392
 21
70.6748548006
 31
0.0
 12
334.52721427
 22
70.6748548006
 32
0.0
 13
334.52721427
 23
70.6748548006
 33
0.0
  0
LINE
  5
701
330
F67
100
AcDbEntity
  8
0
  6
CONTINUOUS
 62
     7
100
AcDbLine
 10
305.7224591008
 20
159.1748548006
 30
0.0
 11
335.9118296546
 21
159.1748548006
 31
0.0
  0
LINE
  5
702
330
F67
100
AcDbEntity
  8
0
  6
CONTINUOUS
 62
     7
100
AcDbLine
 10
305.7224591008
 20
68.1748548006
 30
0.0
 11
335.9118296546
 21
68.1748548006
 31
0.0
  0
LINE
  5
703
330
F67
100
AcDbEntity
  8
0
  6
CONTINUOUS
 62
     7
100
AcDbLine
 10
334.9118296546
 20
159.1748548006
 30
0.0
 11
334.9118296546
 21
68.1748548006
 31
0.0
  0
TEXT
  5
704
330
F67
100
AcDbEntity
  8
0
  6
CONTINUOUS
 62
     7
100
AcDbText
 10
-2885.2575196007
 20
110.8102714052
 30
23.0654880601
 40
2.5
  1
182
 50
90.0
 41
0.7
 11
-2887.7575196007
 21
110.8102714052
 31
23.0654880601
100
AcDbText
 73
     3
  0
ENDBLK
  5
6FE
330
F67
100
AcDbEntity
  8
0
100
AcDbBlockEnd
  0
BLOCK
  5
F68
330
F69
100
AcDbEntity
  8
0
100
AcDbBlockBegin
  2
_D_10
 70
     0
 10
0.0
 20
0.0
 30
0.0
  3
_D_10
  1

  0
SOLID
  5
709
330
F69
100
AcDbEntity
  8
0
  6
CONTINUOUS
 62
     7
100
AcDbTrace
 10
334.9118296546
 20
68.1748548006
 30
0.0
 11
334.52721427
 21
65.6748548006
 31
0.0
 12
335.2964450392
 22
65.6748548006
 32
0.0
 13
335.2964450392
 23
65.6748548006
 33
0.0
  0
SOLID
  5
70A
330
F69
100
AcDbEntity
  8
0
  6
CONTINUOUS
 62
     7
100
AcDbTrace
 10
334.9118296546
 20
48.1748548006
 30
0.0
 11
335.2964450392
 21
50.6748548006
 31
0.0
 12
334.52721427
 22
50.6748548006
 32
0.0
 13
334.52721427
 23
50.6748548006
 33
0.0
  0
LINE
  5
70B
330
F69
100
AcDbEntity
  8
0
  6
CONTINUOUS
 62
     7
100
AcDbLine
 10
305.7224591008
 20
68.1748548006
 30
0.0
 11
335.9118296546
 21
68.1748548006
 31
0.0
  0
LINE
  5
70C
330
F69
100
AcDbEntity
  8
0
  6
CONTINUOUS
 62
     7
100
AcDbLine
 10
301.9724591008
 20
48.1748548006
 30
0.0
 11
335.9118296546
 21
48.1748548006
 31
0.0
  0
LINE
  5
70D
330
F69
100
AcDbEntity
  8
0
  6
CONTINUOUS
 62
     7
100
AcDbLine
 10
334.9118296546
 20
68.1748548006
 30
0.0
 11
334.9118296546
 21
48.1748548006
 31
0.0
  0
TEXT
  5
70E
330
F69
100
AcDbEntity
  8
0
  6
CONTINUOUS
 62
     7
100
AcDbText
 10
-2885.2575196007
 20
56.2651325758
 30
23.0654880601
 40
2.5
  1
40
 50
90.0
 41
0.7
 11
-2887.7575196007
 21
56.2651325758
 31
23.0654880601
100
AcDbText
 73
     3
  0
ENDBLK
  5
708
330
F69
100
AcDbEntity
  8
0
100
AcDbBlockEnd
  0
BLOCK
  5
F6A
330
F6B
100
AcDbEntity
  8
0
100
AcDbBlockBegin
  2
_D_11
 70
     0
 10
0.0
 20
0.0
 30
0.0
  3
_D_11
  1

  0
SOLID
  5
713
330
F6B
100
AcDbEntity
  8
0
  6
CONTINUOUS
 62
     7
100
AcDbTrace
 10
306.4724591008
 20
38.3219594219
 30
0.0
 11
308.9724591008
 21
37.9373440373
 31
0.0
 12
308.9724591008
 22
38.7065748065
 32
0.0
 13
308.9724591008
 23
38.7065748065
 33
0.0
  0
SOLID
  5
714
330
F6B
100
AcDbEntity
  8
0
  6
CONTINUOUS
 62
     7
100
AcDbTrace
 10
297.4724591008
 20
38.3219594219
 30
0.0
 11
294.9724591008
 21
38.7065748065
 31
0.0
 12
294.9724591008
 22
37.9373440373
 32
0.0
 13
294.9724591008
 23
37.9373440373
 33
0.0
  0
LINE
  5
715
330
F6B
100
AcDbEntity
  8
0
  6
CONTINUOUS
 62
     7
100
AcDbLine
 10
306.4724591008
 20
52.6748548006
 30
0.0
 11
306.4724591008
 21
37.3219594219
 31
0.0
  0
LINE
  5
716
330
F6B
100
AcDbEntity
  8
0
  6
CONTINUOUS
 62
     7
100
AcDbLine
 10
297.4724591008
 20
52.6748548006
 30
0.0
 11
297.4724591008
 21
37.3219594219
 31
0.0
  0
LINE
  5
717
330
F6B
100
AcDbEntity
  8
0
  6
CONTINUOUS
 62
     7
100
AcDbLine
 10
306.4724591008
 20
38.3219594219
 30
0.0
 11
311.2801514085
 21
38.3219594219
 31
0.0
  0
LINE
  5
718
330
F6B
100
AcDbEntity
  8
0
  6
CONTINUOUS
 62
     7
100
AcDbLine
 10
306.4724591008
 20
38.3219594219
 30
0.0
 11
297.4724591008
 21
38.3219594219
 31
0.0
  0
LINE
  5
719
330
F6B
100
AcDbEntity
  8
0
  6
CONTINUOUS
 62
     7
100
AcDbLine
 10
297.4724591008
 20
38.3219594219
 30
0.0
 11
292.6647667932
 21
38.3219594219
 31
0.0
  0
TEXT
  5
71A
330
F6B
100
AcDbEntity
  8
0
  6
CONTINUOUS
 62
     7
100
AcDbText
 10
297.6755840077
 20
3258.4913086772
 30
23.0654880601
 40
2.5
  1
18
 41
0.7
 11
297.6755840077
 21
3260.9913086772
 31
23.0654880601
100
AcDbText
 73
     3
  0
TEXT
  5
71B
330
F6B
100
AcDbEntity
  8
0
  6
CONTINUOUS
 62
     7
100
AcDbText
 10
301.4950284573
 20
3258.4913086772
 30
23.0654880601
 40
2.5
  1
/20
 41
0.7
 11
301.4950284573
 21
3260.9913086772
 31
23.0654880601
100
AcDbText
 73
     3
  0
ENDBLK
  5
712
330
F6B
100
AcDbEntity
  8
0
100
AcDbBlockEnd
  0
BLOCK
  5
F6C
330
F6D
100
AcDbEntity
  8
0
100
AcDbBlockBegin
  2
SW_CENTERMARKSYMBOL_0
 70
     0
 10
0.0
 20
0.0
 30
0.0
  3
SW_CENTERMARKSYMBOL_0
  1

  0
LINE
  5
71F
330
F6D
100
AcDbEntity
  8
0
  6
CONTINUOUS
 62
     0
100
AcDbLine
 10
0.0
 20
0.0
 30
0.0
 11
0.0
 21
1.2499988079
 31
0.0
  0
LINE
  5
720
330
F6D
100
AcDbEntity
  8
0
  6
CONTINUOUS
 62
     0
100
AcDbLine
 10
0.0
 20
0.0
 30
0.0
 11
-1.2499999721
 21
0.0
 31
0.0
  0
LINE
  5
721
330
F6D
100
AcDbEntity
  8
0
  6
CONTINUOUS
 62
     0
100
AcDbLine
 10
0.0
 20
0.0
 30
0.0
 11
0.0
 21
-1.2500286102
 31
0.0
  0
LINE
  5
722
330
F6D
100
AcDbEntity
  8
0
  6
CONTINUOUS
 62
     0
100
AcDbLine
 10
0.0
 20
0.0
 30
0.0
 11
1.2499999721
 21
0.0
 31
0.0
  0
LINE
  5
723
330
F6D
100
AcDbEntity
  8
0
  6
CONTINUOUS
 62
     0
100
AcDbLine
 10
0.0
 20
2.4999976158
 30
0.0
 11
0.0
 21
3.7499964237
 31
0.0
  0
LINE
  5
724
330
F6D
100
AcDbEntity
  8
0
  6
CONTINUOUS
 62
     0
100
AcDbLine
 10
-2.4999999441
 20
0.0
 30
0.0
 11
-3.7499999162
 21
0.0
 31
0.0
  0
LINE
  5
725
330
F6D
100
AcDbEntity
  8
0
  6
CONTINUOUS
 62
     0
100
AcDbLine
 10
0.0
 20
-2.5000274181
 30
0.0
 11
0.0
 21
-3.750026226
 31
0.0
  0
LINE
  5
726
330
F6D
100
AcDbEntity
  8
0
  6
CONTINUOUS
 62
     0
100
AcDbLine
 10
2.4999999441
 20
0.0
 30
0.0
 11
3.7499999162
 21
0.0
 31
0.0
  0
ENDBLK
  5
71E
330
F6D
100
AcDbEntity
  8
0
100
AcDbBlockEnd
  0
BLOCK
  5
F6E
330
F6F
100
AcDbEntity
  8
0
100
AcDbBlockBegin
  2
SW_CENTERMARKSYMBOL_1
 70
     0
 10
0.0
 20
0.0
 30
0.0
  3
SW_CENTERMARKSYMBOL_1
  1

  0
LINE
  5
72B
330
F6F
100
AcDbEntity
  8
0
  6
CONTINUOUS
 62
     0
100
AcDbLine
 10
0.0
 20
0.0
 30
0.0
 11
0.0
 21
1.2499988079
 31
0.0
  0
LINE
  5
72C
330
F6F
100
AcDbEntity
  8
0
  6
CONTINUOUS
 62
     0
100
AcDbLine
 10
0.0
 20
0.0
 30
0.0
 11
-1.2499999721
 21
0.0
 31
0.0
  0
LINE
  5
72D
330
F6F
100
AcDbEntity
  8
0
  6
CONTINUOUS
 62
     0
100
AcDbLine
 10
0.0
 20
0.0
 30
0.0
 11
0.0
 21
-1.2499988079
 31
0.0
  0
LINE
  5
72E
330
F6F
100
AcDbEntity
  8
0
  6
CONTINUOUS
 62
     0
100
AcDbLine
 10
0.0
 20
0.0
 30
0.0
 11
1.2499999721
 21
0.0
 31
0.0
  0
LINE
  5
72F
330
F6F
100
AcDbEntity
  8
0
  6
CONTINUOUS
 62
     0
100
AcDbLine
 10
0.0
 20
2.4999976158
 30
0.0
 11
0.0
 21
3.7499964237
 31
0.0
  0
LINE
  5
730
330
F6F
100
AcDbEntity
  8
0
  6
CONTINUOUS
 62
     0
100
AcDbLine
 10
-2.4999999441
 20
0.0
 30
0.0
 11
-3.7499999162
 21
0.0
 31
0.0
  0
LINE
  5
731
330
F6F
100
AcDbEntity
  8
0
  6
CONTINUOUS
 62
     0
100
AcDbLine
 10
0.0
 20
-2.4999976158
 30
0.0
 11
0.0
 21
-3.7499964237
 31
0.0
  0
LINE
  5
732
330
F6F
100
AcDbEntity
  8
0
  6
CONTINUOUS
 62
     0
100
AcDbLine
 10
2.4999999441
 20
0.0
 30
0.0
 11
3.7499999162
 21
0.0
 31
0.0
  0
ENDBLK
  5
72A
330
F6F
100
AcDbEntity
  8
0
100
AcDbBlockEnd
  0
BLOCK
  5
F70
330
F71
100
AcDbEntity
  8
0
100
AcDbBlockBegin
  2
SW_CENTERMARKSYMBOL_2
 70
     0
 10
0.0
 20
0.0
 30
0.0
  3
SW_CENTERMARKSYMBOL_2
  1

  0
LINE
  5
737
330
F71
100
AcDbEntity
  8
0
  6
CONTINUOUS
 62
     0
100
AcDbLine
 10
0.0
 20
0.0
 30
0.0
 11
0.0
 21
1.2499988079
 31
0.0
  0
LINE
  5
738
330
F71
100
AcDbEntity
  8
0
  6
CONTINUOUS
 62
     0
100
AcDbLine
 10
0.0
 20
0.0
 30
0.0
 11
-1.2499999721
 21
0.0
 31
0.0
  0
LINE
  5
739
330
F71
100
AcDbEntity
  8
0
  6
CONTINUOUS
 62
     0
100
AcDbLine
 10
0.0
 20
0.0
 30
0.0
 11
0.0
 21
-1.2499988079
 31
0.0
  0
LINE
  5
73A
330
F71
100
AcDbEntity
  8
0
  6
CONTINUOUS
 62
     0
100
AcDbLine
 10
0.0
 20
0.0
 30
0.0
 11
1.2499999721
 21
0.0
 31
0.0
  0
LINE
  5
73B
330
F71
100
AcDbEntity
  8
0
  6
CONTINUOUS
 62
     0
100
AcDbLine
 10
0.0
 20
2.4999976158
 30
0.0
 11
0.0
 21
3.7499964237
 31
0.0
  0
LINE
  5
73C
330
F71
100
AcDbEntity
  8
0
  6
CONTINUOUS
 62
     0
100
AcDbLine
 10
-2.4999999441
 20
0.0
 30
0.0
 11
-3.7499999162
 21
0.0
 31
0.0
  0
LINE
  5
73D
330
F71
100
AcDbEntity
  8
0
  6
CONTINUOUS
 62
     0
100
AcDbLine
 10
0.0
 20
-2.4999976158
 30
0.0
 11
0.0
 21
-3.7500113249
 31
0.0
  0
LINE
  5
73E
330
F71
100
AcDbEntity
  8
0
  6
CONTINUOUS
 62
     0
100
AcDbLine
 10
2.4999999441
 20
0.0
 30
0.0
 11
3.7499999162
 21
0.0
 31
0.0
  0
ENDBLK
  5
736
330
F71
100
AcDbEntity
  8
0
100
AcDbBlockEnd
  0
BLOCK
  5
F72
330
F73
100
AcDbEntity
  8
0
100
AcDbBlockBegin
  2
SW_CENTERMARKSYMBOL_3
 70
     0
 10
0.0
 20
0.0
 30
0.0
  3
SW_CENTERMARKSYMBOL_3
  1

  0
LINE
  5
743
330
F73
100
AcDbEntity
  8
0
  6
CONTINUOUS
 62
     0
100
AcDbLine
 10
0.0
 20
0.0
 30
0.0
 11
0.0
 21
1.2499988079
 31
0.0
  0
LINE
  5
744
330
F73
100
AcDbEntity
  8
0
  6
CONTINUOUS
 62
     0
100
AcDbLine
 10
0.0
 20
0.0
 30
0.0
 11
-1.2499999721
 21
0.0
 31
0.0
  0
LINE
  5
745
330
F73
100
AcDbEntity
  8
0
  6
CONTINUOUS
 62
     0
100
AcDbLine
 10
0.0
 20
0.0
 30
0.0
 11
0.0
 21
-1.2499988079
 31
0.0
  0
LINE
  5
746
330
F73
100
AcDbEntity
  8
0
  6
CONTINUOUS
 62
     0
100
AcDbLine
 10
0.0
 20
0.0
 30
0.0
 11
1.2499999721
 21
0.0
 31
0.0
  0
LINE
  5
747
330
F73
100
AcDbEntity
  8
0
  6
CONTINUOUS
 62
     0
100
AcDbLine
 10
0.0
 20
2.4999976158
 30
0.0
 11
0.0
 21
3.7499964237
 31
0.0
  0
LINE
  5
748
330
F73
100
AcDbEntity
  8
0
  6
CONTINUOUS
 62
     0
100
AcDbLine
 10
-2.4999999441
 20
0.0
 30
0.0
 11
-3.7499999162
 21
0.0
 31
0.0
  0
LINE
  5
749
330
F73
100
AcDbEntity
  8
0
  6
CONTINUOUS
 62
     0
100
AcDbLine
 10
0.0
 20
-2.4999976158
 30
0.0
 11
0.0
 21
-3.7499964237
 31
0.0
  0
LINE
  5
74A
330
F73
100
AcDbEntity
  8
0
  6
CONTINUOUS
 62
     0
100
AcDbLine
 10
2.4999999441
 20
0.0
 30
0.0
 11
3.7499999162
 21
0.0
 31
0.0
  0
ENDBLK
  5
742
330
F73
100
AcDbEntity
  8
0
100
AcDbBlockEnd
  0
BLOCK
  5
F74
330
F75
100
AcDbEntity
  8
0
100
AcDbBlockBegin
  2
SW_CENTERMARKSYMBOL_4
 70
     0
 10
0.0
 20
0.0
 30
0.0
  3
SW_CENTERMARKSYMBOL_4
  1

  0
LINE
  5
74F
330
F75
100
AcDbEntity
  8
0
  6
CONTINUOUS
 62
     0
100
AcDbLine
 10
0.0
 20
0.0
 30
0.0
 11
0.0
 21
1.2499988079
 31
0.0
  0
LINE
  5
750
330
F75
100
AcDbEntity
  8
0
  6
CONTINUOUS
 62
     0
100
AcDbLine
 10
0.0
 20
0.0
 30
0.0
 11
-1.2499999721
 21
0.0
 31
0.0
  0
LINE
  5
751
330
F75
100
AcDbEntity
  8
0
  6
CONTINUOUS
 62
     0
100
AcDbLine
 10
0.0
 20
0.0
 30
0.0
 11
0.0
 21
-1.2500062585
 31
0.0
  0
LINE
  5
752
330
F75
100
AcDbEntity
  8
0
  6
CONTINUOUS
 62
     0
100
AcDbLine
 10
0.0
 20
0.0
 30
0.0
 11
1.2499999721
 21
0.0
 31
0.0
  0
LINE
  5
753
330
F75
100
AcDbEntity
  8
0
  6
CONTINUOUS
 62
     0
100
AcDbLine
 10
0.0
 20
2.4999976158
 30
0.0
 11
0.0
 21
3.7499964237
 31
0.0
  0
LINE
  5
754
330
F75
100
AcDbEntity
  8
0
  6
CONTINUOUS
 62
     0
100
AcDbLine
 10
-2.4999999441
 20
0.0
 30
0.0
 11
-3.7499999162
 21
0.0
 31
0.0
  0
LINE
  5
755
330
F75
100
AcDbEntity
  8
0
  6
CONTINUOUS
 62
     0
100
AcDbLine
 10
0.0
 20
-2.5000013411
 30
0.0
 11
0.0
 21
-3.7500038743
 31
0.0
  0
LINE
  5
756
330
F75
100
AcDbEntity
  8
0
  6
CONTINUOUS
 62
     0
100
AcDbLine
 10
2.4999999441
 20
0.0
 30
0.0
 11
3.7499999162
 21
0.0
 31
0.0
  0
ENDBLK
  5
74E
330
F75
100
AcDbEntity
  8
0
100
AcDbBlockEnd
  0
BLOCK
  5
F76
330
F77
100
AcDbEntity
  8
0
100
AcDbBlockBegin
  2
SW_CENTERMARKSYMBOL_5
 70
     0
 10
0.0
 20
0.0
 30
0.0
  3
SW_CENTERMARKSYMBOL_5
  1

  0
LINE
  5
75B
330
F77
100
AcDbEntity
  8
0
  6
CONTINUOUS
 62
     0
100
AcDbLine
 10
0.0
 20
0.0
 30
0.0
 11
0.0
 21
1.2499988079
 31
0.0
  0
LINE
  5
75C
330
F77
100
AcDbEntity
  8
0
  6
CONTINUOUS
 62
     0
100
AcDbLine
 10
0.0
 20
0.0
 30
0.0
 11
-1.2499999721
 21
0.0
 31
0.0
  0
LINE
  5
75D
330
F77
100
AcDbEntity
  8
0
  6
CONTINUOUS
 62
     0
100
AcDbLine
 10
0.0
 20
0.0
 30
0.0
 11
0.0
 21
-1.2500025332
 31
0.0
  0
LINE
  5
75E
330
F77
100
AcDbEntity
  8
0
  6
CONTINUOUS
 62
     0
100
AcDbLine
 10
0.0
 20
0.0
 30
0.0
 11
1.2499999721
 21
0.0
 31
0.0
  0
LINE
  5
75F
330
F77
100
AcDbEntity
  8
0
  6
CONTINUOUS
 62
     0
100
AcDbLine
 10
0.0
 20
2.4999976158
 30
0.0
 11
0.0
 21
3.750000149
 31
0.0
  0
LINE
  5
760
330
F77
100
AcDbEntity
  8
0
  6
CONTINUOUS
 62
     0
100
AcDbLine
 10
-2.4999999441
 20
0.0
 30
0.0
 11
-3.7499999162
 21
0.0
 31
0.0
  0
LINE
  5
761
330
F77
100
AcDbEntity
  8
0
  6
CONTINUOUS
 62
     0
100
AcDbLine
 10
0.0
 20
-2.5000013411
 30
0.0
 11
0.0
 21
-3.750000149
 31
0.0
  0
LINE
  5
762
330
F77
100
AcDbEntity
  8
0
  6
CONTINUOUS
 62
     0
100
AcDbLine
 10
2.4999999441
 20
0.0
 30
0.0
 11
3.7499999162
 21
0.0
 31
0.0
  0
ENDBLK
  5
75A
330
F77
100
AcDbEntity
  8
0
100
AcDbBlockEnd
  0
BLOCK
  5
F78
330
F79
100
AcDbEntity
  8
0
100
AcDbBlockBegin
  2
SW_CENTERMARKSYMBOL_6
 70
     0
 10
0.0
 20
0.0
 30
0.0
  3
SW_CENTERMARKSYMBOL_6
  1

  0
LINE
  5
767
330
F79
100
AcDbEntity
  8
0
  6
CONTINUOUS
 62
     0
100
AcDbLine
 10
0.0
 20
0.0
 30
0.0
 11
0.0
 21
1.2500025332
 31
0.0
  0
LINE
  5
768
330
F79
100
AcDbEntity
  8
0
  6
CONTINUOUS
 62
     0
100
AcDbLine
 10
0.0
 20
0.0
 30
0.0
 11
-1.2499999721
 21
0.0
 31
0.0
  0
LINE
  5
769
330
F79
100
AcDbEntity
  8
0
  6
CONTINUOUS
 62
     0
100
AcDbLine
 10
0.0
 20
0.0
 30
0.0
 11
0.0
 21
-1.2499988079
 31
0.0
  0
LINE
  5
76A
330
F79
100
AcDbEntity
  8
0
  6
CONTINUOUS
 62
     0
100
AcDbLine
 10
0.0
 20
0.0
 30
0.0
 11
1.2499999721
 21
0.0
 31
0.0
  0
LINE
  5
76B
330
F79
100
AcDbEntity
  8
0
  6
CONTINUOUS
 62
     0
100
AcDbLine
 10
0.0
 20
2.5000013411
 30
0.0
 11
0.0
 21
3.750000149
 31
0.0
  0
LINE
  5
76C
330
F79
100
AcDbEntity
  8
0
  6
CONTINUOUS
 62
     0
100
AcDbLine
 10
-2.4999999441
 20
0.0
 30
0.0
 11
-3.7499999162
 21
0.0
 31
0.0
  0
LINE
  5
76D
330
F79
100
AcDbEntity
  8
0
  6
CONTINUOUS
 62
     0
100
AcDbLine
 10
0.0
 20
-2.4999976158
 30
0.0
 11
0.0
 21
-3.7499964237
 31
0.0
  0
LINE
  5
76E
330
F79
100
AcDbEntity
  8
0
  6
CONTINUOUS
 62
     0
100
AcDbLine
 10
2.4999999441
 20
0.0
 30
0.0
 11
3.7499999162
 21
0.0
 31
0.0
  0
ENDBLK
  5
766
330
F79
100
AcDbEntity
  8
0
100
AcDbBlockEnd
  0
BLOCK
  5
F7A
330
F7B
100
AcDbEntity
  8
0
100
AcDbBlockBegin
  2
SW_CENTERMARKSYMBOL_7
 70
     0
 10
0.0
 20
0.0
 30
0.0
  3
SW_CENTERMARKSYMBOL_7
  1

  0
LINE
  5
773
330
F7B
100
AcDbEntity
  8
0
  6
CONTINUOUS
 62
     0
100
AcDbLine
 10
0.0
 20
0.0
 30
0.0
 11
0.0
 21
1.2499988079
 31
0.0
  0
LINE
  5
774
330
F7B
100
AcDbEntity
  8
0
  6
CONTINUOUS
 62
     0
100
AcDbLine
 10
0.0
 20
0.0
 30
0.0
 11
-1.2499999721
 21
0.0
 31
0.0
  0
LINE
  5
775
330
F7B
100
AcDbEntity
  8
0
  6
CONTINUOUS
 62
     0
100
AcDbLine
 10
0.0
 20
0.0
 30
0.0
 11
0.0
 21
-1.2499988079
 31
0.0
  0
LINE
  5
776
330
F7B
100
AcDbEntity
  8
0
  6
CONTINUOUS
 62
     0
100
AcDbLine
 10
0.0
 20
0.0
 30
0.0
 11
1.2499999721
 21
0.0
 31
0.0
  0
LINE
  5
777
330
F7B
100
AcDbEntity
  8
0
  6
CONTINUOUS
 62
     0
100
AcDbLine
 10
0.0
 20
2.4999976158
 30
0.0
 11
0.0
 21
3.7499964237
 31
0.0
  0
LINE
  5
778
330
F7B
100
AcDbEntity
  8
0
  6
CONTINUOUS
 62
     0
100
AcDbLine
 10
-2.4999999441
 20
0.0
 30
0.0
 11
-3.7499999162
 21
0.0
 31
0.0
  0
LINE
  5
779
330
F7B
100
AcDbEntity
  8
0
  6
CONTINUOUS
 62
     0
100
AcDbLine
 10
0.0
 20
-2.4999976158
 30
0.0
 11
0.0
 21
-3.7499964237
 31
0.0
  0
LINE
  5
77A
330
F7B
100
AcDbEntity
  8
0
  6
CONTINUOUS
 62
     0
100
AcDbLine
 10
2.4999999441
 20
0.0
 30
0.0
 11
3.7499999162
 21
0.0
 31
0.0
  0
ENDBLK
  5
772
330
F7B
100
AcDbEntity
  8
0
100
AcDbBlockEnd
  0
BLOCK
  5
F7C
330
F7D
100
AcDbEntity
  8
0
100
AcDbBlockBegin
  2
SW_CENTERMARKSYMBOL_8
 70
     0
 10
0.0
 20
0.0
 30
0.0
  3
SW_CENTERMARKSYMBOL_8
  1

  0
LINE
  5
77F
330
F7D
100
AcDbEntity
  8
0
  6
CONTINUOUS
 62
     0
100
AcDbLine
 10
0.0
 20
0.0
 30
0.0
 11
0.0
 21
1.2499988079
 31
0.0
  0
LINE
  5
780
330
F7D
100
AcDbEntity
  8
0
  6
CONTINUOUS
 62
     0
100
AcDbLine
 10
0.0
 20
0.0
 30
0.0
 11
-1.2499999721
 21
0.0
 31
0.0
  0
LINE
  5
781
330
F7D
100
AcDbEntity
  8
0
  6
CONTINUOUS
 62
     0
100
AcDbLine
 10
0.0
 20
0.0
 30
0.0
 11
0.0
 21
-1.2499988079
 31
0.0
  0
LINE
  5
782
330
F7D
100
AcDbEntity
  8
0
  6
CONTINUOUS
 62
     0
100
AcDbLine
 10
0.0
 20
0.0
 30
0.0
 11
1.2499999721
 21
0.0
 31
0.0
  0
LINE
  5
783
330
F7D
100
AcDbEntity
  8
0
  6
CONTINUOUS
 62
     0
100
AcDbLine
 10
0.0
 20
2.4999976158
 30
0.0
 11
0.0
 21
3.7500113249
 31
0.0
  0
LINE
  5
784
330
F7D
100
AcDbEntity
  8
0
  6
CONTINUOUS
 62
     0
100
AcDbLine
 10
-2.4999999441
 20
0.0
 30
0.0
 11
-3.7499999162
 21
0.0
 31
0.0
  0
LINE
  5
785
330
F7D
100
AcDbEntity
  8
0
  6
CONTINUOUS
 62
     0
100
AcDbLine
 10
0.0
 20
-2.4999976158
 30
0.0
 11
0.0
 21
-3.7499964237
 31
0.0
  0
LINE
  5
786
330
F7D
100
AcDbEntity
  8
0
  6
CONTINUOUS
 62
     0
100
AcDbLine
 10
2.4999999441
 20
0.0
 30
0.0
 11
3.7499999162
 21
0.0
 31
0.0
  0
ENDBLK
  5
77E
330
F7D
100
AcDbEntity
  8
0
100
AcDbBlockEnd
  0
BLOCK
  5
F7E
330
F7F
100
AcDbEntity
  8
0
100
AcDbBlockBegin
  2
SW_CENTERMARKSYMBOL_9
 70
     0
 10
0.0
 20
0.0
 30
0.0
  3
SW_CENTERMARKSYMBOL_9
  1

  0
LINE
  5
78B
330
F7F
100
AcDbEntity
  8
0
  6
CONTINUOUS
 62
     0
100
AcDbLine
 10
0.0
 20
0.0
 30
0.0
 11
0.0
 21
1.2499988079
 31
0.0
  0
LINE
  5
78C
330
F7F
100
AcDbEntity
  8
0
  6
CONTINUOUS
 62
     0
100
AcDbLine
 10
0.0
 20
0.0
 30
0.0
 11
-1.2499999721
 21
0.0
 31
0.0
  0
LINE
  5
78D
330
F7F
100
AcDbEntity
  8
0
  6
CONTINUOUS
 62
     0
100
AcDbLine
 10
0.0
 20
0.0
 30
0.0
 11
0.0
 21
-1.2499988079
 31
0.0
  0
LINE
  5
78E
330
F7F
100
AcDbEntity
  8
0
  6
CONTINUOUS
 62
     0
100
AcDbLine
 10
0.0
 20
0.0
 30
0.0
 11
1.2499999721
 21
0.0
 31
0.0
  0
LINE
  5
78F
330
F7F
100
AcDbEntity
  8
0
  6
CONTINUOUS
 62
     0
100
AcDbLine
 10
0.0
 20
2.4999976158
 30
0.0
 11
0.0
 21
3.7499964237
 31
0.0
  0
LINE
  5
790
330
F7F
100
AcDbEntity
  8
0
  6
CONTINUOUS
 62
     0
100
AcDbLine
 10
-2.4999999441
 20
0.0
 30
0.0
 11
-3.7499999162
 21
0.0
 31
0.0
  0
LINE
  5
791
330
F7F
100
AcDbEntity
  8
0
  6
CONTINUOUS
 62
     0
100
AcDbLine
 10
0.0
 20
-2.4999976158
 30
0.0
 11
0.0
 21
-3.7499964237
 31
0.0
  0
LINE
  5
792
330
F7F
100
AcDbEntity
  8
0
  6
CONTINUOUS
 62
     0
100
AcDbLine
 10
2.4999999441
 20
0.0
 30
0.0
 11
3.7499999162
 21
0.0
 31
0.0
  0
ENDBLK
  5
78A
330
F7F
100
AcDbEntity
  8
0
100
AcDbBlockEnd
  0
BLOCK
  5
F80
330
F81
100
AcDbEntity
  8
0
100
AcDbBlockBegin
  2
SW_CENTERMARKSYMBOL_10
 70
     0
 10
0.0
 20
0.0
 30
0.0
  3
SW_CENTERMARKSYMBOL_10
  1

  0
LINE
  5
797
330
F81
100
AcDbEntity
  8
0
  6
CONTINUOUS
 62
     0
100
AcDbLine
 10
0.0
 20
0.0
 30
0.0
 11
0.0
 21
1.2499988079
 31
0.0
  0
LINE
  5
798
330
F81
100
AcDbEntity
  8
0
  6
CONTINUOUS
 62
     0
100
AcDbLine
 10
0.0
 20
0.0
 30
0.0
 11
-1.2499999721
 21
0.0
 31
0.0
  0
LINE
  5
799
330
F81
100
AcDbEntity
  8
0
  6
CONTINUOUS
 62
     0
100
AcDbLine
 10
0.0
 20
0.0
 30
0.0
 11
0.0
 21
-1.2500286102
 31
0.0
  0
LINE
  5
79A
330
F81
100
AcDbEntity
  8
0
  6
CONTINUOUS
 62
     0
100
AcDbLine
 10
0.0
 20
0.0
 30
0.0
 11
1.2499999721
 21
0.0
 31
0.0
  0
LINE
  5
79B
330
F81
100
AcDbEntity
  8
0
  6
CONTINUOUS
 62
     0
100
AcDbLine
 10
0.0
 20
2.4999976158
 30
0.0
 11
0.0
 21
3.7499964237
 31
0.0
  0
LINE
  5
79C
330
F81
100
AcDbEntity
  8
0
  6
CONTINUOUS
 62
     0
100
AcDbLine
 10
-2.4999999441
 20
0.0
 30
0.0
 11
-3.7499999162
 21
0.0
 31
0.0
  0
LINE
  5
79D
330
F81
100
AcDbEntity
  8
0
  6
CONTINUOUS
 62
     0
100
AcDbLine
 10
0.0
 20
-2.5000274181
 30
0.0
 11
0.0
 21
-3.750026226
 31
0.0
  0
LINE
  5
79E
330
F81
100
AcDbEntity
  8
0
  6
CONTINUOUS
 62
     0
100
AcDbLine
 10
2.4999999441
 20
0.0
 30
0.0
 11
3.7499999162
 21
0.0
 31
0.0
  0
ENDBLK
  5
796
330
F81
100
AcDbEntity
  8
0
100
AcDbBlockEnd
  0
BLOCK
  5
F82
330
F83
100
AcDbEntity
  8
0
100
AcDbBlockBegin
  2
SW_CENTERMARKSYMBOL_11
 70
     0
 10
0.0
 20
0.0
 30
0.0
  3
SW_CENTERMARKSYMBOL_11
  1

  0
LINE
  5
7A3
330
F83
100
AcDbEntity
  8
0
  6
CONTINUOUS
 62
     0
100
AcDbLine
 10
0.0
 20
0.0
 30
0.0
 11
0.0
 21
1.2499988079
 31
0.0
  0
LINE
  5
7A4
330
F83
100
AcDbEntity
  8
0
  6
CONTINUOUS
 62
     0
100
AcDbLine
 10
0.0
 20
0.0
 30
0.0
 11
-1.2499999721
 21
0.0
 31
0.0
  0
LINE
  5
7A5
330
F83
100
AcDbEntity
  8
0
  6
CONTINUOUS
 62
     0
100
AcDbLine
 10
0.0
 20
0.0
 30
0.0
 11
0.0
 21
-1.2499988079
 31
0.0
  0
LINE
  5
7A6
330
F83
100
AcDbEntity
  8
0
  6
CONTINUOUS
 62
     0
100
AcDbLine
 10
0.0
 20
0.0
 30
0.0
 11
1.2499999721
 21
0.0
 31
0.0
  0
LINE
  5
7A7
330
F83
100
AcDbEntity
  8
0
  6
CONTINUOUS
 62
     0
100
AcDbLine
 10
0.0
 20
2.4999976158
 30
0.0
 11
0.0
 21
3.9999783039
 31
0.0
  0
LINE
  5
7A8
330
F83
100
AcDbEntity
  8
0
  6
CONTINUOUS
 62
     0
100
AcDbLine
 10
-2.4999999441
 20
0.0
 30
0.0
 11
-4.00000019
 21
0.0
 31
0.0
  0
LINE
  5
7A9
330
F83
100
AcDbEntity
  8
0
  6
CONTINUOUS
 62
     0
100
AcDbLine
 10
0.0
 20
-2.4999976158
 30
0.0
 11
0.0
 21
-4.0000081062
 31
0.0
  0
LINE
  5
7AA
330
F83
100
AcDbEntity
  8
0
  6
CONTINUOUS
 62
     0
100
AcDbLine
 10
2.4999999441
 20
0.0
 30
0.0
 11
4.00000019
 21
0.0
 31
0.0
  0
ENDBLK
  5
7A2
330
F83
100
AcDbEntity
  8
0
100
AcDbBlockEnd
  0
BLOCK
  5
F84
330
F85
100
AcDbEntity
  8
0
100
AcDbBlockBegin
  2
SW_CENTERMARKSYMBOL_12
 70
     0
 10
0.0
 20
0.0
 30
0.0
  3
SW_CENTERMARKSYMBOL_12
  1

  0
LINE
  5
7AF
330
F85
100
AcDbEntity
  8
0
  6
CONTINUOUS
 62
     0
100
AcDbLine
 10
0.0
 20
0.0
 30
0.0
 11
0.0
 21
1.2499988079
 31
0.0
  0
LINE
  5
7B0
330
F85
100
AcDbEntity
  8
0
  6
CONTINUOUS
 62
     0
100
AcDbLine
 10
0.0
 20
0.0
 30
0.0
 11
-1.2499999721
 21
0.0
 31
0.0
  0
LINE
  5
7B1
330
F85
100
AcDbEntity
  8
0
  6
CONTINUOUS
 62
     0
100
AcDbLine
 10
0.0
 20
0.0
 30
0.0
 11
0.0
 21
-1.2499988079
 31
0.0
  0
LINE
  5
7B2
330
F85
100
AcDbEntity
  8
0
  6
CONTINUOUS
 62
     0
100
AcDbLine
 10
0.0
 20
0.0
 30
0.0
 11
1.2499999721
 21
0.0
 31
0.0
  0
LINE
  5
7B3
330
F85
100
AcDbEntity
  8
0
  6
CONTINUOUS
 62
     0
100
AcDbLine
 10
0.0
 20
2.4999976158
 30
0.0
 11
0.0
 21
3.9999783039
 31
0.0
  0
LINE
  5
7B4
330
F85
100
AcDbEntity
  8
0
  6
CONTINUOUS
 62
     0
100
AcDbLine
 10
-2.4999999441
 20
0.0
 30
0.0
 11
-4.00000019
 21
0.0
 31
0.0
  0
LINE
  5
7B5
330
F85
100
AcDbEntity
  8
0
  6
CONTINUOUS
 62
     0
100
AcDbLine
 10
0.0
 20
-2.4999976158
 30
0.0
 11
0.0
 21
-4.0000081062
 31
0.0
  0
LINE
  5
7B6
330
F85
100
AcDbEntity
  8
0
  6
CONTINUOUS
 62
     0
100
AcDbLine
 10
2.4999999441
 20
0.0
 30
0.0
 11
4.00000019
 21
0.0
 31
0.0
  0
ENDBLK
  5
7AE
330
F85
100
AcDbEntity
  8
0
100
AcDbBlockEnd
  0
BLOCK
  5
F86
330
F87
100
AcDbEntity
  8
0
100
AcDbBlockBegin
  2
SW_BROKEN_VIEW_1
 70
     0
 10
0.0
 20
0.0
 30
0.0
  3
SW_BROKEN_VIEW_1
  1

  0
ENDBLK
  5
7E4
330
F87
100
AcDbEntity
  8
0
100
AcDbBlockEnd
  0
BLOCK
  5
F88
330
F89
100
AcDbEntity
  8
0
100
AcDbBlockBegin
  2
_D_12
 70
     0
 10
0.0
 20
0.0
 30
0.0
  3
_D_12
  1

  0
SOLID
  5
947
330
F89
100
AcDbEntity
  8
0
  6
CONTINUOUS
 62
     7
100
AcDbTrace
 10
117.5629083372
 20
88.3931046822
 30
0.0
 11
120.0629083372
 21
88.0084892976
 31
0.0
 12
120.0629083372
 22
88.7777200668
 32
0.0
 13
120.0629083372
 23
88.7777200668
 33
0.0
  0
SOLID
  5
948
330
F89
100
AcDbEntity
  8
0
  6
CONTINUOUS
 62
     7
100
AcDbTrace
 10
139.4629083372
 20
88.3931046822
 30
0.0
 11
136.9629083372
 21
88.7777200668
 31
0.0
 12
136.9629083372
 22
88.0084892976
 32
0.0
 13
136.9629083372
 23
88.0084892976
 33
0.0
  0
LINE
  5
949
330
F89
100
AcDbEntity
  8
0
  6
CONTINUOUS
 62
     7
100
AcDbLine
 10
139.4629083372
 20
95.9069615818
 30
0.0
 11
139.4629083372
 21
87.3931046822
 31
0.0
  0
LINE
  5
94A
330
F89
100
AcDbEntity
  8
0
  6
CONTINUOUS
 62
     7
100
AcDbLine
 10
117.5629083372
 20
88.3931046822
 30
0.0
 11
139.4629083372
 21
88.3931046822
 31
0.0
  0
TEXT
  5
94B
330
F89
100
AcDbEntity
  8
0
  6
CONTINUOUS
 62
     7
100
AcDbText
 10
126.6031861123
 20
3308.5624539375
 30
-67.5468018079
 40
2.5
  1
44
 41
0.7
 11
126.6031861123
 21
3311.0624539375
 31
-67.5468018079
100
AcDbText
 73
     3
  0
ENDBLK
  5
946
330
F89
100
AcDbEntity
  8
0
100
AcDbBlockEnd
  0
BLOCK
  5
F8A
330
F8B
100
AcDbEntity
  8
0
100
AcDbBlockBegin
  2
_D_13
 70
     0
 10
0.0
 20
0.0
 30
0.0
  3
_D_13
  1

  0
SOLID
  5
950
330
F8B
100
AcDbEntity
  8
0
  6
CONTINUOUS
 62
     7
100
AcDbTrace
 10
117.5629083372
 20
542.5282431272
 30
0.0
 11
120.0629083372
 21
542.1436277426
 31
0.0
 12
120.0629083372
 22
542.9128585118
 32
0.0
 13
120.0629083372
 23
542.9128585118
 33
0.0
  0
SOLID
  5
951
330
F8B
100
AcDbEntity
  8
0
  6
CONTINUOUS
 62
     7
100
AcDbTrace
 10
139.4629083372
 20
542.5282431272
 30
0.0
 11
136.9629083372
 21
542.9128585118
 31
0.0
 12
136.9629083372
 22
542.1436277426
 32
0.0
 13
136.9629083372
 23
542.1436277426
 33
0.0
  0
LINE
  5
952
330
F8B
100
AcDbEntity
  8
0
  6
CONTINUOUS
 62
     7
100
AcDbLine
 10
139.4629083372
 20
531.0147354402
 30
0.0
 11
139.4629083372
 21
543.5282431272
 31
0.0
  0
LINE
  5
953
330
F8B
100
AcDbEntity
  8
0
  6
CONTINUOUS
 62
     7
100
AcDbLine
 10
117.5629083372
 20
542.5282431272
 30
0.0
 11
139.4629083372
 21
542.5282431272
 31
0.0
  0
TEXT
  5
954
330
F8B
100
AcDbEntity
  8
0
  6
CONTINUOUS
 62
     7
100
AcDbText
 10
125.170894531
 20
3762.6975923825
 30
-67.5468018079
 40
2.5
  1
43.8
 41
0.7
 11
125.170894531
 21
3765.1975923825
 31
-67.5468018079
100
AcDbText
 73
     3
  0
ENDBLK
  5
94F
330
F8B
100
AcDbEntity
  8
0
100
AcDbBlockEnd
  0
BLOCK
  5
F8C
330
F8D
100
AcDbEntity
  8
0
100
AcDbBlockBegin
  2
_D_14
 70
     0
 10
0.0
 20
0.0
 30
0.0
  3
_D_14
  1

  0
SOLID
  5
959
330
F8D
100
AcDbEntity
  8
0
  6
CONTINUOUS
 62
     7
100
AcDbTrace
 10
99.9608249888
 20
521.9968422214
 30
0.0
 11
100.3454403734
 21
524.4968422214
 31
0.0
 12
99.5762096042
 22
524.4968422214
 32
0.0
 13
99.5762096042
 23
524.4968422214
 33
0.0
  0
SOLID
  5
95A
330
F8D
100
AcDbEntity
  8
0
  6
CONTINUOUS
 62
     7
100
AcDbTrace
 10
99.9608249888
 20
517.4968422214
 30
0.0
 11
99.5762096042
 21
514.9968422214
 31
0.0
 12
100.3454403734
 22
514.9968422214
 32
0.0
 13
100.3454403734
 23
514.9968422214
 33
0.0
  0
LINE
  5
95B
330
F8D
100
AcDbEntity
  8
0
  6
CONTINUOUS
 62
     7
100
AcDbLine
 10
108.0629083372
 20
521.9968422214
 30
0.0
 11
98.9608249888
 21
521.9968422214
 31
0.0
  0
LINE
  5
95C
330
F8D
100
AcDbEntity
  8
0
  6
CONTINUOUS
 62
     7
100
AcDbLine
 10
108.0629083372
 20
517.4968422214
 30
0.0
 11
98.9608249888
 21
517.4968422214
 31
0.0
  0
LINE
  5
95D
330
F8D
100
AcDbEntity
  8
0
  6
CONTINUOUS
 62
     7
100
AcDbLine
 10
99.9608249888
 20
521.9968422214
 30
0.0
 11
99.9608249888
 21
530.7880139531
 31
0.0
  0
LINE
  5
95E
330
F8D
100
AcDbEntity
  8
0
  6
CONTINUOUS
 62
     7
100
AcDbLine
 10
99.9608249888
 20
521.9968422214
 30
0.0
 11
99.9608249888
 21
517.4968422214
 31
0.0
  0
LINE
  5
95F
330
F8D
100
AcDbEntity
  8
0
  6
CONTINUOUS
 62
     7
100
AcDbLine
 10
99.9608249888
 20
517.4968422214
 30
0.0
 11
99.9608249888
 21
512.6891499137
 31
0.0
  0
INSERT
  5
967
330
F8D
100
AcDbEntity
  8
0
  6
CONTINUOUS
 62
     7
100
AcDbBlockReference
  2
SW_SYMBOL_MOD_BOX
 10
99.5994900812
 20
525.4251665988
 30
0.0
 41
0.0032226693
 42
0.0032226693
 43
0.0032226693
 50
90.0
  0
TEXT
  5
968
330
F8D
100
AcDbEntity
  8
0
  6
CONTINUOUS
 62
     7
100
AcDbText
 10
-3120.2154691389
 20
528.8782916119
 30
-67.5468018079
 40
2.5
  1
9
 50
90.0
 41
0.7
 11
-3122.7154691389
 21
528.8782916119
 31
-67.5468018079
100
AcDbText
 73
     3
  0
ENDBLK
  5
958
330
F8D
100
AcDbEntity
  8
0
100
AcDbBlockEnd
  0
BLOCK
  5
F8E
330
F8F
100
AcDbEntity
  8
0
100
AcDbBlockBegin
  2
SW_SYMBOL_MOD_BOX
 70
     0
 10
0.0
 20
0.0
 30
0.0
  3
SW_SYMBOL_MOD_BOX
  1

  0
LINE
  5
963
330
F8F
100
AcDbEntity
  8
0
  6
CONTINUOUS
 62
     0
100
AcDbLine
 10
200.0
 20
200.0
 30
0.0
 11
800.0
 21
200.0
 31
0.0
  0
LINE
  5
964
330
F8F
100
AcDbEntity
  8
0
  6
CONTINUOUS
 62
     0
100
AcDbLine
 10
200.0
 20
200.0
 30
0.0
 11
200.0
 21
800.0
 31
0.0
  0
LINE
  5
965
330
F8F
100
AcDbEntity
  8
0
  6
CONTINUOUS
 62
     0
100
AcDbLine
 10
200.0
 20
800.0
 30
0.0
 11
800.0
 21
800.0
 31
0.0
  0
LINE
  5
966
330
F8F
100
AcDbEntity
  8
0
  6
CONTINUOUS
 62
     0
100
AcDbLine
 10
800.0
 20
800.0
 30
0.0
 11
800.0
 21
200.0
 31
0.0
  0
ENDBLK
  5
962
330
F8F
100
AcDbEntity
  8
0
100
AcDbBlockEnd
  0
BLOCK
  5
F90
330
F91
100
AcDbEntity
  8
0
100
AcDbBlockBegin
  2
_D_15
 70
     0
 10
0.0
 20
0.0
 30
0.0
  3
_D_15
  1

  0
SOLID
  5
96D
330
F91
100
AcDbEntity
  8
0
  6
CONTINUOUS
 62
     7
100
AcDbTrace
 10
107.5629083372
 20
532.8263965276
 30
0.0
 11
110.0629083372
 21
532.4417811429
 31
0.0
 12
110.0629083372
 22
533.2110119122
 32
0.0
 13
110.0629083372
 23
533.2110119122
 33
0.0
  0
SOLID
  5
96E
330
F91
100
AcDbEntity
  8
0
  6
CONTINUOUS
 62
     7
100
AcDbTrace
 10
117.5629083372
 20
532.8263965276
 30
0.0
 11
115.0629083372
 21
533.2110119122
 31
0.0
 12
115.0629083372
 22
532.4417811429
 32
0.0
 13
115.0629083372
 23
532.4417811429
 33
0.0
  0
LINE
  5
96F
330
F91
100
AcDbEntity
  8
0
  6
CONTINUOUS
 62
     7
100
AcDbLine
 10
107.5629083372
 20
521.4968422214
 30
0.0
 11
107.5629083372
 21
533.8263965276
 31
0.0
  0
LINE
  5
970
330
F91
100
AcDbEntity
  8
0
  6
CONTINUOUS
 62
     7
100
AcDbLine
 10
107.5629083372
 20
532.8263965276
 30
0.0
 11
117.5629083372
 21
532.8263965276
 31
0.0
  0
TEXT
  5
971
330
F91
100
AcDbEntity
  8
0
  6
CONTINUOUS
 62
     7
100
AcDbText
 10
110.6531861123
 20
3752.9957457829
 30
-67.5468018079
 40
2.5
  1
20
 41
0.7
 11
110.6531861123
 21
3755.4957457829
 31
-67.5468018079
100
AcDbText
 73
     3
  0
ENDBLK
  5
96C
330
F91
100
AcDbEntity
  8
0
100
AcDbBlockEnd
  0
BLOCK
  5
F92
330
F93
100
AcDbEntity
  8
0
100
AcDbBlockBegin
  2
_D_16
 70
     0
 10
0.0
 20
0.0
 30
0.0
  3
_D_16
  1

  0
SOLID
  5
976
330
F93
100
AcDbEntity
  8
0
  6
CONTINUOUS
 62
     7
100
AcDbTrace
 10
71.8068506634
 20
519.7468422214
 30
0.0
 11
71.4222352788
 21
517.2468422214
 31
0.0
 12
72.1914660481
 22
517.2468422214
 32
0.0
 13
72.1914660481
 23
517.2468422214
 33
0.0
  0
SOLID
  5
977
330
F93
100
AcDbEntity
  8
0
  6
CONTINUOUS
 62
     7
100
AcDbTrace
 10
71.8068506634
 20
328.7513958611
 30
0.0
 11
72.1914660481
 21
331.2513958611
 31
0.0
 12
71.4222352788
 22
331.2513958611
 32
0.0
 13
71.4222352788
 23
331.2513958611
 33
0.0
  0
LINE
  5
978
330
F93
100
AcDbEntity
  8
0
  6
CONTINUOUS
 62
     7
100
AcDbLine
 10
106.0629083372
 20
519.7468422214
 30
0.0
 11
70.8068506634
 21
519.7468422214
 31
0.0
  0
LINE
  5
979
330
F93
100
AcDbEntity
  8
0
  6
CONTINUOUS
 62
     7
100
AcDbLine
 10
147.5629083372
 20
328.7513958611
 30
0.0
 11
70.8068506634
 21
328.7513958611
 31
0.0
  0
LINE
  5
97A
330
F93
100
AcDbEntity
  8
0
  6
CONTINUOUS
 62
     7
100
AcDbLine
 10
71.8068506634
 20
519.7468422214
 30
0.0
 11
71.8068506634
 21
328.7513958611
 31
0.0
  0
TEXT
  5
97B
330
F93
100
AcDbEntity
  8
0
  6
CONTINUOUS
 62
     7
100
AcDbText
 10
-3148.3624985918
 20
421.3845356458
 30
-67.5468018079
 40
2.5
  1
720
 50
90.0
 41
0.7
 11
-3150.8624985918
 21
421.3845356458
 31
-67.5468018079
100
AcDbText
 73
     3
  0
ENDBLK
  5
975
330
F93
100
AcDbEntity
  8
0
100
AcDbBlockEnd
  0
BLOCK
  5
F94
330
F95
100
AcDbEntity
  8
0
100
AcDbBlockBegin
  2
_D_17
 70
     0
 10
0.0
 20
0.0
 30
0.0
  3
_D_17
  1

  0
SOLID
  5
980
330
F95
100
AcDbEntity
  8
0
  6
CONTINUOUS
 62
     7
100
AcDbTrace
 10
102.4038289882
 20
445.3468422214
 30
0.0
 11
102.0192136036
 21
442.8468422214
 31
0.0
 12
102.7884443728
 22
442.8468422214
 32
0.0
 13
102.7884443728
 23
442.8468422214
 33
0.0
  0
SOLID
  5
981
330
F95
100
AcDbEntity
  8
0
  6
CONTINUOUS
 62
     7
100
AcDbTrace
 10
102.4038289882
 20
450.8468422214
 30
0.0
 11
102.7884443728
 21
453.3468422214
 31
0.0
 12
102.0192136036
 22
453.3468422214
 32
0.0
 13
102.0192136036
 23
453.3468422214
 33
0.0
  0
LINE
  5
982
330
F95
100
AcDbEntity
  8
0
  6
CONTINUOUS
 62
     7
100
AcDbLine
 10
113.6629083372
 20
445.3468422214
 30
0.0
 11
101.4038289882
 21
445.3468422214
 31
0.0
  0
LINE
  5
983
330
F95
100
AcDbEntity
  8
0
  6
CONTINUOUS
 62
     7
100
AcDbLine
 10
113.6629083372
 20
450.8468422214
 30
0.0
 11
101.4038289882
 21
450.8468422214
 31
0.0
  0
LINE
  5
984
330
F95
100
AcDbEntity
  8
0
  6
CONTINUOUS
 62
     7
100
AcDbLine
 10
102.4038289882
 20
445.3468422214
 30
0.0
 11
102.4038289882
 21
440.5391499137
 31
0.0
  0
LINE
  5
985
330
F95
100
AcDbEntity
  8
0
  6
CONTINUOUS
 62
     7
100
AcDbLine
 10
102.4038289882
 20
445.3468422214
 30
0.0
 11
102.4038289882
 21
450.8468422214
 31
0.0
  0
LINE
  5
986
330
F95
100
AcDbEntity
  8
0
  6
CONTINUOUS
 62
     7
100
AcDbLine
 10
102.4038289882
 20
450.8468422214
 30
0.0
 11
102.4038289882
 21
461.5750872375
 31
0.0
  0
TEXT
  5
987
330
F95
100
AcDbEntity
  8
0
  6
CONTINUOUS
 62
     7
100
AcDbText
 10
-3117.7655204417
 20
454.1106774316
 30
-67.5468018079
 40
2.5
  1
%%c
 50
90.0
 41
0.7
 11
-3120.2655204417
 21
454.1106774316
 31
-67.5468018079
100
AcDbText
 73
     3
  0
TEXT
  5
988
330
F95
100
AcDbEntity
  8
0
  6
CONTINUOUS
 62
     7
100
AcDbText
 10
-3117.7724649067
 20
457.7556427878
 30
-67.5468018079
 40
2.5
  1
11
 50
90.0
 41
0.7
 11
-3120.2724649067
 21
457.7556427878
 31
-67.5468018079
100
AcDbText
 73
     3
  0
ENDBLK
  5
97F
330
F95
100
AcDbEntity
  8
0
100
AcDbBlockEnd
  0
BLOCK
  5
F96
330
F97
100
AcDbEntity
  8
0
100
AcDbBlockBegin
  2
_D_18
 70
     0
 10
0.0
 20
0.0
 30
0.0
  3
_D_18
  1

  0
SOLID
  5
98D
330
F97
100
AcDbEntity
  8
0
  6
CONTINUOUS
 62
     7
100
AcDbTrace
 10
113.6629083372
 20
466.7820295054
 30
0.0
 11
111.1629083372
 21
467.16664489
 31
0.0
 12
111.1629083372
 22
466.3974141208
 32
0.0
 13
111.1629083372
 23
466.3974141208
 33
0.0
  0
SOLID
  5
98E
330
F97
100
AcDbEntity
  8
0
  6
CONTINUOUS
 62
     7
100
AcDbTrace
 10
117.5629083372
 20
466.7820295054
 30
0.0
 11
120.0629083372
 21
466.3974141208
 31
0.0
 12
120.0629083372
 22
467.16664489
 32
0.0
 13
120.0629083372
 23
467.16664489
 33
0.0
  0
LINE
  5
98F
330
F97
100
AcDbEntity
  8
0
  6
CONTINUOUS
 62
     7
100
AcDbLine
 10
113.6629083372
 20
450.8468422214
 30
0.0
 11
113.6629083372
 21
467.7820295054
 31
0.0
  0
LINE
  5
990
330
F97
100
AcDbEntity
  8
0
  6
CONTINUOUS
 62
     7
100
AcDbLine
 10
113.6629083372
 20
466.7820295054
 30
0.0
 11
103.5770996925
 21
466.7820295054
 31
0.0
  0
LINE
  5
991
330
F97
100
AcDbEntity
  8
0
  6
CONTINUOUS
 62
     7
100
AcDbLine
 10
113.6629083372
 20
466.7820295054
 30
0.0
 11
117.5629083372
 21
466.7820295054
 31
0.0
  0
LINE
  5
992
330
F97
100
AcDbEntity
  8
0
  6
CONTINUOUS
 62
     7
100
AcDbLine
 10
117.5629083372
 20
466.7820295054
 30
0.0
 11
122.3706006449
 21
466.7820295054
 31
0.0
  0
TEXT
  5
993
330
F97
100
AcDbEntity
  8
0
  6
CONTINUOUS
 62
     7
100
AcDbText
 10
103.5770996925
 20
3686.9513787607
 30
-67.5468018079
 40
2.5
  1
7.8
 41
0.7
 11
103.5770996925
 21
3689.4513787607
 31
-67.5468018079
100
AcDbText
 73
     3
  0
ENDBLK
  5
98C
330
F97
100
AcDbEntity
  8
0
100
AcDbBlockEnd
  0
BLOCK
  5
F98
330
F99
100
AcDbEntity
  8
0
100
AcDbBlockBegin
  2
_D_19
 70
     0
 10
0.0
 20
0.0
 30
0.0
  3
_D_19
  1

  0
SOLID
  5
998
330
F99
100
AcDbEntity
  8
0
  6
CONTINUOUS
 62
     7
100
AcDbTrace
 10
99.5711025306
 20
331.4013958611
 30
0.0
 11
99.9557179152
 21
333.9013958611
 31
0.0
 12
99.186487146
 22
333.9013958611
 32
0.0
 13
99.186487146
 23
333.9013958611
 33
0.0
  0
SOLID
  5
999
330
F99
100
AcDbEntity
  8
0
  6
CONTINUOUS
 62
     7
100
AcDbTrace
 10
99.5711025306
 20
347.4013958611
 30
0.0
 11
99.186487146
 21
344.9013958611
 31
0.0
 12
99.9557179152
 22
344.9013958611
 32
0.0
 13
99.9557179152
 23
344.9013958611
 33
0.0
  0
LINE
  5
99A
330
F99
100
AcDbEntity
  8
0
  6
CONTINUOUS
 62
     7
100
AcDbLine
 10
112.1334035901
 20
331.4013958611
 30
0.0
 11
98.5711025306
 21
331.4013958611
 31
0.0
  0
LINE
  5
99B
330
F99
100
AcDbEntity
  8
0
  6
CONTINUOUS
 62
     7
100
AcDbLine
 10
112.1334035901
 20
347.4013958611
 30
0.0
 11
98.5711025306
 21
347.4013958611
 31
0.0
  0
LINE
  5
99C
330
F99
100
AcDbEntity
  8
0
  6
CONTINUOUS
 62
     7
100
AcDbLine
 10
99.5711025306
 20
331.4013958611
 30
0.0
 11
99.5711025306
 21
347.4013958611
 31
0.0
  0
TEXT
  5
99D
330
F99
100
AcDbEntity
  8
0
  6
CONTINUOUS
 62
     7
100
AcDbText
 10
-3120.5982467247
 20
337.4916736363
 30
-67.5468018079
 40
2.5
  1
32
 50
90.0
 41
0.7
 11
-3123.0982467247
 21
337.4916736363
 31
-67.5468018079
100
AcDbText
 73
     3
  0
ENDBLK
  5
997
330
F99
100
AcDbEntity
  8
0
100
AcDbBlockEnd
  0
BLOCK
  5
F9A
330
F9B
100
AcDbEntity
  8
0
100
AcDbBlockBegin
  2
_D_20
 70
     0
 10
0.0
 20
0.0
 30
0.0
  3
_D_20
  1

  0
SOLID
  5
9A2
330
F9B
100
AcDbEntity
  8
0
  6
CONTINUOUS
 62
     7
100
AcDbTrace
 10
99.5711025306
 20
309.2513958611
 30
0.0
 11
99.186487146
 21
306.7513958611
 31
0.0
 12
99.9557179152
 22
306.7513958611
 32
0.0
 13
99.9557179152
 23
306.7513958611
 33
0.0
  0
SOLID
  5
9A3
330
F9B
100
AcDbEntity
  8
0
  6
CONTINUOUS
 62
     7
100
AcDbTrace
 10
99.5711025306
 20
294.2513958611
 30
0.0
 11
99.9557179152
 21
296.7513958611
 31
0.0
 12
99.186487146
 22
296.7513958611
 32
0.0
 13
99.186487146
 23
296.7513958611
 33
0.0
  0
LINE
  5
9A4
330
F9B
100
AcDbEntity
  8
0
  6
CONTINUOUS
 62
     7
100
AcDbLine
 10
107.7129083372
 20
309.2513958611
 30
0.0
 11
98.5711025306
 21
309.2513958611
 31
0.0
  0
LINE
  5
9A5
330
F9B
100
AcDbEntity
  8
0
  6
CONTINUOUS
 62
     7
100
AcDbLine
 10
107.7129083372
 20
294.2513958611
 30
0.0
 11
98.5711025306
 21
294.2513958611
 31
0.0
  0
LINE
  5
9A6
330
F9B
100
AcDbEntity
  8
0
  6
CONTINUOUS
 62
     7
100
AcDbLine
 10
99.5711025306
 20
309.2513958611
 30
0.0
 11
99.5711025306
 21
294.2513958611
 31
0.0
  0
TEXT
  5
9A7
330
F9B
100
AcDbEntity
  8
0
  6
CONTINUOUS
 62
     7
100
AcDbText
 10
-3120.5982467247
 20
299.8416736362
 30
-67.5468018079
 40
2.5
  1
30
 50
90.0
 41
0.7
 11
-3123.0982467247
 21
299.8416736362
 31
-67.5468018079
100
AcDbText
 73
     3
  0
ENDBLK
  5
9A1
330
F9B
100
AcDbEntity
  8
0
100
AcDbBlockEnd
  0
BLOCK
  5
F9C
330
F9D
100
AcDbEntity
  8
0
100
AcDbBlockBegin
  2
_D_21
 70
     0
 10
0.0
 20
0.0
 30
0.0
  3
_D_21
  1

  0
SOLID
  5
9AC
330
F9D
100
AcDbEntity
  8
0
  6
CONTINUOUS
 62
     7
100
AcDbTrace
 10
117.5629083372
 20
356.3245304833
 30
0.0
 11
120.0629083372
 21
355.9399150987
 31
0.0
 12
120.0629083372
 22
356.7091458679
 32
0.0
 13
120.0629083372
 23
356.7091458679
 33
0.0
  0
SOLID
  5
9AD
330
F9D
100
AcDbEntity
  8
0
  6
CONTINUOUS
 62
     7
100
AcDbTrace
 10
112.0629083372
 20
356.3245304833
 30
0.0
 11
109.5629083372
 21
356.7091458679
 31
0.0
 12
109.5629083372
 22
355.9399150987
 32
0.0
 13
109.5629083372
 23
355.9399150987
 33
0.0
  0
LINE
  5
9AE
330
F9D
100
AcDbEntity
  8
0
  6
CONTINUOUS
 62
     7
100
AcDbLine
 10
112.0629083372
 20
347.4013958611
 30
0.0
 11
112.0629083372
 21
357.3245304833
 31
0.0
  0
LINE
  5
9AF
330
F9D
100
AcDbEntity
  8
0
  6
CONTINUOUS
 62
     7
100
AcDbLine
 10
117.5629083372
 20
356.3245304833
 30
0.0
 11
122.3706006449
 21
356.3245304833
 31
0.0
  0
LINE
  5
9B0
330
F9D
100
AcDbEntity
  8
0
  6
CONTINUOUS
 62
     7
100
AcDbLine
 10
117.5629083372
 20
356.3245304833
 30
0.0
 11
112.0629083372
 21
356.3245304833
 31
0.0
  0
LINE
  5
9B1
330
F9D
100
AcDbEntity
  8
0
  6
CONTINUOUS
 62
     7
100
AcDbLine
 10
112.0629083372
 20
356.3245304833
 30
0.0
 11
107.2552160295
 21
356.3245304833
 31
0.0
  0
TEXT
  5
9B2
330
F9D
100
AcDbEntity
  8
0
  6
CONTINUOUS
 62
     7
100
AcDbText
 10
112.9031861124
 20
3576.4938797386
 30
-67.5468018079
 40
2.5
  1
11
 41
0.7
 11
112.9031861124
 21
3578.9938797386
 31
-67.5468018079
100
AcDbText
 73
     3
  0
ENDBLK
  5
9AB
330
F9D
100
AcDbEntity
  8
0
100
AcDbBlockEnd
  0
BLOCK
  5
F9E
330
F9F
100
AcDbEntity
  8
0
100
AcDbBlockBegin
  2
_D_22
 70
     0
 10
0.0
 20
0.0
 30
0.0
  3
_D_22
  1

  0
SOLID
  5
9B7
330
F9F
100
AcDbEntity
  8
0
  6
CONTINUOUS
 62
     7
100
AcDbTrace
 10
107.5629083372
 20
315.6530339396
 30
0.0
 11
105.0629083372
 21
316.0376493242
 31
0.0
 12
105.0629083372
 22
315.268418555
 32
0.0
 13
105.0629083372
 23
315.268418555
 33
0.0
  0
SOLID
  5
9B8
330
F9F
100
AcDbEntity
  8
0
  6
CONTINUOUS
 62
     7
100
AcDbTrace
 10
117.5629083372
 20
315.6530339396
 30
0.0
 11
120.0629083372
 21
315.268418555
 31
0.0
 12
120.0629083372
 22
316.0376493242
 32
0.0
 13
120.0629083372
 23
316.0376493242
 33
0.0
  0
LINE
  5
9B9
330
F9F
100
AcDbEntity
  8
0
  6
CONTINUOUS
 62
     7
100
AcDbLine
 10
107.5629083372
 20
309.1013958611
 30
0.0
 11
107.5629083372
 21
316.6530339396
 31
0.0
  0
LINE
  5
9BA
330
F9F
100
AcDbEntity
  8
0
  6
CONTINUOUS
 62
     7
100
AcDbLine
 10
107.5629083372
 20
315.6530339396
 30
0.0
 11
102.7552160295
 21
315.6530339396
 31
0.0
  0
LINE
  5
9BB
330
F9F
100
AcDbEntity
  8
0
  6
CONTINUOUS
 62
     7
100
AcDbLine
 10
107.5629083372
 20
315.6530339396
 30
0.0
 11
117.5629083372
 21
315.6530339396
 31
0.0
  0
LINE
  5
9BC
330
F9F
100
AcDbEntity
  8
0
  6
CONTINUOUS
 62
     7
100
AcDbLine
 10
117.5629083372
 20
315.6530339396
 30
0.0
 11
122.3706006449
 21
315.6530339396
 31
0.0
  0
TEXT
  5
9BD
330
F9F
100
AcDbEntity
  8
0
  6
CONTINUOUS
 62
     7
100
AcDbText
 10
110.6531861123
 20
3535.8223831949
 30
-67.5468018079
 40
2.5
  1
20
 41
0.7
 11
110.6531861123
 21
3538.3223831949
 31
-67.5468018079
100
AcDbText
 73
     3
  0
ENDBLK
  5
9B6
330
F9F
100
AcDbEntity
  8
0
100
AcDbBlockEnd
  0
BLOCK
  5
FA0
330
FA1
100
AcDbEntity
  8
0
100
AcDbBlockBegin
  2
_D_23
 70
     0
 10
0.0
 20
0.0
 30
0.0
  3
_D_23
  1

  0
SOLID
  5
9C2
330
FA1
100
AcDbEntity
  8
0
  6
CONTINUOUS
 62
     7
100
AcDbTrace
 10
90.1157236671
 20
301.7513958611
 30
0.0
 11
90.5003390517
 21
304.2513958611
 31
0.0
 12
89.7311082825
 22
304.2513958611
 32
0.0
 13
89.7311082825
 23
304.2513958611
 33
0.0
  0
SOLID
  5
9C3
330
FA1
100
AcDbEntity
  8
0
  6
CONTINUOUS
 62
     7
100
AcDbTrace
 10
90.1157236671
 20
328.7513958611
 30
0.0
 11
89.7311082825
 21
326.2513958611
 31
0.0
 12
90.5003390517
 22
326.2513958611
 32
0.0
 13
90.5003390517
 23
326.2513958611
 33
0.0
  0
LINE
  5
9C4
330
FA1
100
AcDbEntity
  8
0
  6
CONTINUOUS
 62
     7
100
AcDbLine
 10
105.7129083372
 20
301.7513958611
 30
0.0
 11
89.1157236671
 21
301.7513958611
 31
0.0
  0
LINE
  5
9C5
330
FA1
100
AcDbEntity
  8
0
  6
CONTINUOUS
 62
     7
100
AcDbLine
 10
147.5629083372
 20
328.7513958611
 30
0.0
 11
89.1157236671
 21
328.7513958611
 31
0.0
  0
LINE
  5
9C6
330
FA1
100
AcDbEntity
  8
0
  6
CONTINUOUS
 62
     7
100
AcDbLine
 10
90.1157236671
 20
301.7513958611
 30
0.0
 11
90.1157236671
 21
328.7513958611
 31
0.0
  0
TEXT
  5
9C7
330
FA1
100
AcDbEntity
  8
0
  6
CONTINUOUS
 62
     7
100
AcDbText
 10
-3130.0536255882
 20
313.3416736362
 30
-67.5468018079
 40
2.5
  1
54
 50
90.0
 41
0.7
 11
-3132.5536255882
 21
313.3416736362
 31
-67.5468018079
100
AcDbText
 73
     3
  0
ENDBLK
  5
9C1
330
FA1
100
AcDbEntity
  8
0
100
AcDbBlockEnd
  0
BLOCK
  5
FA2
330
FA3
100
AcDbEntity
  8
0
100
AcDbBlockBegin
  2
_D_24
 70
     0
 10
0.0
 20
0.0
 30
0.0
  3
_D_24
  1

  0
SOLID
  5
9CC
330
FA3
100
AcDbEntity
  8
0
  6
CONTINUOUS
 62
     7
100
AcDbTrace
 10
90.1157236671
 20
339.4013958611
 30
0.0
 11
90.5003390517
 21
341.9013958611
 31
0.0
 12
89.7311082825
 22
341.9013958611
 32
0.0
 13
89.7311082825
 23
341.9013958611
 33
0.0
  0
SOLID
  5
9CD
330
FA3
100
AcDbEntity
  8
0
  6
CONTINUOUS
 62
     7
100
AcDbTrace
 10
90.1157236671
 20
328.7513958611
 30
0.0
 11
89.7311082825
 21
326.2513958611
 31
0.0
 12
90.5003390517
 22
326.2513958611
 32
0.0
 13
90.5003390517
 23
326.2513958611
 33
0.0
  0
LINE
  5
9CE
330
FA3
100
AcDbEntity
  8
0
  6
CONTINUOUS
 62
     7
100
AcDbLine
 10
110.1334035901
 20
339.4013958611
 30
0.0
 11
89.1157236671
 21
339.4013958611
 31
0.0
  0
LINE
  5
9CF
330
FA3
100
AcDbEntity
  8
0
  6
CONTINUOUS
 62
     7
100
AcDbLine
 10
147.5629083372
 20
328.7513958611
 30
0.0
 11
89.1157236671
 21
328.7513958611
 31
0.0
  0
LINE
  5
9D0
330
FA3
100
AcDbEntity
  8
0
  6
CONTINUOUS
 62
     7
100
AcDbLine
 10
90.1157236671
 20
339.4013958611
 30
0.0
 11
90.1157236671
 21
344.2090881687
 31
0.0
  0
LINE
  5
9D1
330
FA3
100
AcDbEntity
  8
0
  6
CONTINUOUS
 62
     7
100
AcDbLine
 10
90.1157236671
 20
339.4013958611
 30
0.0
 11
90.1157236671
 21
328.7513958611
 31
0.0
  0
LINE
  5
9D2
330
FA3
100
AcDbEntity
  8
0
  6
CONTINUOUS
 62
     7
100
AcDbLine
 10
90.1157236671
 20
328.7513958611
 30
0.0
 11
90.1157236671
 21
323.9437035534
 31
0.0
  0
TEXT
  5
9D3
330
FA3
100
AcDbEntity
  8
0
  6
CONTINUOUS
 62
     7
100
AcDbText
 10
-3130.0536255882
 20
330.734382055
 30
-67.5468018079
 40
2.5
  1
21.3
 50
90.0
 41
0.7
 11
-3132.5536255882
 21
330.734382055
 31
-67.5468018079
100
AcDbText
 73
     3
  0
ENDBLK
  5
9CB
330
FA3
100
AcDbEntity
  8
0
100
AcDbBlockEnd
  0
BLOCK
  5
FA4
330
FA5
100
AcDbEntity
  8
0
100
AcDbBlockBegin
  2
_D_25
 70
     0
 10
0.0
 20
0.0
 30
0.0
  3
_D_25
  1

  0
SOLID
  5
9D8
330
FA5
100
AcDbEntity
  8
0
  6
CONTINUOUS
 62
     7
100
AcDbTrace
 10
117.5629083372
 20
375.4908125226
 30
0.0
 11
120.0629083372
 21
375.1061971379
 31
0.0
 12
120.0629083372
 22
375.8754279072
 32
0.0
 13
120.0629083372
 23
375.8754279072
 33
0.0
  0
SOLID
  5
9D9
330
FA5
100
AcDbEntity
  8
0
  6
CONTINUOUS
 62
     7
100
AcDbTrace
 10
162.5629083372
 20
375.4908125226
 30
0.0
 11
160.0629083372
 21
375.8754279072
 31
0.0
 12
160.0629083372
 22
375.1061971379
 32
0.0
 13
160.0629083372
 23
375.1061971379
 33
0.0
  0
LINE
  5
9DA
330
FA5
100
AcDbEntity
  8
0
  6
CONTINUOUS
 62
     7
100
AcDbLine
 10
162.5629083372
 20
346.0442890799
 30
0.0
 11
162.5629083372
 21
376.4908125226
 31
0.0
  0
LINE
  5
9DB
330
FA5
100
AcDbEntity
  8
0
  6
CONTINUOUS
 62
     7
100
AcDbLine
 10
117.5629083372
 20
375.4908125226
 30
0.0
 11
162.5629083372
 21
375.4908125226
 31
0.0
  0
TEXT
  5
9DC
330
FA5
100
AcDbEntity
  8
0
  6
CONTINUOUS
 62
     7
100
AcDbText
 10
138.1531861123
 20
3595.6601617778
 30
-67.5468018079
 40
2.5
  1
90
 41
0.7
 11
138.1531861123
 21
3598.1601617778
 31
-67.5468018079
100
AcDbText
 73
     3
  0
ENDBLK
  5
9D7
330
FA5
100
AcDbEntity
  8
0
100
AcDbBlockEnd
  0
BLOCK
  5
FA6
330
FA7
100
AcDbEntity
  8
0
100
AcDbBlockBegin
  2
_D_26
 70
     0
 10
0.0
 20
0.0
 30
0.0
  3
_D_26
  1

  0
SOLID
  5
9E1
330
FA7
100
AcDbEntity
  8
0
  6
CONTINUOUS
 62
     7
100
AcDbTrace
 10
204.5629083372
 20
536.6218422214
 30
0.0
 11
204.1782929525
 21
534.1218422214
 31
0.0
 12
204.9475237218
 22
534.1218422214
 32
0.0
 13
204.9475237218
 23
534.1218422214
 33
0.0
  0
SOLID
  5
9E2
330
FA7
100
AcDbEntity
  8
0
  6
CONTINUOUS
 62
     7
100
AcDbTrace
 10
204.5629083372
 20
502.8718422214
 30
0.0
 11
204.9475237218
 21
505.3718422214
 31
0.0
 12
204.1782929525
 22
505.3718422214
 32
0.0
 13
204.1782929525
 23
505.3718422214
 33
0.0
  0
LINE
  5
9E3
330
FA7
100
AcDbEntity
  8
0
  6
CONTINUOUS
 62
     7
100
AcDbLine
 10
133.855801556
 20
536.6218422214
 30
0.0
 11
205.5629083372
 21
536.6218422214
 31
0.0
  0
LINE
  5
9E4
330
FA7
100
AcDbEntity
  8
0
  6
CONTINUOUS
 62
     7
100
AcDbLine
 10
133.855801556
 20
502.8718422214
 30
0.0
 11
205.5629083372
 21
502.8718422214
 31
0.0
  0
LINE
  5
9E5
330
FA7
100
AcDbEntity
  8
0
  6
CONTINUOUS
 62
     7
100
AcDbLine
 10
204.5629083372
 20
536.6218422214
 30
0.0
 11
204.5629083372
 21
502.8718422214
 31
0.0
  0
TEXT
  5
9E6
330
FA7
100
AcDbEntity
  8
0
  6
CONTINUOUS
 62
     7
100
AcDbText
 10
-3015.6064409181
 20
516.4048284153
 30
-67.5468018079
 40
2.5
  1
67.5
 50
90.0
 41
0.7
 11
-3018.1064409181
 21
516.4048284153
 31
-67.5468018079
100
AcDbText
 73
     3
  0
ENDBLK
  5
9E0
330
FA7
100
AcDbEntity
  8
0
100
AcDbBlockEnd
  0
BLOCK
  5
FA8
330
FA9
100
AcDbEntity
  8
0
100
AcDbBlockBegin
  2
_D_27
 70
     0
 10
0.0
 20
0.0
 30
0.0
  3
_D_27
  1

  0
SOLID
  5
9EB
330
FA9
100
AcDbEntity
  8
0
  6
CONTINUOUS
 62
     7
100
AcDbTrace
 10
204.5629083372
 20
502.8718422214
 30
0.0
 11
204.1782929525
 21
500.3718422214
 31
0.0
 12
204.9475237218
 22
500.3718422214
 32
0.0
 13
204.9475237218
 23
500.3718422214
 33
0.0
  0
SOLID
  5
9EC
330
FA9
100
AcDbEntity
  8
0
  6
CONTINUOUS
 62
     7
100
AcDbTrace
 10
204.5629083372
 20
364.7513958611
 30
0.0
 11
204.9475237218
 21
367.2513958611
 31
0.0
 12
204.1782929525
 22
367.2513958611
 32
0.0
 13
204.1782929525
 23
367.2513958611
 33
0.0
  0
LINE
  5
9ED
330
FA9
100
AcDbEntity
  8
0
  6
CONTINUOUS
 62
     7
100
AcDbLine
 10
133.855801556
 20
502.8718422214
 30
0.0
 11
205.5629083372
 21
502.8718422214
 31
0.0
  0
LINE
  5
9EE
330
FA9
100
AcDbEntity
  8
0
  6
CONTINUOUS
 62
     7
100
AcDbLine
 10
128.3129083372
 20
364.7513958611
 30
0.0
 11
205.5629083372
 21
364.7513958611
 31
0.0
  0
LINE
  5
9EF
330
FA9
100
AcDbEntity
  8
0
  6
CONTINUOUS
 62
     7
100
AcDbLine
 10
204.5629083372
 20
502.8718422214
 30
0.0
 11
204.5629083372
 21
364.7513958611
 31
0.0
  0
TEXT
  5
9F0
330
FA9
100
AcDbEntity
  8
0
  6
CONTINUOUS
 62
     7
100
AcDbText
 10
-3015.6064409181
 20
428.559882661
 30
-67.5468018079
 40
2.5
  1
623.45
 50
90.0
 41
0.7
 11
-3018.1064409181
 21
428.559882661
 31
-67.5468018079
100
AcDbText
 73
     3
  0
ENDBLK
  5
9EA
330
FA9
100
AcDbEntity
  8
0
100
AcDbBlockEnd
  0
BLOCK
  5
FAA
330
FAB
100
AcDbEntity
  8
0
100
AcDbBlockBegin
  2
_D_28
 70
     0
 10
0.0
 20
0.0
 30
0.0
  3
_D_28
  1

  0
SOLID
  5
9F5
330
FAB
100
AcDbEntity
  8
0
  6
CONTINUOUS
 62
     7
100
AcDbTrace
 10
204.5629083372
 20
364.7513958611
 30
0.0
 11
204.1782929525
 21
362.2513958611
 31
0.0
 12
204.9475237218
 22
362.2513958611
 32
0.0
 13
204.9475237218
 23
362.2513958611
 33
0.0
  0
SOLID
  5
9F6
330
FAB
100
AcDbEntity
  8
0
  6
CONTINUOUS
 62
     7
100
AcDbTrace
 10
204.5629083372
 20
264.7513958611
 30
0.0
 11
204.9475237218
 21
267.2513958611
 31
0.0
 12
204.1782929525
 22
267.2513958611
 32
0.0
 13
204.1782929525
 23
267.2513958611
 33
0.0
  0
LINE
  5
9F7
330
FAB
100
AcDbEntity
  8
0
  6
CONTINUOUS
 62
     7
100
AcDbLine
 10
128.3129083372
 20
364.7513958611
 30
0.0
 11
205.5629083372
 21
364.7513958611
 31
0.0
  0
LINE
  5
9F8
330
FAB
100
AcDbEntity
  8
0
  6
CONTINUOUS
 62
     7
100
AcDbLine
 10
128.3129083372
 20
264.7513958611
 30
0.0
 11
205.5629083372
 21
264.7513958611
 31
0.0
  0
LINE
  5
9F9
330
FAB
100
AcDbEntity
  8
0
  6
CONTINUOUS
 62
     7
100
AcDbLine
 10
204.5629083372
 20
364.7513958611
 30
0.0
 11
204.5629083372
 21
264.7513958611
 31
0.0
  0
TEXT
  5
9FA
330
FAB
100
AcDbEntity
  8
0
  6
CONTINUOUS
 62
     7
100
AcDbText
 10
-3015.6064409181
 20
311.8868124656
 30
-67.5468018079
 40
2.5
  1
200
 50
90.0
 41
0.7
 11
-3018.1064409181
 21
311.8868124656
 31
-67.5468018079
100
AcDbText
 73
     3
  0
ENDBLK
  5
9F4
330
FAB
100
AcDbEntity
  8
0
100
AcDbBlockEnd
  0
BLOCK
  5
FAC
330
FAD
100
AcDbEntity
  8
0
100
AcDbBlockBegin
  2
_D_29
 70
     0
 10
0.0
 20
0.0
 30
0.0
  3
_D_29
  1

  0
SOLID
  5
9FF
330
FAD
100
AcDbEntity
  8
0
  6
CONTINUOUS
 62
     7
100
AcDbTrace
 10
204.5629083372
 20
264.7513958611
 30
0.0
 11
204.1782929525
 21
262.2513958611
 31
0.0
 12
204.9475237218
 22
262.2513958611
 32
0.0
 13
204.9475237218
 23
262.2513958611
 33
0.0
  0
SOLID
  5
A00
330
FAD
100
AcDbEntity
  8
0
  6
CONTINUOUS
 62
     7
100
AcDbTrace
 10
204.5629083372
 20
124.0498548006
 30
0.0
 11
204.9475237218
 21
126.5498548006
 31
0.0
 12
204.1782929525
 22
126.5498548006
 32
0.0
 13
204.1782929525
 23
126.5498548006
 33
0.0
  0
LINE
  5
A01
330
FAD
100
AcDbEntity
  8
0
  6
CONTINUOUS
 62
     7
100
AcDbLine
 10
128.3129083372
 20
264.7513958611
 30
0.0
 11
205.5629083372
 21
264.7513958611
 31
0.0
  0
LINE
  5
A02
330
FAD
100
AcDbEntity
  8
0
  6
CONTINUOUS
 62
     7
100
AcDbLine
 10
133.855801556
 20
124.0498548006
 30
0.0
 11
205.5629083372
 21
124.0498548006
 31
0.0
  0
LINE
  5
A03
330
FAD
100
AcDbEntity
  8
0
  6
CONTINUOUS
 62
     7
100
AcDbLine
 10
204.5629083372
 20
264.7513958611
 30
0.0
 11
204.5629083372
 21
124.0498548006
 31
0.0
  0
TEXT
  5
A04
330
FAD
100
AcDbEntity
  8
0
  6
CONTINUOUS
 62
     7
100
AcDbText
 10
-3015.6064409181
 20
189.1488889506
 30
-67.5468018079
 40
2.5
  1
643.05
 50
90.0
 41
0.7
 11
-3018.1064409181
 21
189.1488889506
 31
-67.5468018079
100
AcDbText
 73
     3
  0
ENDBLK
  5
9FE
330
FAD
100
AcDbEntity
  8
0
100
AcDbBlockEnd
  0
BLOCK
  5
FAE
330
FAF
100
AcDbEntity
  8
0
100
AcDbBlockBegin
  2
_D_30
 70
     0
 10
0.0
 20
0.0
 30
0.0
  3
_D_30
  1

  0
SOLID
  5
A09
330
FAF
100
AcDbEntity
  8
0
  6
CONTINUOUS
 62
     7
100
AcDbTrace
 10
204.5629083372
 20
90.2998548006
 30
0.0
 11
204.9475237218
 21
92.7998548006
 31
0.0
 12
204.1782929525
 22
92.7998548006
 32
0.0
 13
204.1782929525
 23
92.7998548006
 33
0.0
  0
SOLID
  5
A0A
330
FAF
100
AcDbEntity
  8
0
  6
CONTINUOUS
 62
     7
100
AcDbTrace
 10
204.5629083372
 20
124.0498548006
 30
0.0
 11
204.1782929525
 21
121.5498548006
 31
0.0
 12
204.9475237218
 22
121.5498548006
 32
0.0
 13
204.9475237218
 23
121.5498548006
 33
0.0
  0
LINE
  5
A0B
330
FAF
100
AcDbEntity
  8
0
  6
CONTINUOUS
 62
     7
100
AcDbLine
 10
133.855801556
 20
90.2998548006
 30
0.0
 11
205.5629083372
 21
90.2998548006
 31
0.0
  0
LINE
  5
A0C
330
FAF
100
AcDbEntity
  8
0
  6
CONTINUOUS
 62
     7
100
AcDbLine
 10
133.855801556
 20
124.0498548006
 30
0.0
 11
205.5629083372
 21
124.0498548006
 31
0.0
  0
LINE
  5
A0D
330
FAF
100
AcDbEntity
  8
0
  6
CONTINUOUS
 62
     7
100
AcDbLine
 10
204.5629083372
 20
90.2998548006
 30
0.0
 11
204.5629083372
 21
124.0498548006
 31
0.0
  0
TEXT
  5
A0E
330
FAF
100
AcDbEntity
  8
0
  6
CONTINUOUS
 62
     7
100
AcDbText
 10
-3015.6064409181
 20
103.8328409945
 30
-67.5468018079
 40
2.5
  1
67.5
 50
90.0
 41
0.7
 11
-3018.1064409181
 21
103.8328409945
 31
-67.5468018079
100
AcDbText
 73
     3
  0
ENDBLK
  5
A08
330
FAF
100
AcDbEntity
  8
0
100
AcDbBlockEnd
  0
BLOCK
  5
FB0
330
FB1
100
AcDbEntity
  8
0
100
AcDbBlockBegin
  2
_D_31
 70
     0
 10
0.0
 20
0.0
 30
0.0
  3
_D_31
  1

  0
SOLID
  5
A13
330
FB1
100
AcDbEntity
  8
0
  6
CONTINUOUS
 62
     7
100
AcDbTrace
 10
194.5629083372
 20
264.7513958611
 30
0.0
 11
194.9475237218
 21
267.2513958611
 31
0.0
 12
194.1782929525
 22
267.2513958611
 32
0.0
 13
194.1782929525
 23
267.2513958611
 33
0.0
  0
SOLID
  5
A14
330
FB1
100
AcDbEntity
  8
0
  6
CONTINUOUS
 62
     7
100
AcDbTrace
 10
194.5629083372
 20
328.7513958611
 30
0.0
 11
194.1782929525
 21
326.2513958611
 31
0.0
 12
194.9475237218
 22
326.2513958611
 32
0.0
 13
194.9475237218
 23
326.2513958611
 33
0.0
  0
LINE
  5
A15
330
FB1
100
AcDbEntity
  8
0
  6
CONTINUOUS
 62
     7
100
AcDbLine
 10
128.3129083372
 20
264.7513958611
 30
0.0
 11
195.5629083372
 21
264.7513958611
 31
0.0
  0
LINE
  5
A16
330
FB1
100
AcDbEntity
  8
0
  6
CONTINUOUS
 62
     7
100
AcDbLine
 10
147.5629083372
 20
328.7513958611
 30
0.0
 11
195.5629083372
 21
328.7513958611
 31
0.0
  0
LINE
  5
A17
330
FB1
100
AcDbEntity
  8
0
  6
CONTINUOUS
 62
     7
100
AcDbLine
 10
194.5629083372
 20
264.7513958611
 30
0.0
 11
194.5629083372
 21
328.7513958611
 31
0.0
  0
TEXT
  5
A18
330
FB1
100
AcDbEntity
  8
0
  6
CONTINUOUS
 62
     7
100
AcDbText
 10
-3025.6064409181
 20
293.8868124656
 30
-67.5468018079
 40
2.5
  1
128
 50
90.0
 41
0.7
 11
-3028.1064409181
 21
293.8868124656
 31
-67.5468018079
100
AcDbText
 73
     3
  0
ENDBLK
  5
A12
330
FB1
100
AcDbEntity
  8
0
100
AcDbBlockEnd
  0
BLOCK
  5
FB2
330
FB3
100
AcDbEntity
  8
0
100
AcDbBlockBegin
  2
_D_32
 70
     0
 10
0.0
 20
0.0
 30
0.0
  3
_D_32
  1

  0
SOLID
  5
A1D
330
FB3
100
AcDbEntity
  8
0
  6
CONTINUOUS
 62
     7
100
AcDbTrace
 10
186.5462575853
 20
275.2513958611
 30
0.0
 11
186.9308729699
 21
277.7513958611
 31
0.0
 12
186.1616422007
 22
277.7513958611
 32
0.0
 13
186.1616422007
 23
277.7513958611
 33
0.0
  0
SOLID
  5
A1E
330
FB3
100
AcDbEntity
  8
0
  6
CONTINUOUS
 62
     7
100
AcDbTrace
 10
186.5462575853
 20
328.7513958611
 30
0.0
 11
186.1616422007
 21
326.2513958611
 31
0.0
 12
186.9308729699
 22
326.2513958611
 32
0.0
 13
186.9308729699
 23
326.2513958611
 33
0.0
  0
LINE
  5
A1F
330
FB3
100
AcDbEntity
  8
0
  6
CONTINUOUS
 62
     7
100
AcDbLine
 10
153.855801556
 20
275.2513958611
 30
0.0
 11
187.5462575853
 21
275.2513958611
 31
0.0
  0
LINE
  5
A20
330
FB3
100
AcDbEntity
  8
0
  6
CONTINUOUS
 62
     7
100
AcDbLine
 10
147.5629083372
 20
328.7513958611
 30
0.0
 11
187.5462575853
 21
328.7513958611
 31
0.0
  0
LINE
  5
A21
330
FB3
100
AcDbEntity
  8
0
  6
CONTINUOUS
 62
     7
100
AcDbLine
 10
186.5462575853
 20
275.2513958611
 30
0.0
 11
186.5462575853
 21
328.7513958611
 31
0.0
  0
TEXT
  5
A22
330
FB3
100
AcDbEntity
  8
0
  6
CONTINUOUS
 62
     7
100
AcDbText
 10
-3033.62309167
 20
299.1368124656
 30
-67.5468018079
 40
2.5
  1
107
 50
90.0
 41
0.7
 11
-3036.12309167
 21
299.1368124656
 31
-67.5468018079
100
AcDbText
 73
     3
  0
ENDBLK
  5
A1C
330
FB3
100
AcDbEntity
  8
0
100
AcDbBlockEnd
  0
BLOCK
  5
FB4
330
FB5
100
AcDbEntity
  8
0
100
AcDbBlockBegin
  2
_D_33
 70
     0
 10
0.0
 20
0.0
 30
0.0
  3
_D_33
  1

  0
SOLID
  5
A27
330
FB5
100
AcDbEntity
  8
0
  6
CONTINUOUS
 62
     7
100
AcDbTrace
 10
179.2438615704
 20
289.7513958611
 30
0.0
 11
179.628476955
 21
292.2513958611
 31
0.0
 12
178.8592461858
 22
292.2513958611
 32
0.0
 13
178.8592461858
 23
292.2513958611
 33
0.0
  0
SOLID
  5
A28
330
FB5
100
AcDbEntity
  8
0
  6
CONTINUOUS
 62
     7
100
AcDbTrace
 10
179.2438615704
 20
328.7513958611
 30
0.0
 11
178.8592461858
 21
326.2513958611
 31
0.0
 12
179.628476955
 22
326.2513958611
 32
0.0
 13
179.628476955
 23
326.2513958611
 33
0.0
  0
LINE
  5
A29
330
FB5
100
AcDbEntity
  8
0
  6
CONTINUOUS
 62
     7
100
AcDbLine
 10
147.5629083372
 20
289.7513958611
 30
0.0
 11
180.2438615704
 21
289.7513958611
 31
0.0
  0
LINE
  5
A2A
330
FB5
100
AcDbEntity
  8
0
  6
CONTINUOUS
 62
     7
100
AcDbLine
 10
147.5629083372
 20
328.7513958611
 30
0.0
 11
180.2438615704
 21
328.7513958611
 31
0.0
  0
LINE
  5
A2B
330
FB5
100
AcDbEntity
  8
0
  6
CONTINUOUS
 62
     7
100
AcDbLine
 10
179.2438615704
 20
289.7513958611
 30
0.0
 11
179.2438615704
 21
328.7513958611
 31
0.0
  0
TEXT
  5
A2C
330
FB5
100
AcDbEntity
  8
0
  6
CONTINUOUS
 62
     7
100
AcDbText
 10
-3040.9254876849
 20
300.9493126221
 30
-67.5468018079
 40
2.5
  1
RZ / PZ 
 50
90.0
 41
0.56875
 11
-3043.4254876849
 21
300.9493126221
 31
-67.5468018079
100
AcDbText
 73
     3
  0
TEXT
  5
A2D
330
FB5
100
AcDbEntity
  8
0
  6
CONTINUOUS
 62
     7
100
AcDbText
 10
-3040.9254876849
 20
313.7340348832
 30
-67.5468018079
 40
2.5
  1
78
 50
90.0
 41
0.7
 11
-3043.4254876849
 21
313.7340348832
 31
-67.5468018079
100
AcDbText
 73
     3
  0
ENDBLK
  5
A26
330
FB5
100
AcDbEntity
  8
0
100
AcDbBlockEnd
  0
BLOCK
  5
FB6
330
FB7
100
AcDbEntity
  8
0
100
AcDbBlockBegin
  2
_D_34
 70
     0
 10
0.0
 20
0.0
 30
0.0
  3
_D_34
  1

  0
SOLID
  5
A32
330
FB7
100
AcDbEntity
  8
0
  6
CONTINUOUS
 62
     7
100
AcDbTrace
 10
172.8548249063
 20
318.0013958611
 30
0.0
 11
173.239440291
 21
320.5013958611
 31
0.0
 12
172.4702095217
 22
320.5013958611
 32
0.0
 13
172.4702095217
 23
320.5013958611
 33
0.0
  0
SOLID
  5
A33
330
FB7
100
AcDbEntity
  8
0
  6
CONTINUOUS
 62
     7
100
AcDbTrace
 10
172.8548249063
 20
328.7513958611
 30
0.0
 11
172.4702095217
 21
326.2513958611
 31
0.0
 12
173.239440291
 22
326.2513958611
 32
0.0
 13
173.239440291
 23
326.2513958611
 33
0.0
  0
LINE
  5
A34
330
FB7
100
AcDbEntity
  8
0
  6
CONTINUOUS
 62
     7
100
AcDbLine
 10
147.5629083372
 20
318.0013958611
 30
0.0
 11
173.8548249063
 21
318.0013958611
 31
0.0
  0
LINE
  5
A35
330
FB7
100
AcDbEntity
  8
0
  6
CONTINUOUS
 62
     7
100
AcDbLine
 10
147.5629083372
 20
328.7513958611
 30
0.0
 11
173.8548249063
 21
328.7513958611
 31
0.0
  0
LINE
  5
A36
330
FB7
100
AcDbEntity
  8
0
  6
CONTINUOUS
 62
     7
100
AcDbLine
 10
172.8548249063
 20
318.0013958611
 30
0.0
 11
172.8548249063
 21
328.7513958611
 31
0.0
  0
TEXT
  5
A37
330
FB7
100
AcDbEntity
  8
0
  6
CONTINUOUS
 62
     7
100
AcDbText
 10
-3047.314524349
 20
320.034382055
 30
-67.5468018079
 40
2.5
  1
21.5
 50
90.0
 41
0.7
 11
-3049.814524349
 21
320.034382055
 31
-67.5468018079
100
AcDbText
 73
     3
  0
ENDBLK
  5
A31
330
FB7
100
AcDbEntity
  8
0
100
AcDbBlockEnd
  0
BLOCK
  5
FB8
330
FB9
100
AcDbEntity
  8
0
100
AcDbBlockBegin
  2
_D_35
 70
     0
 10
0.0
 20
0.0
 30
0.0
  3
_D_35
  1

  0
SOLID
  5
A3C
330
FB9
100
AcDbEntity
  8
0
  6
CONTINUOUS
 62
     7
100
AcDbTrace
 10
71.8068506634
 20
107.1748548006
 30
0.0
 11
72.1914660481
 21
109.6748548006
 31
0.0
 12
71.4222352788
 22
109.6748548006
 32
0.0
 13
71.4222352788
 23
109.6748548006
 33
0.0
  0
SOLID
  5
A3D
330
FB9
100
AcDbEntity
  8
0
  6
CONTINUOUS
 62
     7
100
AcDbTrace
 10
71.8068506634
 20
328.7513958611
 30
0.0
 11
71.4222352788
 21
326.2513958611
 31
0.0
 12
72.1914660481
 22
326.2513958611
 32
0.0
 13
72.1914660481
 23
326.2513958611
 33
0.0
  0
LINE
  5
A3E
330
FB9
100
AcDbEntity
  8
0
  6
CONTINUOUS
 62
     7
100
AcDbLine
 10
106.0629083372
 20
107.1748548006
 30
0.0
 11
70.8068506634
 21
107.1748548006
 31
0.0
  0
LINE
  5
A3F
330
FB9
100
AcDbEntity
  8
0
  6
CONTINUOUS
 62
     7
100
AcDbLine
 10
147.5629083372
 20
328.7513958611
 30
0.0
 11
70.8068506634
 21
328.7513958611
 31
0.0
  0
LINE
  5
A40
330
FB9
100
AcDbEntity
  8
0
  6
CONTINUOUS
 62
     7
100
AcDbLine
 10
71.8068506634
 20
107.1748548006
 30
0.0
 11
71.8068506634
 21
328.7513958611
 31
0.0
  0
TEXT
  5
A41
330
FB9
100
AcDbEntity
  8
0
  6
CONTINUOUS
 62
     7
100
AcDbText
 10
-3148.3624985918
 20
215.0985419354
 30
-67.5468018079
 40
2.5
  1
805
 50
90.0
 41
0.7
 11
-3150.8624985918
 21
215.0985419354
 31
-67.5468018079
100
AcDbText
 73
     3
  0
ENDBLK
  5
A3B
330
FB9
100
AcDbEntity
  8
0
100
AcDbBlockEnd
  0
BLOCK
  5
FBA
330
FBB
100
AcDbEntity
  8
0
100
AcDbBlockBegin
  2
_D_36
 70
     0
 10
0.0
 20
0.0
 30
0.0
  3
_D_36
  1

  0
SOLID
  5
A46
330
FBB
100
AcDbEntity
  8
0
  6
CONTINUOUS
 62
     7
100
AcDbTrace
 10
64.5002373012
 20
587.7468422214
 30
0.0
 11
64.1156219166
 21
585.2468422214
 31
0.0
 12
64.8848526858
 22
585.2468422214
 32
0.0
 13
64.8848526858
 23
585.2468422214
 33
0.0
  0
SOLID
  5
A47
330
FBB
100
AcDbEntity
  8
0
  6
CONTINUOUS
 62
     7
100
AcDbTrace
 10
64.5002373012
 20
48.1748548006
 30
0.0
 11
64.8848526858
 21
50.6748548006
 31
0.0
 12
64.1156219166
 22
50.6748548006
 32
0.0
 13
64.1156219166
 23
50.6748548006
 33
0.0
  0
LINE
  5
A48
330
FBB
100
AcDbEntity
  8
0
  6
CONTINUOUS
 62
     7
100
AcDbLine
 10
117.5629083372
 20
587.7468422214
 30
0.0
 11
63.5002373012
 21
587.7468422214
 31
0.0
  0
LINE
  5
A49
330
FBB
100
AcDbEntity
  8
0
  6
CONTINUOUS
 62
     7
100
AcDbLine
 10
117.5629083372
 20
48.1748548006
 30
0.0
 11
63.5002373012
 21
48.1748548006
 31
0.0
  0
LINE
  5
A4A
330
FBB
100
AcDbEntity
  8
0
  6
CONTINUOUS
 62
     7
100
AcDbLine
 10
64.5002373012
 20
587.7468422214
 30
0.0
 11
64.5002373012
 21
48.1748548006
 31
0.0
  0
TEXT
  5
A4B
330
FBB
100
AcDbEntity
  8
0
  6
CONTINUOUS
 62
     7
100
AcDbText
 10
-3155.6691119541
 20
314.1414040614
 30
-67.5468018079
 40
2.5
  1
1788
 50
90.0
 41
0.7
 11
-3158.1691119541
 21
314.1414040614
 31
-67.5468018079
100
AcDbText
 73
     3
  0
ENDBLK
  5
A45
330
FBB
100
AcDbEntity
  8
0
100
AcDbBlockEnd
  0
BLOCK
  5
FBC
330
FBD
100
AcDbEntity
  8
0
100
AcDbBlockBegin
  2
_D_37
 70
     0
 10
0.0
 20
0.0
 30
0.0
  3
_D_37
  1

  0
SOLID
  5
A50
330
FBD
100
AcDbEntity
  8
0
  6
CONTINUOUS
 62
     7
100
AcDbTrace
 10
167.6452550393
 20
331.7040583358
 30
0.0
 11
167.9423873849
 21
334.2159582867
 31
0.0
 12
167.1736252102
 22
334.18911252
 32
0.0
 13
167.1736252102
 23
334.18911252
 33
0.0
  0
SOLID
  5
A51
330
FBD
100
AcDbEntity
  8
0
  6
CONTINUOUS
 62
     7
100
AcDbTrace
 10
167.8023027745
 20
327.2067996142
 30
0.0
 11
167.5051704289
 21
324.6948996633
 31
0.0
 12
168.2739326035
 22
324.72174543
 32
0.0
 13
168.2739326035
 23
324.72174543
 33
0.0
  0
LINE
  5
A52
330
FBD
100
AcDbEntity
  8
0
  6
CONTINUOUS
 62
     7
100
AcDbLine
 10
149.7330138304
 20
331.0785490894
 30
0.0
 11
168.6446458663
 21
331.7389578325
 31
0.0
  0
LINE
  5
A53
330
FBD
100
AcDbEntity
  8
0
  6
CONTINUOUS
 62
     7
100
AcDbLine
 10
149.8900615655
 20
326.5812903678
 30
0.0
 11
168.8016936015
 21
327.2416991109
 31
0.0
  0
LINE
  5
A54
330
FBD
100
AcDbEntity
  8
0
  6
CONTINUOUS
 62
     7
100
AcDbLine
 10
167.6452550393
 20
331.7040583358
 30
0.0
 11
167.2639781862
 21
342.6223988718
 31
0.0
  0
LINE
  5
A55
330
FBD
100
AcDbEntity
  8
0
  6
CONTINUOUS
 62
     7
100
AcDbLine
 10
167.6452550393
 20
331.7040583358
 30
0.0
 11
167.8023027745
 21
327.2067996142
 31
0.0
  0
LINE
  5
A56
330
FBD
100
AcDbEntity
  8
0
  6
CONTINUOUS
 62
     7
100
AcDbLine
 10
167.8023027745
 20
327.2067996142
 30
0.0
 11
167.9700888163
 21
322.4020360227
 31
0.0
  0
INSERT
  5
A57
330
FBD
100
AcDbEntity
  8
0
  6
CONTINUOUS
 62
     7
100
AcDbBlockReference
  2
SW_SYMBOL_MOD_BOX
 10
167.1899966027
 20
334.3873691788
 30
0.0
 41
0.0032226693
 42
0.0032226693
 43
0.0032226693
 50
92.0
  0
TEXT
  5
A58
330
FBD
100
AcDbEntity
  8
0
  6
CONTINUOUS
 62
     7
100
AcDbText
 10
-3050.784050665852
 20
225.4684690893562
 30
-67.5468018079
 40
2.5
  1
8/
 50
92.0
 41
0.7
 11
-3053.2825277334
 21
225.3812203476
 31
-67.5468018079
100
AcDbText
 73
     3
  0
TEXT
  5
A59
330
FBD
100
AcDbEntity
  8
0
  6
CONTINUOUS
 62
     7
100
AcDbText
 10
-3050.884023176452
 20
228.3313072253563
 30
-67.5468018079
 40
2.5
  1
9
 50
92.0
 41
0.7
 11
-3053.382500244
 21
228.2440584836
 31
-67.5468018079
100
AcDbText
 73
     3
  0
ENDBLK
  5
A4F
330
FBD
100
AcDbEntity
  8
0
100
AcDbBlockEnd
  0
BLOCK
  5
FBE
330
FBF
100
AcDbEntity
  8
0
100
AcDbBlockBegin
  2
_D_38
 70
     0
 10
0.0
 20
0.0
 30
0.0
  3
_D_38
  1

  0
SOLID
  5
A5E
330
FBF
100
AcDbEntity
  8
0
  6
CONTINUOUS
 62
     7
100
AcDbTrace
 10
117.5629083372
 20
254.9176566645
 30
0.0
 11
120.0629083372
 21
254.5330412798
 31
0.0
 12
120.0629083372
 22
255.3022720491
 32
0.0
 13
120.0629083372
 23
255.3022720491
 33
0.0
  0
SOLID
  5
A5F
330
FBF
100
AcDbEntity
  8
0
  6
CONTINUOUS
 62
     7
100
AcDbTrace
 10
147.5629083372
 20
254.9176566645
 30
0.0
 11
145.0629083372
 21
255.3022720491
 31
0.0
 12
145.0629083372
 22
254.5330412798
 32
0.0
 13
145.0629083372
 23
254.5330412798
 33
0.0
  0
LINE
  5
A60
330
FBF
100
AcDbEntity
  8
0
  6
CONTINUOUS
 62
     7
100
AcDbLine
 10
147.5629083372
 20
328.7513958611
 30
0.0
 11
147.5629083372
 21
253.9176566645
 31
0.0
  0
LINE
  5
A61
330
FBF
100
AcDbEntity
  8
0
  6
CONTINUOUS
 62
     7
100
AcDbLine
 10
117.5629083372
 20
254.9176566645
 30
0.0
 11
147.5629083372
 21
254.9176566645
 31
0.0
  0
TEXT
  5
A62
330
FBF
100
AcDbEntity
  8
0
  6
CONTINUOUS
 62
     7
100
AcDbText
 10
129.8927692628
 20
3475.0870059197
 30
-67.5468018079
 40
2.5
  1
DM
 41
0.7
 11
129.8927692628
 21
3477.5870059197
 31
-67.5468018079
100
AcDbText
 73
     3
  0
ENDBLK
  5
A5D
330
FBF
100
AcDbEntity
  8
0
100
AcDbBlockEnd
  0
BLOCK
  5
FC0
330
FC1
100
AcDbEntity
  8
0
100
AcDbBlockBegin
  2
_D_39
 70
     0
 10
0.0
 20
0.0
 30
0.0
  3
_D_39
  1

  0
SOLID
  5
A67
330
FC1
100
AcDbEntity
  8
0
  6
CONTINUOUS
 62
     7
100
AcDbTrace
 10
162.5629083372
 20
254.9176566645
 30
0.0
 11
160.0629083372
 21
255.3022720491
 31
0.0
 12
160.0629083372
 22
254.5330412798
 32
0.0
 13
160.0629083372
 23
254.5330412798
 33
0.0
  0
SOLID
  5
A68
330
FC1
100
AcDbEntity
  8
0
  6
CONTINUOUS
 62
     7
100
AcDbTrace
 10
147.5629083372
 20
254.9176566645
 30
0.0
 11
150.0629083372
 21
254.5330412798
 31
0.0
 12
150.0629083372
 22
255.3022720491
 32
0.0
 13
150.0629083372
 23
255.3022720491
 33
0.0
  0
LINE
  5
A69
330
FC1
100
AcDbEntity
  8
0
  6
CONTINUOUS
 62
     7
100
AcDbLine
 10
162.5629083372
 20
283.4585026422
 30
0.0
 11
162.5629083372
 21
253.9176566645
 31
0.0
  0
LINE
  5
A6A
330
FC1
100
AcDbEntity
  8
0
  6
CONTINUOUS
 62
     7
100
AcDbLine
 10
147.5629083372
 20
328.7513958611
 30
0.0
 11
147.5629083372
 21
253.9176566645
 31
0.0
  0
LINE
  5
A6B
330
FC1
100
AcDbEntity
  8
0
  6
CONTINUOUS
 62
     7
100
AcDbLine
 10
162.5629083372
 20
254.9176566645
 30
0.0
 11
147.5629083372
 21
254.9176566645
 31
0.0
  0
TEXT
  5
A6C
330
FC1
100
AcDbEntity
  8
0
  6
CONTINUOUS
 62
     7
100
AcDbText
 10
153.1531861124
 20
3475.0870059198
 30
-67.5468018079
 40
2.5
  1
30
 41
0.7
 11
153.1531861124
 21
3477.5870059198
 31
-67.5468018079
100
AcDbText
 73
     3
  0
ENDBLK
  5
A66
330
FC1
100
AcDbEntity
  8
0
100
AcDbBlockEnd
  0
BLOCK
  5
FC2
330
FC3
100
AcDbEntity
  8
0
100
AcDbBlockBegin
  2
_D_40
 70
     0
 10
0.0
 20
0.0
 30
0.0
  3
_D_40
  1

  0
SOLID
  5
A71
330
FC3
100
AcDbEntity
  8
0
  6
CONTINUOUS
 62
     7
100
AcDbTrace
 10
132.5629083372
 20
286.0013958611
 30
0.0
 11
132.1782929525
 21
283.5013958611
 31
0.0
 12
132.9475237218
 22
283.5013958611
 32
0.0
 13
132.9475237218
 23
283.5013958611
 33
0.0
  0
SOLID
  5
A72
330
FC3
100
AcDbEntity
  8
0
  6
CONTINUOUS
 62
     7
100
AcDbTrace
 10
132.5629083372
 20
289.7513958611
 30
0.0
 11
132.9475237218
 21
292.2513958611
 31
0.0
 12
132.1782929525
 22
292.2513958611
 32
0.0
 13
132.1782929525
 23
292.2513958611
 33
0.0
  0
LINE
  5
A73
330
FC3
100
AcDbEntity
  8
0
  6
CONTINUOUS
 62
     7
100
AcDbLine
 10
138.0629083372
 20
286.0013958611
 30
0.0
 11
131.5629083372
 21
286.0013958611
 31
0.0
  0
LINE
  5
A74
330
FC3
100
AcDbEntity
  8
0
  6
CONTINUOUS
 62
     7
100
AcDbLine
 10
147.5629083372
 20
289.7513958611
 30
0.0
 11
131.5629083372
 21
289.7513958611
 31
0.0
  0
LINE
  5
A75
330
FC3
100
AcDbEntity
  8
0
  6
CONTINUOUS
 62
     7
100
AcDbLine
 10
132.5629083372
 20
286.0013958611
 30
0.0
 11
132.5629083372
 21
281.1937035534
 31
0.0
  0
LINE
  5
A76
330
FC3
100
AcDbEntity
  8
0
  6
CONTINUOUS
 62
     7
100
AcDbLine
 10
132.5629083372
 20
286.0013958611
 30
0.0
 11
132.5629083372
 21
289.7513958611
 31
0.0
  0
LINE
  5
A77
330
FC3
100
AcDbEntity
  8
0
  6
CONTINUOUS
 62
     7
100
AcDbLine
 10
132.5629083372
 20
289.7513958611
 30
0.0
 11
132.5629083372
 21
296.7412810495
 31
0.0
  0
TEXT
  5
A78
330
FC3
100
AcDbEntity
  8
0
  6
CONTINUOUS
 62
     7
100
AcDbText
 10
-3087.6064409181
 20
291.9669755457
 30
-67.5468018079
 40
2.5
  1
7.5
 50
90.0
 41
0.7
 11
-3090.1064409181
 21
291.9669755457
 31
-67.5468018079
100
AcDbText
 73
     3
  0
ENDBLK
  5
A70
330
FC3
100
AcDbEntity
  8
0
100
AcDbBlockEnd
  0
BLOCK
  5
FC4
330
FC5
100
AcDbEntity
  8
0
100
AcDbBlockBegin
  2
_D_41
 70
     0
 10
0.0
 20
0.0
 30
0.0
  3
_D_41
  1

  0
SOLID
  5
A7D
330
FC5
100
AcDbEntity
  8
0
  6
CONTINUOUS
 62
     7
100
AcDbTrace
 10
147.5629083372
 20
299.83349398
 30
0.0
 11
150.0629083372
 21
299.4488785954
 31
0.0
 12
150.0629083372
 22
300.2181093646
 32
0.0
 13
150.0629083372
 23
300.2181093646
 33
0.0
  0
SOLID
  5
A7E
330
FC5
100
AcDbEntity
  8
0
  6
CONTINUOUS
 62
     7
100
AcDbTrace
 10
138.0629083372
 20
299.83349398
 30
0.0
 11
135.5629083372
 21
300.2181093646
 31
0.0
 12
135.5629083372
 22
299.4488785954
 32
0.0
 13
135.5629083372
 23
299.4488785954
 33
0.0
  0
LINE
  5
A7F
330
FC5
100
AcDbEntity
  8
0
  6
CONTINUOUS
 62
     7
100
AcDbLine
 10
147.5629083372
 20
289.7513958611
 30
0.0
 11
147.5629083372
 21
300.83349398
 31
0.0
  0
LINE
  5
A80
330
FC5
100
AcDbEntity
  8
0
  6
CONTINUOUS
 62
     7
100
AcDbLine
 10
138.0629083372
 20
286.0013958611
 30
0.0
 11
138.0629083372
 21
300.83349398
 31
0.0
  0
LINE
  5
A81
330
FC5
100
AcDbEntity
  8
0
  6
CONTINUOUS
 62
     7
100
AcDbLine
 10
147.5629083372
 20
299.83349398
 30
0.0
 11
152.3706006449
 21
299.83349398
 31
0.0
  0
LINE
  5
A82
330
FC5
100
AcDbEntity
  8
0
  6
CONTINUOUS
 62
     7
100
AcDbLine
 10
147.5629083372
 20
299.83349398
 30
0.0
 11
138.0629083372
 21
299.83349398
 31
0.0
  0
LINE
  5
A83
330
FC5
100
AcDbEntity
  8
0
  6
CONTINUOUS
 62
     7
100
AcDbLine
 10
138.0629083372
 20
299.83349398
 30
0.0
 11
133.2552160295
 21
299.83349398
 31
0.0
  0
TEXT
  5
A84
330
FC5
100
AcDbEntity
  8
0
  6
CONTINUOUS
 62
     7
100
AcDbText
 10
140.9031861124
 20
3520.0028432353
 30
-67.5468018079
 40
2.5
  1
19
 41
0.7
 11
140.9031861124
 21
3522.5028432353
 31
-67.5468018079
100
AcDbText
 73
     3
  0
ENDBLK
  5
A7C
330
FC5
100
AcDbEntity
  8
0
100
AcDbBlockEnd
  0
BLOCK
  5
FC6
330
FC7
100
AcDbEntity
  8
0
100
AcDbBlockBegin
  2
_D_42
 70
     0
 10
0.0
 20
0.0
 30
0.0
  3
_D_42
  1

  0
SOLID
  5
A89
330
FC7
100
AcDbEntity
  8
0
  6
CONTINUOUS
 62
     7
100
AcDbTrace
 10
147.5629083372
 20
299.83349398
 30
0.0
 11
145.0629083372
 21
300.2181093646
 31
0.0
 12
145.0629083372
 22
299.4488785954
 32
0.0
 13
145.0629083372
 23
299.4488785954
 33
0.0
  0
SOLID
  5
A8A
330
FC7
100
AcDbEntity
  8
0
  6
CONTINUOUS
 62
     7
100
AcDbTrace
 10
157.0629083372
 20
299.83349398
 30
0.0
 11
159.5629083372
 21
299.4488785954
 31
0.0
 12
159.5629083372
 22
300.2181093646
 32
0.0
 13
159.5629083372
 23
300.2181093646
 33
0.0
  0
LINE
  5
A8B
330
FC7
100
AcDbEntity
  8
0
  6
CONTINUOUS
 62
     7
100
AcDbLine
 10
147.5629083372
 20
289.7513958611
 30
0.0
 11
147.5629083372
 21
300.83349398
 31
0.0
  0
LINE
  5
A8C
330
FC7
100
AcDbEntity
  8
0
  6
CONTINUOUS
 62
     7
100
AcDbLine
 10
157.0629083372
 20
286.0013958611
 30
0.0
 11
157.0629083372
 21
300.83349398
 31
0.0
  0
LINE
  5
A8D
330
FC7
100
AcDbEntity
  8
0
  6
CONTINUOUS
 62
     7
100
AcDbLine
 10
147.5629083372
 20
299.83349398
 30
0.0
 11
142.7552160295
 21
299.83349398
 31
0.0
  0
LINE
  5
A8E
330
FC7
100
AcDbEntity
  8
0
  6
CONTINUOUS
 62
     7
100
AcDbLine
 10
147.5629083372
 20
299.83349398
 30
0.0
 11
157.0629083372
 21
299.83349398
 31
0.0
  0
LINE
  5
A8F
330
FC7
100
AcDbEntity
  8
0
  6
CONTINUOUS
 62
     7
100
AcDbLine
 10
157.0629083372
 20
299.83349398
 30
0.0
 11
161.8706006449
 21
299.83349398
 31
0.0
  0
TEXT
  5
A90
330
FC7
100
AcDbEntity
  8
0
  6
CONTINUOUS
 62
     7
100
AcDbText
 10
150.4031861124
 20
3520.0028432353
 30
-67.5468018079
 40
2.5
  1
19
 41
0.7
 11
150.4031861124
 21
3522.5028432353
 31
-67.5468018079
100
AcDbText
 73
     3
  0
ENDBLK
  5
A88
330
FC7
100
AcDbEntity
  8
0
100
AcDbBlockEnd
  0
BLOCK
  5
FC8
330
FC9
100
AcDbEntity
  8
0
100
AcDbBlockBegin
  2
_D_43
 70
     0
 10
0.0
 20
0.0
 30
0.0
  3
_D_43
  1

  0
SOLID
  5
A96
330
FC9
100
AcDbEntity
  8
0
  6
CONTINUOUS
 62
     7
100
AcDbTrace
 10
155.4919473414
 20
286.4169756366
 30
0.0
 11
153.1734463481
 21
287.4281542252
 31
0.0
 12
152.976722194
 22
286.6845040497
 32
0.0
 13
152.976722194
 23
286.6845040497
 33
0.0
  0
SOLID
  5
A97
330
FC9
100
AcDbEntity
  8
0
  6
CONTINUOUS
 62
     7
100
AcDbTrace
 10
158.6338693329
 20
285.5858160855
 30
0.0
 11
160.9523703262
 21
284.5746374969
 31
0.0
 12
161.1490944803
 22
285.3182876724
 32
0.0
 13
161.1490944803
 23
285.3182876724
 33
0.0
  0
LINE
  5
A98
330
FC9
100
AcDbEntity
  8
0
  6
CONTINUOUS
 62
     7
100
AcDbLine
 10
158.6338693329
 20
285.5858160855
 30
0.0
 11
173.6514290813
 21
281.6130923026
 31
0.0
  0
LINE
  5
A99
330
FC9
100
AcDbEntity
  8
0
  6
CONTINUOUS
 62
     7
100
AcDbLine
 10
155.4919473414
 20
286.4169756366
 30
0.0
 11
150.8441337446
 21
287.6465015998
 31
0.0
  0
LINE
  5
A9A
330
FC9
100
AcDbEntity
  8
0
  6
CONTINUOUS
 62
     7
100
AcDbLine
 10
158.6338693329
 20
285.5858160855
 30
0.0
 11
155.4919473414
 21
286.4169756366
 31
0.0
  0
TEXT
  5
A9B
330
FC9
100
AcDbEntity
  8
0
  6
CONTINUOUS
 62
     7
100
AcDbText
 10
989.0375426656278
 20
3396.829888939129
 30
-67.5468018079
 40
2.5
  1
%%c
 50
345.1824789643
 41
0.7
 11
989.6768961665
 21
3399.2467520095
 31
-67.5468018079
100
AcDbText
 73
     3
  0
TEXT
  5
A9C
330
FC9
100
AcDbEntity
  8
0
  6
CONTINUOUS
 62
     7
100
AcDbText
 10
992.5630715177278
 20
3395.904433923129
 30
-67.5468018079
 40
2.5
  1
6.5
 50
345.1824789643
 41
0.7
 11
993.2024250186
 21
3398.3212969935
 31
-67.5468018079
100
AcDbText
 73
     3
  0
ENDBLK
  5
A95
330
FC9
100
AcDbEntity
  8
0
100
AcDbBlockEnd
  0
BLOCK
  5
FCA
330
FCB
100
AcDbEntity
  8
0
100
AcDbBlockBegin
  2
_D_44
 70
     0
 10
0.0
 20
0.0
 30
0.0
  3
_D_44
  1

  0
SOLID
  5
AA1
330
FCB
100
AcDbEntity
  8
0
  6
CONTINUOUS
 62
     7
100
AcDbTrace
 10
149.2036610853
 20
318.9088954035
 30
0.0
 11
151.5774851684
 21
319.7823301272
 31
0.0
 12
151.2051776638
 22
320.4554594597
 32
0.0
 13
151.2051776638
 23
320.4554594597
 33
0.0
  0
SOLID
  5
AA2
330
FCB
100
AcDbEntity
  8
0
  6
CONTINUOUS
 62
     7
100
AcDbTrace
 10
145.9221555891
 20
317.0938963186
 30
0.0
 11
143.5483315059
 21
316.2204615949
 31
0.0
 12
143.9206390105
 22
315.5473322624
 32
0.0
 13
143.9206390105
 23
315.5473322624
 33
0.0
  0
LINE
  5
AA3
330
FCB
100
AcDbEntity
  8
0
  6
CONTINUOUS
 62
     7
100
AcDbLine
 10
145.9221555891
 20
317.0938963186
 30
0.0
 11
134.4051629621
 21
310.7238533298
 31
0.0
  0
LINE
  5
AA4
330
FCB
100
AcDbEntity
  8
0
  6
CONTINUOUS
 62
     7
100
AcDbLine
 10
149.2036610853
 20
318.9088954035
 30
0.0
 11
153.4107194138
 21
321.2358173073
 31
0.0
  0
LINE
  5
AA5
330
FCB
100
AcDbEntity
  8
0
  6
CONTINUOUS
 62
     7
100
AcDbLine
 10
145.9221555891
 20
317.0938963186
 30
0.0
 11
149.2036610853
 21
318.9088954035
 31
0.0
  0
TEXT
  5
AA6
330
FCB
100
AcDbEntity
  8
0
  6
CONTINUOUS
 62
     7
100
AcDbText
 10
-1424.142113565153
 20
3128.566295530785
 30
-67.5468018079
 40
2.5
  1
%%c
 50
28.9469599089
 41
0.7
 11
-1425.3521129551
 21
3130.7539658616
 31
-67.5468018079
100
AcDbText
 73
     3
  0
TEXT
  5
AA7
330
FCB
100
AcDbEntity
  8
0
  6
CONTINUOUS
 62
     7
100
AcDbText
 10
-1420.955881657853
 20
3130.336534753785
 30
-67.5468018079
 40
2.5
  1
7.5
 50
28.9469599089
 41
0.7
 11
-1422.1658810478
 21
3132.5242050846
 31
-67.5468018079
100
AcDbText
 73
     3
  0
ENDBLK
  5
AA0
330
FCB
100
AcDbEntity
  8
0
100
AcDbBlockEnd
  0
BLOCK
  5
FCC
330
FCD
100
AcDbEntity
  8
0
100
AcDbBlockBegin
  2
_D_45
 70
     0
 10
0.0
 20
0.0
 30
0.0
  3
_D_45
  1

  0
SOLID
  5
AAC
330
FCD
100
AcDbEntity
  8
0
  6
CONTINUOUS
 62
     7
100
AcDbTrace
 10
138.0629083372
 20
339.4013958611
 30
0.0
 11
140.5629083372
 21
339.0167804764
 31
0.0
 12
140.5629083372
 22
339.7860112457
 32
0.0
 13
140.5629083372
 23
339.7860112457
 33
0.0
  0
SOLID
  5
AAD
330
FCD
100
AcDbEntity
  8
0
  6
CONTINUOUS
 62
     7
100
AcDbTrace
 10
147.5629083372
 20
339.4013958611
 30
0.0
 11
145.0629083372
 21
339.7860112457
 31
0.0
 12
145.0629083372
 22
339.0167804764
 32
0.0
 13
145.0629083372
 23
339.0167804764
 33
0.0
  0
LINE
  5
AAE
330
FCD
100
AcDbEntity
  8
0
  6
CONTINUOUS
 62
     7
100
AcDbLine
 10
138.0629083372
 20
328.7513958611
 30
0.0
 11
138.0629083372
 21
340.4013958611
 31
0.0
  0
LINE
  5
AAF
330
FCD
100
AcDbEntity
  8
0
  6
CONTINUOUS
 62
     7
100
AcDbLine
 10
147.5629083372
 20
328.7513958611
 30
0.0
 11
147.5629083372
 21
340.4013958611
 31
0.0
  0
LINE
  5
AB0
330
FCD
100
AcDbEntity
  8
0
  6
CONTINUOUS
 62
     7
100
AcDbLine
 10
138.0629083372
 20
339.4013958611
 30
0.0
 11
147.5629083372
 21
339.4013958611
 31
0.0
  0
TEXT
  5
AB1
330
FCD
100
AcDbEntity
  8
0
  6
CONTINUOUS
 62
     7
100
AcDbText
 10
140.9031861124
 20
3559.5707451163
 30
-67.5468018079
 40
2.5
  1
19
 41
0.7
 11
140.9031861124
 21
3562.0707451163
 31
-67.5468018079
100
AcDbText
 73
     3
  0
ENDBLK
  5
AAB
330
FCD
100
AcDbEntity
  8
0
100
AcDbBlockEnd
  0
BLOCK
  5
FCE
330
FCF
100
AcDbEntity
  8
0
100
AcDbBlockBegin
  2
_D_46
 70
     0
 10
0.0
 20
0.0
 30
0.0
  3
_D_46
  1

  0
SOLID
  5
AB6
330
FCF
100
AcDbEntity
  8
0
  6
CONTINUOUS
 62
     7
100
AcDbTrace
 10
157.0629083372
 20
339.4013958611
 30
0.0
 11
154.5629083372
 21
339.7860112457
 31
0.0
 12
154.5629083372
 22
339.0167804764
 32
0.0
 13
154.5629083372
 23
339.0167804764
 33
0.0
  0
SOLID
  5
AB7
330
FCF
100
AcDbEntity
  8
0
  6
CONTINUOUS
 62
     7
100
AcDbTrace
 10
147.5629083372
 20
339.4013958611
 30
0.0
 11
150.0629083372
 21
339.0167804764
 31
0.0
 12
150.0629083372
 22
339.7860112457
 32
0.0
 13
150.0629083372
 23
339.7860112457
 33
0.0
  0
LINE
  5
AB8
330
FCF
100
AcDbEntity
  8
0
  6
CONTINUOUS
 62
     7
100
AcDbLine
 10
157.0629083372
 20
328.7513958611
 30
0.0
 11
157.0629083372
 21
340.4013958611
 31
0.0
  0
LINE
  5
AB9
330
FCF
100
AcDbEntity
  8
0
  6
CONTINUOUS
 62
     7
100
AcDbLine
 10
147.5629083372
 20
328.7513958611
 30
0.0
 11
147.5629083372
 21
340.4013958611
 31
0.0
  0
LINE
  5
ABA
330
FCF
100
AcDbEntity
  8
0
  6
CONTINUOUS
 62
     7
100
AcDbLine
 10
157.0629083372
 20
339.4013958611
 30
0.0
 11
147.5629083372
 21
339.4013958611
 31
0.0
  0
TEXT
  5
ABB
330
FCF
100
AcDbEntity
  8
0
  6
CONTINUOUS
 62
     7
100
AcDbText
 10
150.4031861124
 20
3559.5707451163
 30
-67.5468018079
 40
2.5
  1
19
 41
0.7
 11
150.4031861124
 21
3562.0707451163
 31
-67.5468018079
100
AcDbText
 73
     3
  0
ENDBLK
  5
AB5
330
FCF
100
AcDbEntity
  8
0
100
AcDbBlockEnd
  0
BLOCK
  5
FD0
330
FD1
100
AcDbEntity
  8
0
100
AcDbBlockBegin
  2
_D_47
 70
     0
 10
0.0
 20
0.0
 30
0.0
  3
_D_47
  1

  0
SOLID
  5
AC0
330
FD1
100
AcDbEntity
  8
0
  6
CONTINUOUS
 62
     7
100
AcDbTrace
 10
139.3450839054
 20
329.7497198627
 30
0.0
 11
141.5539514071
 21
330.9821294349
 31
0.0
 12
141.0813719981
 22
331.5890764495
 32
0.0
 13
141.0813719981
 23
331.5890764495
 33
0.0
  0
SOLID
  5
AC1
330
FD1
100
AcDbEntity
  8
0
  6
CONTINUOUS
 62
     7
100
AcDbTrace
 10
136.780732769
 20
327.7530718594
 30
0.0
 11
134.5718652672
 21
326.5206622872
 31
0.0
 12
135.0444446763
 22
325.9137152726
 32
0.0
 13
135.0444446763
 23
325.9137152726
 33
0.0
  0
LINE
  5
AC2
330
FD1
100
AcDbEntity
  8
0
  6
CONTINUOUS
 62
     7
100
AcDbLine
 10
136.780732769
 20
327.7530718594
 30
0.0
 11
126.4791504014
 21
319.7320822323
 31
0.0
  0
LINE
  5
AC3
330
FD1
100
AcDbEntity
  8
0
  6
CONTINUOUS
 62
     7
100
AcDbLine
 10
139.3450839054
 20
329.7497198627
 30
0.0
 11
143.1385027462
 21
332.7033411694
 31
0.0
  0
LINE
  5
AC4
330
FD1
100
AcDbEntity
  8
0
  6
CONTINUOUS
 62
     7
100
AcDbLine
 10
136.780732769
 20
327.7530718594
 30
0.0
 11
139.3450839054
 21
329.7497198627
 31
0.0
  0
TEXT
  5
AC5
330
FD1
100
AcDbEntity
  8
0
  6
CONTINUOUS
 62
     7
100
AcDbText
 10
-1851.823496825908
 20
2860.521762277769
 30
-67.5468018079
 40
2.5
  1
%%c
 50
37.9049399805
 41
0.7
 11
-1853.3593799054
 21
2862.494340075
 31
-67.5468018079
100
AcDbText
 73
     3
  0
TEXT
  5
AC6
330
FD1
100
AcDbEntity
  8
0
  6
CONTINUOUS
 62
     7
100
AcDbText
 10
-1848.951772087008
 20
2862.766537923169
 30
-67.5468018079
 40
2.5
  1
6.5
 50
37.9049399805
 41
0.7
 11
-1850.4876551665
 21
2864.7391157204
 31
-67.5468018079
100
AcDbText
 73
     3
  0
ENDBLK
  5
ABF
330
FD1
100
AcDbEntity
  8
0
100
AcDbBlockEnd
  0
BLOCK
  5
FD2
330
FD3
100
AcDbEntity
  8
0
100
AcDbBlockBegin
  2
_D_48
 70
     0
 10
0.0
 20
0.0
 30
0.0
  3
_D_48
  1

  0
SOLID
  5
ACB
330
FD3
100
AcDbEntity
  8
0
  6
CONTINUOUS
 62
     7
100
AcDbTrace
 10
117.5629083372
 20
58.9592562006
 30
0.0
 11
115.0629083372
 21
59.3438715852
 31
0.0
 12
115.0629083372
 22
58.5746408159
 32
0.0
 13
115.0629083372
 23
58.5746408159
 33
0.0
  0
SOLID
  5
ACC
330
FD3
100
AcDbEntity
  8
0
  6
CONTINUOUS
 62
     7
100
AcDbTrace
 10
119.0629083372
 20
58.9592562006
 30
0.0
 11
121.5629083372
 21
58.5746408159
 31
0.0
 12
121.5629083372
 22
59.3438715852
 32
0.0
 13
121.5629083372
 23
59.3438715852
 33
0.0
  0
LINE
  5
ACD
330
FD3
100
AcDbEntity
  8
0
  6
CONTINUOUS
 62
     7
100
AcDbLine
 10
117.5629083372
 20
58.9592562006
 30
0.0
 11
112.7552160295
 21
58.9592562006
 31
0.0
  0
LINE
  5
ACE
330
FD3
100
AcDbEntity
  8
0
  6
CONTINUOUS
 62
     7
100
AcDbLine
 10
117.5629083372
 20
58.9592562006
 30
0.0
 11
119.0629083372
 21
58.9592562006
 31
0.0
  0
LINE
  5
ACF
330
FD3
100
AcDbEntity
  8
0
  6
CONTINUOUS
 62
     7
100
AcDbLine
 10
119.0629083372
 20
58.9592562006
 30
0.0
 11
128.8255697864
 21
58.9592562006
 31
0.0
  0
TEXT
  5
AD0
330
FD3
100
AcDbEntity
  8
0
  6
CONTINUOUS
 62
     7
100
AcDbText
 10
126.9158475615
 20
3279.1286054559
 30
-67.5468018079
 40
2.5
  1
3
 41
0.7
 11
126.9158475615
 21
3281.6286054559
 31
-67.5468018079
100
AcDbText
 73
     3
  0
ENDBLK
  5
ACA
330
FD3
100
AcDbEntity
  8
0
100
AcDbBlockEnd
  0
BLOCK
  5
FD4
330
FD5
100
AcDbEntity
  8
0
100
AcDbBlockBegin
  2
_D_49
 70
     0
 10
0.0
 20
0.0
 30
0.0
  3
_D_49
  1

  0
SOLID
  5
AD5
330
FD5
100
AcDbEntity
  8
0
  6
CONTINUOUS
 62
     7
100
AcDbTrace
 10
117.5629083372
 20
195.9958246973
 30
0.0
 11
115.0629083372
 21
196.380440082
 31
0.0
 12
115.0629083372
 22
195.6112093127
 32
0.0
 13
115.0629083372
 23
195.6112093127
 33
0.0
  0
SOLID
  5
AD6
330
FD5
100
AcDbEntity
  8
0
  6
CONTINUOUS
 62
     7
100
AcDbTrace
 10
121.7629083372
 20
195.9958246973
 30
0.0
 11
124.2629083372
 21
195.6112093127
 31
0.0
 12
124.2629083372
 22
196.380440082
 32
0.0
 13
124.2629083372
 23
196.380440082
 33
0.0
  0
LINE
  5
AD7
330
FD5
100
AcDbEntity
  8
0
  6
CONTINUOUS
 62
     7
100
AcDbLine
 10
121.7629083372
 20
210.1161004977
 30
0.0
 11
121.7629083372
 21
194.9958246973
 31
0.0
  0
LINE
  5
AD8
330
FD5
100
AcDbEntity
  8
0
  6
CONTINUOUS
 62
     7
100
AcDbLine
 10
117.5629083372
 20
195.9958246973
 30
0.0
 11
112.7552160295
 21
195.9958246973
 31
0.0
  0
LINE
  5
AD9
330
FD5
100
AcDbEntity
  8
0
  6
CONTINUOUS
 62
     7
100
AcDbLine
 10
117.5629083372
 20
195.9958246973
 30
0.0
 11
121.7629083372
 21
195.9958246973
 31
0.0
  0
LINE
  5
ADA
330
FD5
100
AcDbEntity
  8
0
  6
CONTINUOUS
 62
     7
100
AcDbLine
 10
121.7629083372
 20
195.9958246973
 30
0.0
 11
132.7283379435
 21
195.9958246973
 31
0.0
  0
TEXT
  5
ADB
330
FD5
100
AcDbEntity
  8
0
  6
CONTINUOUS
 62
     7
100
AcDbText
 10
127.9540324397
 20
3416.1651739526
 30
-67.5468018079
 40
2.5
  1
8.4
 41
0.7
 11
127.9540324397
 21
3418.6651739526
 31
-67.5468018079
100
AcDbText
 73
     3
  0
ENDBLK
  5
AD4
330
FD5
100
AcDbEntity
  8
0
100
AcDbBlockEnd
  0
BLOCK
  5
FD6
330
FD7
100
AcDbEntity
  8
0
100
AcDbBlockBegin
  2
_D_50
 70
     0
 10
0.0
 20
0.0
 30
0.0
  3
_D_50
  1

  0
SOLID
  5
AE0
330
FD7
100
AcDbEntity
  8
0
  6
CONTINUOUS
 62
     7
100
AcDbTrace
 10
80.2091067079
 20
448.0968422214
 30
0.0
 11
79.8244913232
 21
445.5968422214
 31
0.0
 12
80.5937220925
 22
445.5968422214
 32
0.0
 13
80.5937220925
 23
445.5968422214
 33
0.0
  0
SOLID
  5
AE1
330
FD7
100
AcDbEntity
  8
0
  6
CONTINUOUS
 62
     7
100
AcDbTrace
 10
80.2091067079
 20
328.7513958611
 30
0.0
 11
80.5937220925
 21
331.2513958611
 31
0.0
 12
79.8244913232
 22
331.2513958611
 32
0.0
 13
79.8244913232
 23
331.2513958611
 33
0.0
  0
LINE
  5
AE2
330
FD7
100
AcDbEntity
  8
0
  6
CONTINUOUS
 62
     7
100
AcDbLine
 10
111.6629083372
 20
448.0968422214
 30
0.0
 11
79.2091067079
 21
448.0968422214
 31
0.0
  0
LINE
  5
AE3
330
FD7
100
AcDbEntity
  8
0
  6
CONTINUOUS
 62
     7
100
AcDbLine
 10
142.0629083372
 20
328.7513958611
 30
0.0
 11
79.2091067079
 21
328.7513958611
 31
0.0
  0
LINE
  5
AE4
330
FD7
100
AcDbEntity
  8
0
  6
CONTINUOUS
 62
     7
100
AcDbLine
 10
80.2091067079
 20
448.0968422214
 30
0.0
 11
80.2091067079
 21
328.7513958611
 31
0.0
  0
TEXT
  5
AE5
330
FD7
100
AcDbEntity
  8
0
  6
CONTINUOUS
 62
     7
100
AcDbText
 10
-3139.9602425474
 20
384.1272439481
 30
-67.5468018079
 40
2.5
  1
585.9
 50
90.0
 41
0.7
 11
-3142.4602425474
 21
384.1272439481
 31
-67.5468018079
100
AcDbText
 73
     3
  0
ENDBLK
  5
ADF
330
FD7
100
AcDbEntity
  8
0
100
AcDbBlockEnd
  0
BLOCK
  5
FD8
330
FD9
100
AcDbEntity
  8
0
100
AcDbBlockBegin
  2
_D_51
 70
     0
 10
0.0
 20
0.0
 30
0.0
  3
_D_51
  1

  0
SOLID
  5
AEA
330
FD9
100
AcDbEntity
  8
0
  6
CONTINUOUS
 62
     7
100
AcDbTrace
 10
80.2091067079
 20
328.7513958611
 30
0.0
 11
79.8244913232
 21
326.2513958611
 31
0.0
 12
80.5937220925
 22
326.2513958611
 32
0.0
 13
80.5937220925
 23
326.2513958611
 33
0.0
  0
SOLID
  5
AEB
330
FD9
100
AcDbEntity
  8
0
  6
CONTINUOUS
 62
     7
100
AcDbTrace
 10
80.2091067079
 20
176.4686877562
 30
0.0
 11
80.5937220925
 21
178.9686877562
 31
0.0
 12
79.8244913232
 22
178.9686877562
 32
0.0
 13
79.8244913232
 23
178.9686877562
 33
0.0
  0
LINE
  5
AEC
330
FD9
100
AcDbEntity
  8
0
  6
CONTINUOUS
 62
     7
100
AcDbLine
 10
147.5629083372
 20
328.7513958611
 30
0.0
 11
79.2091067079
 21
328.7513958611
 31
0.0
  0
LINE
  5
AED
330
FD9
100
AcDbEntity
  8
0
  6
CONTINUOUS
 62
     7
100
AcDbLine
 10
111.6629083372
 20
176.4686877562
 30
0.0
 11
79.2091067079
 21
176.4686877562
 31
0.0
  0
LINE
  5
AEE
330
FD9
100
AcDbEntity
  8
0
  6
CONTINUOUS
 62
     7
100
AcDbLine
 10
80.2091067079
 20
328.7513958611
 30
0.0
 11
80.2091067079
 21
176.4686877562
 31
0.0
  0
TEXT
  5
AEF
330
FD9
100
AcDbEntity
  8
0
  6
CONTINUOUS
 62
     7
100
AcDbText
 10
-3139.9602425474
 20
247.3583054285
 30
-67.5468018079
 40
2.5
  1
666.21
 50
90.0
 41
0.7
 11
-3142.4602425474
 21
247.3583054285
 31
-67.5468018079
100
AcDbText
 73
     3
  0
ENDBLK
  5
AE9
330
FD9
100
AcDbEntity
  8
0
100
AcDbBlockEnd
  0
BLOCK
  5
FDA
330
FDB
100
AcDbEntity
  8
0
100
AcDbBlockBegin
  2
SW_CENTERMARKSYMBOL_13
 70
     0
 10
0.0
 20
0.0
 30
0.0
  3
SW_CENTERMARKSYMBOL_13
  1

  0
LINE
  5
AF3
330
FDB
100
AcDbEntity
  8
0
  6
CONTINUOUS
 62
     0
100
AcDbLine
 10
0.0
 20
0.0
 30
0.0
 11
0.0
 21
1.2500006706
 31
0.0
  0
LINE
  5
AF4
330
FDB
100
AcDbEntity
  8
0
  6
CONTINUOUS
 62
     0
100
AcDbLine
 10
0.0
 20
0.0
 30
0.0
 11
-1.2500006706
 21
0.0
 31
0.0
  0
LINE
  5
AF5
330
FDB
100
AcDbEntity
  8
0
  6
CONTINUOUS
 62
     0
100
AcDbLine
 10
0.0
 20
0.0
 30
0.0
 11
0.0
 21
-1.2499997392
 31
0.0
  0
LINE
  5
AF6
330
FDB
100
AcDbEntity
  8
0
  6
CONTINUOUS
 62
     0
100
AcDbLine
 10
0.0
 20
0.0
 30
0.0
 11
1.2499988079
 21
0.0
 31
0.0
  0
LINE
  5
AF7
330
FDB
100
AcDbEntity
  8
0
  6
CONTINUOUS
 62
     0
100
AcDbLine
 10
0.0
 20
2.4999994785
 30
0.0
 11
0.0
 21
2.8750002384
 31
0.0
  0
LINE
  5
AF8
330
FDB
100
AcDbEntity
  8
0
  6
CONTINUOUS
 62
     0
100
AcDbLine
 10
-2.4999994785
 20
0.0
 30
0.0
 11
-2.8750002384
 21
0.0
 31
0.0
  0
LINE
  5
AF9
330
FDB
100
AcDbEntity
  8
0
  6
CONTINUOUS
 62
     0
100
AcDbLine
 10
0.0
 20
-2.4999994785
 30
0.0
 11
0.0
 21
-2.8749993071
 31
0.0
  0
LINE
  5
AFA
330
FDB
100
AcDbEntity
  8
0
  6
CONTINUOUS
 62
     0
100
AcDbLine
 10
2.4999994785
 20
0.0
 30
0.0
 11
2.8750002384
 21
0.0
 31
0.0
  0
ENDBLK
  5
AF2
330
FDB
100
AcDbEntity
  8
0
100
AcDbBlockEnd
  0
BLOCK
  5
FDC
330
FDD
100
AcDbEntity
  8
0
100
AcDbBlockBegin
  2
SW_CENTERMARKSYMBOL_14
 70
     0
 10
0.0
 20
0.0
 30
0.0
  3
SW_CENTERMARKSYMBOL_14
  1

  0
LINE
  5
AFF
330
FDD
100
AcDbEntity
  8
0
  6
CONTINUOUS
 62
     0
100
AcDbLine
 10
0.0
 20
0.0
 30
0.0
 11
0.0
 21
1.2500006706
 31
0.0
  0
LINE
  5
B00
330
FDD
100
AcDbEntity
  8
0
  6
CONTINUOUS
 62
     0
100
AcDbLine
 10
0.0
 20
0.0
 30
0.0
 11
-1.2500000885
 21
0.0
 31
0.0
  0
LINE
  5
B01
330
FDD
100
AcDbEntity
  8
0
  6
CONTINUOUS
 62
     0
100
AcDbLine
 10
0.0
 20
0.0
 30
0.0
 11
0.0
 21
-1.2499997392
 31
0.0
  0
LINE
  5
B02
330
FDD
100
AcDbEntity
  8
0
  6
CONTINUOUS
 62
     0
100
AcDbLine
 10
0.0
 20
0.0
 30
0.0
 11
1.2499999721
 21
0.0
 31
0.0
  0
LINE
  5
B03
330
FDD
100
AcDbEntity
  8
0
  6
CONTINUOUS
 62
     0
100
AcDbLine
 10
0.0
 20
2.4999994785
 30
0.0
 11
0.0
 21
2.8750002384
 31
0.0
  0
LINE
  5
B04
330
FDD
100
AcDbEntity
  8
0
  6
CONTINUOUS
 62
     0
100
AcDbLine
 10
-2.5000000896
 20
0.0
 30
0.0
 11
-2.8750000638
 21
0.0
 31
0.0
  0
LINE
  5
B05
330
FDD
100
AcDbEntity
  8
0
  6
CONTINUOUS
 62
     0
100
AcDbLine
 10
0.0
 20
-2.4999994785
 30
0.0
 11
0.0
 21
-2.8749993071
 31
0.0
  0
LINE
  5
B06
330
FDD
100
AcDbEntity
  8
0
  6
CONTINUOUS
 62
     0
100
AcDbLine
 10
2.4999999441
 20
0.0
 30
0.0
 11
2.8749997728
 21
0.0
 31
0.0
  0
ENDBLK
  5
AFE
330
FDD
100
AcDbEntity
  8
0
100
AcDbBlockEnd
  0
BLOCK
  5
FDE
330
FDF
100
AcDbEntity
  8
0
100
AcDbBlockBegin
  2
SW_CENTERMARKSYMBOL_15
 70
     0
 10
0.0
 20
0.0
 30
0.0
  3
SW_CENTERMARKSYMBOL_15
  1

  0
LINE
  5
B0B
330
FDF
100
AcDbEntity
  8
0
  6
CONTINUOUS
 62
     0
100
AcDbLine
 10
0.0
 20
0.0
 30
0.0
 11
0.0
 21
1.2499999721
 31
0.0
  0
LINE
  5
B0C
330
FDF
100
AcDbEntity
  8
0
  6
CONTINUOUS
 62
     0
100
AcDbLine
 10
0.0
 20
0.0
 30
0.0
 11
-1.2499997392
 21
0.0
 31
0.0
  0
LINE
  5
B0D
330
FDF
100
AcDbEntity
  8
0
  6
CONTINUOUS
 62
     0
100
AcDbLine
 10
0.0
 20
0.0
 30
0.0
 11
0.0
 21
-1.2499999721
 31
0.0
  0
LINE
  5
B0E
330
FDF
100
AcDbEntity
  8
0
  6
CONTINUOUS
 62
     0
100
AcDbLine
 10
0.0
 20
0.0
 30
0.0
 11
1.2500006706
 21
0.0
 31
0.0
  0
LINE
  5
B0F
330
FDF
100
AcDbEntity
  8
0
  6
CONTINUOUS
 62
     0
100
AcDbLine
 10
0.0
 20
2.4999997113
 30
0.0
 11
0.0
 21
3.1250000466
 31
0.0
  0
LINE
  5
B10
330
FDF
100
AcDbEntity
  8
0
  6
CONTINUOUS
 62
     0
100
AcDbLine
 10
-2.4999994785
 20
0.0
 30
0.0
 11
-3.1249998137
 21
0.0
 31
0.0
  0
LINE
  5
B11
330
FDF
100
AcDbEntity
  8
0
  6
CONTINUOUS
 62
     0
100
AcDbLine
 10
0.0
 20
-2.5000000605
 30
0.0
 11
0.0
 21
-3.1250001048
 31
0.0
  0
LINE
  5
B12
330
FDF
100
AcDbEntity
  8
0
  6
CONTINUOUS
 62
     0
100
AcDbLine
 10
2.5000004098
 20
0.0
 30
0.0
 11
3.1249998137
 21
0.0
 31
0.0
  0
ENDBLK
  5
B0A
330
FDF
100
AcDbEntity
  8
0
100
AcDbBlockEnd
  0
BLOCK
  5
FE0
330
FE1
100
AcDbEntity
  8
0
100
AcDbBlockBegin
  2
SW_CENTERMARKSYMBOL_16
 70
     0
 10
0.0
 20
0.0
 30
0.0
  3
SW_CENTERMARKSYMBOL_16
  1

  0
LINE
  5
B17
330
FE1
100
AcDbEntity
  8
0
  6
CONTINUOUS
 62
     0
100
AcDbLine
 10
0.0
 20
0.0
 30
0.0
 11
0.0
 21
1.2500006706
 31
0.0
  0
LINE
  5
B18
330
FE1
100
AcDbEntity
  8
0
  6
CONTINUOUS
 62
     0
100
AcDbLine
 10
0.0
 20
0.0
 30
0.0
 11
-1.2499997392
 21
0.0
 31
0.0
  0
LINE
  5
B19
330
FE1
100
AcDbEntity
  8
0
  6
CONTINUOUS
 62
     0
100
AcDbLine
 10
0.0
 20
0.0
 30
0.0
 11
0.0
 21
-1.2499997392
 31
0.0
  0
LINE
  5
B1A
330
FE1
100
AcDbEntity
  8
0
  6
CONTINUOUS
 62
     0
100
AcDbLine
 10
0.0
 20
0.0
 30
0.0
 11
1.2500006706
 21
0.0
 31
0.0
  0
LINE
  5
B1B
330
FE1
100
AcDbEntity
  8
0
  6
CONTINUOUS
 62
     0
100
AcDbLine
 10
0.0
 20
2.4999994785
 30
0.0
 11
0.0
 21
5.4999999702
 31
0.0
  0
LINE
  5
B1C
330
FE1
100
AcDbEntity
  8
0
  6
CONTINUOUS
 62
     0
100
AcDbLine
 10
-2.4999994785
 20
0.0
 30
0.0
 11
-5.4999999702
 21
0.0
 31
0.0
  0
LINE
  5
B1D
330
FE1
100
AcDbEntity
  8
0
  6
CONTINUOUS
 62
     0
100
AcDbLine
 10
0.0
 20
-2.4999994785
 30
0.0
 11
0.0
 21
-5.4999999702
 31
0.0
  0
LINE
  5
B1E
330
FE1
100
AcDbEntity
  8
0
  6
CONTINUOUS
 62
     0
100
AcDbLine
 10
2.5000004098
 20
0.0
 30
0.0
 11
5.4999999702
 21
0.0
 31
0.0
  0
ENDBLK
  5
B16
330
FE1
100
AcDbEntity
  8
0
100
AcDbBlockEnd
  0
BLOCK
  5
FE2
330
FE3
100
AcDbEntity
  8
0
100
AcDbBlockBegin
  2
SW_CENTERMARKSYMBOL_17
 70
     0
 10
0.0
 20
0.0
 30
0.0
  3
SW_CENTERMARKSYMBOL_17
  1

  0
LINE
  5
B23
330
FE3
100
AcDbEntity
  8
0
  6
CONTINUOUS
 62
     0
100
AcDbLine
 10
0.0
 20
0.0
 30
0.0
 11
0.0
 21
1.2499988079
 31
0.0
  0
LINE
  5
B24
330
FE3
100
AcDbEntity
  8
0
  6
CONTINUOUS
 62
     0
100
AcDbLine
 10
0.0
 20
0.0
 30
0.0
 11
-1.2499997392
 21
0.0
 31
0.0
  0
LINE
  5
B25
330
FE3
100
AcDbEntity
  8
0
  6
CONTINUOUS
 62
     0
100
AcDbLine
 10
0.0
 20
0.0
 30
0.0
 11
0.0
 21
-1.2500006706
 31
0.0
  0
LINE
  5
B26
330
FE3
100
AcDbEntity
  8
0
  6
CONTINUOUS
 62
     0
100
AcDbLine
 10
0.0
 20
0.0
 30
0.0
 11
1.2500006706
 21
0.0
 31
0.0
  0
LINE
  5
B27
330
FE3
100
AcDbEntity
  8
0
  6
CONTINUOUS
 62
     0
100
AcDbLine
 10
0.0
 20
2.4999994785
 30
0.0
 11
0.0
 21
6.7999996245
 31
0.0
  0
LINE
  5
B28
330
FE3
100
AcDbEntity
  8
0
  6
CONTINUOUS
 62
     0
100
AcDbLine
 10
-2.4999994785
 20
0.0
 30
0.0
 11
-6.7999996245
 21
0.0
 31
0.0
  0
LINE
  5
B29
330
FE3
100
AcDbEntity
  8
0
  6
CONTINUOUS
 62
     0
100
AcDbLine
 10
0.0
 20
-2.5000013411
 30
0.0
 11
0.0
 21
-6.7999996245
 31
0.0
  0
LINE
  5
B2A
330
FE3
100
AcDbEntity
  8
0
  6
CONTINUOUS
 62
     0
100
AcDbLine
 10
2.5000004098
 20
0.0
 30
0.0
 11
6.7999996245
 21
0.0
 31
0.0
  0
ENDBLK
  5
B22
330
FE3
100
AcDbEntity
  8
0
100
AcDbBlockEnd
  0
BLOCK
  5
FE4
330
FE5
100
AcDbEntity
  8
0
100
AcDbBlockBegin
  2
SW_CENTERMARKSYMBOL_18
 70
     0
 10
0.0
 20
0.0
 30
0.0
  3
SW_CENTERMARKSYMBOL_18
  1

  0
LINE
  5
B2F
330
FE5
100
AcDbEntity
  8
0
  6
CONTINUOUS
 62
     0
100
AcDbLine
 10
0.0
 20
0.0
 30
0.0
 11
0.0
 21
1.2500025332
 31
0.0
  0
LINE
  5
B30
330
FE5
100
AcDbEntity
  8
0
  6
CONTINUOUS
 62
     0
100
AcDbLine
 10
0.0
 20
0.0
 30
0.0
 11
-1.2499997392
 21
0.0
 31
0.0
  0
LINE
  5
B31
330
FE5
100
AcDbEntity
  8
0
  6
CONTINUOUS
 62
     0
100
AcDbLine
 10
0.0
 20
0.0
 30
0.0
 11
0.0
 21
-1.2499988079
 31
0.0
  0
LINE
  5
B32
330
FE5
100
AcDbEntity
  8
0
  6
CONTINUOUS
 62
     0
100
AcDbLine
 10
0.0
 20
0.0
 30
0.0
 11
1.2500006706
 21
0.0
 31
0.0
  0
LINE
  5
B33
330
FE5
100
AcDbEntity
  8
0
  6
CONTINUOUS
 62
     0
100
AcDbLine
 10
0.0
 20
2.5000013411
 30
0.0
 11
0.0
 21
3.8000009954
 31
0.0
  0
LINE
  5
B34
330
FE5
100
AcDbEntity
  8
0
  6
CONTINUOUS
 62
     0
100
AcDbLine
 10
-2.4999994785
 20
0.0
 30
0.0
 11
-3.8000000641
 21
0.0
 31
0.0
  0
LINE
  5
B35
330
FE5
100
AcDbEntity
  8
0
  6
CONTINUOUS
 62
     0
100
AcDbLine
 10
0.0
 20
-2.4999976158
 30
0.0
 11
0.0
 21
-3.8000009954
 31
0.0
  0
LINE
  5
B36
330
FE5
100
AcDbEntity
  8
0
  6
CONTINUOUS
 62
     0
100
AcDbLine
 10
2.5000004098
 20
0.0
 30
0.0
 11
3.8000000641
 21
0.0
 31
0.0
  0
ENDBLK
  5
B2E
330
FE5
100
AcDbEntity
  8
0
100
AcDbBlockEnd
  0
BLOCK
  5
FE6
330
FE7
100
AcDbEntity
  8
0
100
AcDbBlockBegin
  2
SW_CENTERMARKSYMBOL_19
 70
     0
 10
0.0
 20
0.0
 30
0.0
  3
SW_CENTERMARKSYMBOL_19
  1

  0
LINE
  5
B3B
330
FE7
100
AcDbEntity
  8
0
  6
CONTINUOUS
 62
     0
100
AcDbLine
 10
0.0
 20
0.0
 30
0.0
 11
0.0
 21
1.2499988079
 31
0.0
  0
LINE
  5
B3C
330
FE7
100
AcDbEntity
  8
0
  6
CONTINUOUS
 62
     0
100
AcDbLine
 10
0.0
 20
0.0
 30
0.0
 11
-1.2500000885
 21
0.0
 31
0.0
  0
LINE
  5
B3D
330
FE7
100
AcDbEntity
  8
0
  6
CONTINUOUS
 62
     0
100
AcDbLine
 10
0.0
 20
0.0
 30
0.0
 11
0.0
 21
-1.2500006706
 31
0.0
  0
LINE
  5
B3E
330
FE7
100
AcDbEntity
  8
0
  6
CONTINUOUS
 62
     0
100
AcDbLine
 10
0.0
 20
0.0
 30
0.0
 11
1.2499999721
 21
0.0
 31
0.0
  0
LINE
  5
B3F
330
FE7
100
AcDbEntity
  8
0
  6
CONTINUOUS
 62
     0
100
AcDbLine
 10
0.0
 20
2.4999994785
 30
0.0
 11
0.0
 21
2.8750002384
 31
0.0
  0
LINE
  5
B40
330
FE7
100
AcDbEntity
  8
0
  6
CONTINUOUS
 62
     0
100
AcDbLine
 10
-2.5000000896
 20
0.0
 30
0.0
 11
-2.8750000638
 21
0.0
 31
0.0
  0
LINE
  5
B41
330
FE7
100
AcDbEntity
  8
0
  6
CONTINUOUS
 62
     0
100
AcDbLine
 10
0.0
 20
-2.5000013411
 30
0.0
 11
0.0
 21
-2.8750002384
 31
0.0
  0
LINE
  5
B42
330
FE7
100
AcDbEntity
  8
0
  6
CONTINUOUS
 62
     0
100
AcDbLine
 10
2.4999999441
 20
0.0
 30
0.0
 11
2.8749997728
 21
0.0
 31
0.0
  0
ENDBLK
  5
B3A
330
FE7
100
AcDbEntity
  8
0
100
AcDbBlockEnd
  0
BLOCK
  5
FE8
330
FE9
100
AcDbEntity
  8
0
100
AcDbBlockBegin
  2
SW_CENTERMARKSYMBOL_20
 70
     0
 10
0.0
 20
0.0
 30
0.0
  3
SW_CENTERMARKSYMBOL_20
  1

  0
LINE
  5
B47
330
FE9
100
AcDbEntity
  8
0
  6
CONTINUOUS
 62
     0
100
AcDbLine
 10
0.0
 20
0.0
 30
0.0
 11
0.0
 21
1.2499988079
 31
0.0
  0
LINE
  5
B48
330
FE9
100
AcDbEntity
  8
0
  6
CONTINUOUS
 62
     0
100
AcDbLine
 10
0.0
 20
0.0
 30
0.0
 11
-1.2500006706
 21
0.0
 31
0.0
  0
LINE
  5
B49
330
FE9
100
AcDbEntity
  8
0
  6
CONTINUOUS
 62
     0
100
AcDbLine
 10
0.0
 20
0.0
 30
0.0
 11
0.0
 21
-1.2500006706
 31
0.0
  0
LINE
  5
B4A
330
FE9
100
AcDbEntity
  8
0
  6
CONTINUOUS
 62
     0
100
AcDbLine
 10
0.0
 20
0.0
 30
0.0
 11
1.2499988079
 21
0.0
 31
0.0
  0
LINE
  5
B4B
330
FE9
100
AcDbEntity
  8
0
  6
CONTINUOUS
 62
     0
100
AcDbLine
 10
0.0
 20
2.4999994785
 30
0.0
 11
0.0
 21
2.8750002384
 31
0.0
  0
LINE
  5
B4C
330
FE9
100
AcDbEntity
  8
0
  6
CONTINUOUS
 62
     0
100
AcDbLine
 10
-2.4999994785
 20
0.0
 30
0.0
 11
-2.8750002384
 21
0.0
 31
0.0
  0
LINE
  5
B4D
330
FE9
100
AcDbEntity
  8
0
  6
CONTINUOUS
 62
     0
100
AcDbLine
 10
0.0
 20
-2.5000013411
 30
0.0
 11
0.0
 21
-2.8750002384
 31
0.0
  0
LINE
  5
B4E
330
FE9
100
AcDbEntity
  8
0
  6
CONTINUOUS
 62
     0
100
AcDbLine
 10
2.4999994785
 20
0.0
 30
0.0
 11
2.8750002384
 21
0.0
 31
0.0
  0
ENDBLK
  5
B46
330
FE9
100
AcDbEntity
  8
0
100
AcDbBlockEnd
  0
BLOCK
  5
FEA
330
FEB
100
AcDbEntity
  8
0
100
AcDbBlockBegin
  2
_D_52
 70
     0
 10
0.0
 20
0.0
 30
0.0
  3
_D_52
  1

  0
SOLID
  5
BE4
330
FEB
100
AcDbEntity
  8
0
  6
CONTINUOUS
 62
     7
100
AcDbTrace
 10
179.109532091
 20
27.6659904716
 30
0.0
 11
178.7249167064
 21
25.1659904716
 31
0.0
 12
179.4941474756
 22
25.1659904716
 32
0.0
 13
179.4941474756
 23
25.1659904716
 33
0.0
  0
SOLID
  5
BE5
330
FEB
100
AcDbEntity
  8
0
  6
CONTINUOUS
 62
     7
100
AcDbTrace
 10
179.109532091
 20
19.9159904716
 30
0.0
 11
179.4941474756
 21
22.4159904716
 31
0.0
 12
178.7249167064
 22
22.4159904716
 32
0.0
 13
178.7249167064
 23
22.4159904716
 33
0.0
  0
LINE
  5
BE6
330
FEB
100
AcDbEntity
  8
0
  6
CONTINUOUS
 62
     7
100
AcDbLine
 10
162.0629083372
 20
27.6659904716
 30
0.0
 11
180.109532091
 21
27.6659904716
 31
0.0
  0
LINE
  5
BE7
330
FEB
100
AcDbEntity
  8
0
  6
CONTINUOUS
 62
     7
100
AcDbLine
 10
162.0629083372
 20
19.9159904716
 30
0.0
 11
180.109532091
 21
19.9159904716
 31
0.0
  0
LINE
  5
BE8
330
FEB
100
AcDbEntity
  8
0
  6
CONTINUOUS
 62
     7
100
AcDbLine
 10
179.109532091
 20
27.6659904716
 30
0.0
 11
179.109532091
 21
19.9159904716
 31
0.0
  0
LINE
  5
BE9
330
FEB
100
AcDbEntity
  8
0
  6
CONTINUOUS
 62
     7
100
AcDbLine
 10
179.109532091
 20
19.9159904716
 30
0.0
 11
179.109532091
 21
9.4521074526
 31
0.0
  0
TEXT
  5
BEA
330
FEB
100
AcDbEntity
  8
0
  6
CONTINUOUS
 62
     7
100
AcDbText
 10
-3041.0598171643
 20
9.4521074526
 30
-38.133367551
 40
2.5
  1
15.5
 50
90.0
 41
0.7
 11
-3043.5598171643
 21
9.4521074526
 31
-38.133367551
100
AcDbText
 73
     3
  0
ENDBLK
  5
BE3
330
FEB
100
AcDbEntity
  8
0
100
AcDbBlockEnd
  0
BLOCK
  5
FEC
330
FED
100
AcDbEntity
  8
0
100
AcDbBlockBegin
  2
_D_53
 70
     0
 10
0.0
 20
0.0
 30
0.0
  3
_D_53
  1

  0
SOLID
  5
BEF
330
FED
100
AcDbEntity
  8
0
  6
CONTINUOUS
 62
     7
100
AcDbTrace
 10
122.7915499416
 20
19.2909904716
 30
0.0
 11
122.406934557
 21
16.7909904716
 31
0.0
 12
123.1761653262
 22
16.7909904716
 32
0.0
 13
123.1761653262
 23
16.7909904716
 33
0.0
  0
SOLID
  5
BF0
330
FED
100
AcDbEntity
  8
0
  6
CONTINUOUS
 62
     7
100
AcDbTrace
 10
122.7915499416
 20
19.9159904716
 30
0.0
 11
123.1761653262
 21
22.4159904716
 31
0.0
 12
122.406934557
 22
22.4159904716
 32
0.0
 13
122.406934557
 23
22.4159904716
 33
0.0
  0
LINE
  5
BF1
330
FED
100
AcDbEntity
  8
0
  6
CONTINUOUS
 62
     7
100
AcDbLine
 10
119.0629083372
 20
19.2909904716
 30
0.0
 11
123.7915499416
 21
19.2909904716
 31
0.0
  0
LINE
  5
BF2
330
FED
100
AcDbEntity
  8
0
  6
CONTINUOUS
 62
     7
100
AcDbLine
 10
122.7915499416
 20
19.2909904716
 30
0.0
 11
122.7915499416
 21
2.0269383033
 31
0.0
  0
LINE
  5
BF3
330
FED
100
AcDbEntity
  8
0
  6
CONTINUOUS
 62
     7
100
AcDbLine
 10
122.7915499416
 20
19.2909904716
 30
0.0
 11
122.7915499416
 21
19.9159904716
 31
0.0
  0
LINE
  5
BF4
330
FED
100
AcDbEntity
  8
0
  6
CONTINUOUS
 62
     7
100
AcDbLine
 10
122.7915499416
 20
19.9159904716
 30
0.0
 11
122.7915499416
 21
24.7236827793
 31
0.0
  0
TEXT
  5
BF5
330
FED
100
AcDbEntity
  8
0
  6
CONTINUOUS
 62
     7
100
AcDbText
 10
-3097.3777993137
 20
2.0269383033
 30
-38.133367551
 40
2.5
  1
1.25
 50
90.0
 41
0.7
 11
-3099.8777993137
 21
2.0269383033
 31
-38.133367551
100
AcDbText
 73
     3
  0
TEXT
  5
BF6
330
FED
100
AcDbEntity
  8
0
  6
CONTINUOUS
 62
     7
100
AcDbText
 10
-3097.3777993137
 20
8.7109659155
 30
-38.133367551
 40
2.5
  1
/2.25
 50
90.0
 41
0.7
 11
-3099.8777993137
 21
8.7109659155
 31
-38.133367551
100
AcDbText
 73
     3
  0
ENDBLK
  5
BEE
330
FED
100
AcDbEntity
  8
0
100
AcDbBlockEnd
  0
BLOCK
  5
FEE
330
FEF
100
AcDbEntity
  8
0
100
AcDbBlockBegin
  2
_D_54
 70
     0
 10
0.0
 20
0.0
 30
0.0
  3
_D_54
  1

  0
SOLID
  5
BFB
330
FEF
100
AcDbEntity
  8
0
  6
CONTINUOUS
 62
     7
100
AcDbTrace
 10
130.0888494579
 20
28.2909904716
 30
0.0
 11
130.4734648425
 21
30.7909904716
 31
0.0
 12
129.7042340733
 22
30.7909904716
 32
0.0
 13
129.7042340733
 23
30.7909904716
 33
0.0
  0
SOLID
  5
BFC
330
FEF
100
AcDbEntity
  8
0
  6
CONTINUOUS
 62
     7
100
AcDbTrace
 10
130.0888494579
 20
27.6659904716
 30
0.0
 11
129.7042340733
 21
25.1659904716
 31
0.0
 12
130.4734648425
 22
25.1659904716
 32
0.0
 13
130.4734648425
 23
25.1659904716
 33
0.0
  0
LINE
  5
BFD
330
FEF
100
AcDbEntity
  8
0
  6
CONTINUOUS
 62
     7
100
AcDbLine
 10
119.0629083372
 20
28.2909904716
 30
0.0
 11
131.0888494579
 21
28.2909904716
 31
0.0
  0
LINE
  5
BFE
330
FEF
100
AcDbEntity
  8
0
  6
CONTINUOUS
 62
     7
100
AcDbLine
 10
130.0888494579
 20
28.2909904716
 30
0.0
 11
130.0888494579
 21
46.1400074235
 31
0.0
  0
LINE
  5
BFF
330
FEF
100
AcDbEntity
  8
0
  6
CONTINUOUS
 62
     7
100
AcDbLine
 10
130.0888494579
 20
28.2909904716
 30
0.0
 11
130.0888494579
 21
27.6659904716
 31
0.0
  0
LINE
  5
C00
330
FEF
100
AcDbEntity
  8
0
  6
CONTINUOUS
 62
     7
100
AcDbLine
 10
130.0888494579
 20
27.6659904716
 30
0.0
 11
130.0888494579
 21
22.8582981639
 31
0.0
  0
TEXT
  5
C01
330
FEF
100
AcDbEntity
  8
0
  6
CONTINUOUS
 62
     7
100
AcDbText
 10
-3090.0804997974
 20
31.8170904463
 30
-38.133367551
 40
2.5
  1
1.25
 50
90.0
 41
0.7
 11
-3092.5804997974
 21
31.8170904463
 31
-38.133367551
100
AcDbText
 73
     3
  0
TEXT
  5
C02
330
FEF
100
AcDbEntity
  8
0
  6
CONTINUOUS
 62
     7
100
AcDbText
 10
-3090.0804997974
 20
38.5011180585
 30
-38.133367551
 40
2.5
  1
/2.25
 50
90.0
 41
0.7
 11
-3092.5804997974
 21
38.5011180585
 31
-38.133367551
100
AcDbText
 73
     3
  0
ENDBLK
  5
BFA
330
FEF
100
AcDbEntity
  8
0
100
AcDbBlockEnd
  0
BLOCK
  5
1043
330
1042
100
AcDbEntity
  8
0
100
AcDbBlockBegin
  2
*D79
 70
     1
 10
0.0
 20
0.0
 30
0.0
  3
*D79
  1

  0
LINE
  5
1045
330
1042
100
AcDbEntity
  8
0
 62
     0
100
AcDbLine
 10
539.2051900122605
 20
-120.7044986817368
 30
0.0
 11
541.2729323983199
 21
-119.2993504956393
 31
0.0
  0
LINE
  5
1046
330
1042
100
AcDbEntity
  8
0
 62
     0
100
AcDbLine
 10
528.0393811275395
 20
-128.2922988866633
 30
0.0
 11
525.9716387414801
 21
-129.6974470727608
 31
0.0
  0
MTEXT
  5
1047
330
1042
100
AcDbEntity
  8
0
 62
     0
100
AcDbMText
 10
540.6282193078846
 20
-118.9233987842
 30
0.0
 40
2.5
 41
0.0
 71
     5
 72
     1
  1
\A1;%%c17.00
  0
LINE
  5
1048
330
1042
100
AcDbEntity
  8
0
 62
     0
100
AcDbLine
 10
530.1071235135989
 20
-126.8871507005658
 30
0.0
 11
537.137447626201
 21
-122.1096468678343
 31
0.0
  0
SOLID
  5
1049
330
1042
100
AcDbEntity
  8
0
 62
     0
100
AcDbTrace
 10
528.2735724918891
 20
-128.6369226176732
 30
0.0
 11
527.8051897631899
 21
-127.9476751556534
 31
0.0
 12
530.1071235135989
 22
-126.8871507005658
 32
0.0
 13
530.1071235135989
 23
-126.8871507005658
 33
0.0
  0
SOLID
  5
104A
330
1042
100
AcDbEntity
  8
0
 62
     0
100
AcDbTrace
 10
538.9709986479108
 20
-120.3598749507269
 30
0.0
 11
539.4393813766101
 21
-121.0491224127467
 31
0.0
 12
537.137447626201
 22
-122.1096468678343
 32
0.0
 13
537.137447626201
 23
-122.1096468678343
 33
0.0
  0
POINT
  5
104B
330
1042
100
AcDbEntity
  8
DEFPOINTS
 62
     0
100
AcDbPoint
 10
537.137447626201
 20
-122.1096468678343
 30
0.0
  0
POINT
  5
1059
330
1042
100
AcDbEntity
  8
DEFPOINTS
 62
     0
100
AcDbPoint
 10
530.1071235135989
 20
-126.8871507005658
 30
0.0
  0
ENDBLK
  5
1044
330
1042
100
AcDbEntity
  8
0
100
AcDbBlockEnd
  0
BLOCK
  5
1050
330
104F
100
AcDbEntity
  8
0
100
AcDbBlockBegin
  2
*D80
 70
     1
 10
0.0
 20
0.0
 30
0.0
  3
*D80
  1

  0
LINE
  5
1052
330
104F
100
AcDbEntity
  8
0
 62
     0
100
AcDbLine
 10
535.4208221242585
 20
-161.035115149976
 30
0.0
 11
530.3495387250837
 21
-167.9807673645093
 31
0.0
  0
MTEXT
  5
1053
330
104F
100
AcDbEntity
  8
0
 62
     0
100
AcDbMText
 10
541.0443143706073
 20
-154.5483987842
 30
0.0
 40
2.5
 41
0.0
 71
     5
 72
     1
  1
\A1;%%c22.20
  0
LINE
  5
1054
330
104F
100
AcDbEntity
  8
0
 62
     0
100
AcDbLine
 10
530.3495387250837
 20
-167.9807673645093
 30
0.0
 11
536.8950324147163
 21
-159.0160302038907
 31
0.0
  0
SOLID
  5
1055
330
104F
100
AcDbEntity
  8
0
 62
     0
100
AcDbTrace
 10
531.4872348578606
 20
-165.7159807033477
 30
0.0
 11
532.1602631732223
 21
-166.2073841335003
 31
0.0
 12
530.3495387250837
 22
-167.9807673645093
 32
0.0
 13
530.3495387250837
 23
-167.9807673645093
 33
0.0
  0
SOLID
  5
1056
330
104F
100
AcDbEntity
  8
0
 62
     0
100
AcDbTrace
 10
535.7573362819394
 20
-161.2808168650523
 30
0.0
 11
535.0843079665776
 21
-160.7894134348997
 31
0.0
 12
536.8950324147163
 22
-159.0160302038907
 32
0.0
 13
536.8950324147163
 23
-159.0160302038907
 33
0.0
  0
POINT
  5
1057
330
104F
100
AcDbEntity
  8
DEFPOINTS
 62
     0
100
AcDbPoint
 10
536.8950324147163
 20
-159.0160302038907
 30
0.0
  0
POINT
  5
1058
330
104F
100
AcDbEntity
  8
DEFPOINTS
 62
     0
100
AcDbPoint
 10
530.3495387250837
 20
-167.9807673645093
 30
0.0
  0
ENDBLK
  5
1051
330
104F
100
AcDbEntity
  8
0
100
AcDbBlockEnd
  0
ENDSEC
  0
SECTION
  2
ENTITIES
  0
LINE
  5
64
330
F39
100
AcDbEntity
  8
0
  6
CONTINUOUS
 62
     7
100
AcDbLine
 10
503.4722855699
 20
171.2016012158
 30
0.0
 11
499.7222855699
 21
171.2016012158
 31
0.0
  0
LINE
  5
65
330
F39
100
AcDbEntity
  8
0
  6
CONTINUOUS
 62
     7
100
AcDbLine
 10
499.7222855699
 20
165.7016012158
 30
0.0
 11
503.4722855699
 21
165.7016012158
 31
0.0
  0
LINE
  5
66
330
F39
100
AcDbEntity
  8
0
  6
CONTINUOUS
 62
     7
100
AcDbLine
 10
503.4722855699
 20
-454.85456582855
 30
0.0
 11
499.7222855699
 21
-454.85456582855
 31
0.0
  0
LINE
  5
67
330
F39
100
AcDbEntity
  8
0
  6
CONTINUOUS
 62
     7
100
AcDbLine
 10
499.7222855699
 20
-460.35456582855
 30
0.0
 11
503.4722855699
 21
-460.35456582855
 31
0.0
  0
LINE
  5
68
330
F39
100
AcDbEntity
  8
0
  6
CONTINUOUS
 62
     7
100
AcDbLine
 10
503.4722855699
 20
-458.70456582855
 30
0.0
 11
503.6222855699
 21
-458.70456582855
 31
0.0
  0
LINE
  5
69
330
F39
100
AcDbEntity
  8
0
  6
CONTINUOUS
 62
     7
100
AcDbLine
 10
505.1222855699
 20
-458.70456582855
 30
0.0
 11
505.9722855699
 21
-458.70456582855
 31
0.0
  0
LINE
  5
6A
330
F39
100
AcDbEntity
  8
0
  6
CONTINUOUS
 62
     7
100
AcDbLine
 10
505.9722855699
 20
-455.70456582855
 30
0.0
 11
505.1222855699
 21
-455.70456582855
 31
0.0
  0
LINE
  5
6B
330
F39
100
AcDbEntity
  8
0
  6
CONTINUOUS
 62
     7
100
AcDbLine
 10
503.6222855699
 20
-455.70456582855
 30
0.0
 11
503.4722855699
 21
-455.70456582855
 31
0.0
  0
LINE
  5
6C
330
F39
100
AcDbEntity
  8
0
  6
CONTINUOUS
 62
     7
100
AcDbLine
 10
506.9722855699
 20
-458.45456582855
 30
0.0
 11
507.3222855699
 21
-458.45456582855
 31
0.0
  0
LINE
  5
6D
330
F39
100
AcDbEntity
  8
0
  6
CONTINUOUS
 62
     7
100
AcDbLine
 10
507.3222855699
 20
-455.95456582855
 30
0.0
 11
506.9722855699
 21
-455.95456582855
 31
0.0
  0
LINE
  5
6E
330
F39
100
AcDbEntity
  8
0
  6
CONTINUOUS
 62
     7
100
AcDbLine
 10
503.4722855699
 20
167.3516012158
 30
0.0
 11
503.6222855699
 21
167.3516012158
 31
0.0
  0
LINE
  5
6F
330
F39
100
AcDbEntity
  8
0
  6
CONTINUOUS
 62
     7
100
AcDbLine
 10
505.1222855699
 20
167.3516012158
 30
0.0
 11
505.9722855699
 21
167.3516012158
 31
0.0
  0
LINE
  5
70
330
F39
100
AcDbEntity
  8
0
  6
CONTINUOUS
 62
     7
100
AcDbLine
 10
505.9722855699
 20
170.3516012158
 30
0.0
 11
505.1222855699
 21
170.3516012158
 31
0.0
  0
LINE
  5
71
330
F39
100
AcDbEntity
  8
0
  6
CONTINUOUS
 62
     7
100
AcDbLine
 10
503.6222855699
 20
170.3516012158
 30
0.0
 11
503.4722855699
 21
170.3516012158
 31
0.0
  0
LINE
  5
72
330
F39
100
AcDbEntity
  8
0
  6
CONTINUOUS
 62
     7
100
AcDbLine
 10
506.9722855699
 20
167.6016012158
 30
0.0
 11
507.3222855699
 21
167.6016012158
 31
0.0
  0
LINE
  5
73
330
F39
100
AcDbEntity
  8
0
  6
CONTINUOUS
 62
     7
100
AcDbLine
 10
507.3222855699
 20
170.1016012158
 30
0.0
 11
506.9722855699
 21
170.1016012158
 31
0.0
  0
LINE
  5
74
330
F39
100
AcDbEntity
  8
0
  6
CONTINUOUS
 62
     7
100
AcDbLine
 10
505.1222855699
 20
308.1016012158
 30
0.0
 11
503.6222855699
 21
308.1016012158
 31
0.0
  0
LINE
  5
75
330
F39
100
AcDbEntity
  8
0
  6
CONTINUOUS
 62
     7
100
AcDbLine
 10
503.6222855699
 20
-585.8983987842
 30
0.0
 11
505.1222855699
 21
-585.8983987842
 31
0.0
  0
LINE
  5
76
330
F39
100
AcDbEntity
  8
0
  6
CONTINUOUS
 62
     7
100
AcDbLine
 10
505.8222855699
 20
-340.8983987842
 30
0.0
 11
505.9722855699
 21
-340.7483987842
 31
0.0
  0
LINE
  5
77
330
F39
100
AcDbEntity
  8
0
  6
CONTINUOUS
 62
     7
100
AcDbLine
 10
505.9722855699
 20
-336.0483987842
 30
0.0
 11
505.8222855699
 21
-335.8983987842
 31
0.0
  0
LINE
  5
78
330
F39
100
AcDbEntity
  8
0
  6
CONTINUOUS
 62
     7
100
AcDbLine
 10
505.8222855699
 20
-335.8983987842
 30
0.0
 11
505.2722855699
 21
-335.8983987842
 31
0.0
  0
LINE
  5
79
330
F39
100
AcDbEntity
  8
0
  6
CONTINUOUS
 62
     7
100
AcDbLine
 10
505.2722855699
 20
-340.8983987842
 30
0.0
 11
505.8222855699
 21
-340.8983987842
 31
0.0
  0
LINE
  5
7A
330
F39
100
AcDbEntity
  8
0
  6
CONTINUOUS
 62
     7
100
AcDbLine
 10
505.2722855699
 20
-335.8983987842
 30
0.0
 11
505.1222855699
 21
-336.0483987842
 31
0.0
  0
LINE
  5
7B
330
F39
100
AcDbEntity
  8
0
  6
CONTINUOUS
 62
     7
100
AcDbLine
 10
505.1222855699
 20
-340.7483987842
 30
0.0
 11
505.2722855699
 21
-340.8983987842
 31
0.0
  0
LINE
  5
7C
330
F39
100
AcDbEntity
  8
0
  6
CONTINUOUS
 62
     7
100
AcDbLine
 10
505.8222855699
 20
63.10160121579997
 30
0.0
 11
505.2722855699
 21
63.10160121579997
 31
0.0
  0
LINE
  5
7D
330
F39
100
AcDbEntity
  8
0
  6
CONTINUOUS
 62
     7
100
AcDbLine
 10
505.2722855699
 20
58.10160121579997
 30
0.0
 11
505.8222855699
 21
58.10160121579997
 31
0.0
  0
LINE
  5
7E
330
F39
100
AcDbEntity
  8
0
  6
CONTINUOUS
 62
     7
100
AcDbLine
 10
505.8222855699
 20
58.10160121579997
 30
0.0
 11
505.9722855699
 21
58.25160121580001
 31
0.0
  0
LINE
  5
7F
330
F39
100
AcDbEntity
  8
0
  6
CONTINUOUS
 62
     7
100
AcDbLine
 10
505.9722855699
 20
62.9516012158
 30
0.0
 11
505.8222855699
 21
63.10160121579997
 31
0.0
  0
LINE
  5
80
330
F39
100
AcDbEntity
  8
0
  6
CONTINUOUS
 62
     7
100
AcDbLine
 10
505.2722855699
 20
63.10160121579997
 30
0.0
 11
505.1222855699
 21
62.9516012158
 31
0.0
  0
LINE
  5
81
330
F39
100
AcDbEntity
  8
0
  6
CONTINUOUS
 62
     7
100
AcDbLine
 10
505.1222855699
 20
58.25160121580001
 30
0.0
 11
505.2722855699
 21
58.10160121579997
 31
0.0
  0
LINE
  5
82
330
F39
100
AcDbEntity
  8
0
  6
CONTINUOUS
 62
     7
100
AcDbLine
 10
507.8222855699
 20
62.85160121579997
 30
0.0
 11
507.0722855699
 21
62.85160121579997
 31
0.0
  0
LINE
  5
83
330
F39
100
AcDbEntity
  8
0
  6
CONTINUOUS
 62
     7
100
AcDbLine
 10
507.0722855699
 20
58.35160121579997
 30
0.0
 11
507.8222855699
 21
58.35160121579997
 31
0.0
  0
LINE
  5
84
330
F39
100
AcDbEntity
  8
0
  6
CONTINUOUS
 62
     7
100
AcDbLine
 10
507.0722855699
 20
61.75160121580001
 30
0.0
 11
506.9722855699
 21
61.75160121580001
 31
0.0
  0
LINE
  5
85
330
F39
100
AcDbEntity
  8
0
  6
CONTINUOUS
 62
     7
100
AcDbLine
 10
506.9722855699
 20
59.4516012158
 30
0.0
 11
507.0722855699
 21
59.4516012158
 31
0.0
  0
LINE
  5
86
330
F39
100
AcDbEntity
  8
0
  6
CONTINUOUS
 62
     7
100
AcDbLine
 10
503.6222855699
 20
61.35160121579997
 30
0.0
 11
503.3722855699
 21
61.35160121579997
 31
0.0
  0
LINE
  5
87
330
F39
100
AcDbEntity
  8
0
  6
CONTINUOUS
 62
     7
100
AcDbLine
 10
503.3722855699
 20
59.85160121579997
 30
0.0
 11
503.6222855699
 21
59.85160121579997
 31
0.0
  0
LINE
  5
88
330
F39
100
AcDbEntity
  8
0
  6
CONTINUOUS
 62
     7
100
AcDbLine
 10
507.8222855699
 20
-336.1483987842
 30
0.0
 11
507.0722855699
 21
-336.1483987842
 31
0.0
  0
LINE
  5
89
330
F39
100
AcDbEntity
  8
0
  6
CONTINUOUS
 62
     7
100
AcDbLine
 10
507.0722855699
 20
-340.6483987842
 30
0.0
 11
507.8222855699
 21
-340.6483987842
 31
0.0
  0
LINE
  5
8A
330
F39
100
AcDbEntity
  8
0
  6
CONTINUOUS
 62
     7
100
AcDbLine
 10
507.0722855699
 20
-337.2483987842
 30
0.0
 11
506.9722855699
 21
-337.2483987842
 31
0.0
  0
LINE
  5
8B
330
F39
100
AcDbEntity
  8
0
  6
CONTINUOUS
 62
     7
100
AcDbLine
 10
506.9722855699
 20
-339.5483987842
 30
0.0
 11
507.0722855699
 21
-339.5483987842
 31
0.0
  0
LINE
  5
8C
330
F39
100
AcDbEntity
  8
0
  6
CONTINUOUS
 62
     7
100
AcDbLine
 10
503.6222855699
 20
-337.6483987842
 30
0.0
 11
503.3722855699
 21
-337.6483987842
 31
0.0
  0
LINE
  5
8D
330
F39
100
AcDbEntity
  8
0
  6
CONTINUOUS
 62
     7
100
AcDbLine
 10
503.3722855699
 20
-339.1483987842
 30
0.0
 11
503.6222855699
 21
-339.1483987842
 31
0.0
  0
LINE
  5
8E
330
F39
100
AcDbEntity
  8
0
  6
CONTINUOUS
 62
     7
100
AcDbLine
 10
498.1222855699
 20
-105.8483987842
 30
0.0
 11
498.1222855699
 21
-121.8483987842
 31
0.0
  0
LINE
  5
8F
330
F39
100
AcDbEntity
  8
0
  6
CONTINUOUS
 62
     7
100
AcDbLine
 10
499.7222855699
 20
168.1208305654
 30
0.0
 11
499.7222855699
 21
165.7016012158
 31
0.0
  0
LINE
  5
90
330
F39
100
AcDbEntity
  8
0
  6
CONTINUOUS
 62
     7
100
AcDbLine
 10
499.7222855699
 20
171.2016012158
 30
0.0
 11
499.7222855699
 21
168.1208305654
 31
0.0
  0
LINE
  5
91
330
F39
100
AcDbEntity
  8
0
  6
CONTINUOUS
 62
     7
100
AcDbLine
 10
503.4722855699
 20
168.1208305654
 30
0.0
 11
503.4722855699
 21
165.7016012158
 31
0.0
  0
LINE
  5
92
330
F39
100
AcDbEntity
  8
0
  6
CONTINUOUS
 62
     7
100
AcDbLine
 10
503.4722855699
 20
171.2016012158
 30
0.0
 11
503.4722855699
 21
168.1208305654
 31
0.0
  0
LINE
  5
93
330
F39
100
AcDbEntity
  8
0
  6
CONTINUOUS
 62
     7
100
AcDbLine
 10
499.7222855699
 20
-457.93533647895
 30
0.0
 11
499.7222855699
 21
-460.35456582855
 31
0.0
  0
LINE
  5
94
330
F39
100
AcDbEntity
  8
0
  6
CONTINUOUS
 62
     7
100
AcDbLine
 10
499.7222855699
 20
-454.85456582855
 30
0.0
 11
499.7222855699
 21
-457.93533647895
 31
0.0
  0
LINE
  5
95
330
F39
100
AcDbEntity
  8
0
  6
CONTINUOUS
 62
     7
100
AcDbLine
 10
503.4722855699
 20
-457.93533647895
 30
0.0
 11
503.4722855699
 21
-460.35456582855
 31
0.0
  0
LINE
  5
96
330
F39
100
AcDbEntity
  8
0
  6
CONTINUOUS
 62
     7
100
AcDbLine
 10
503.4722855699
 20
-454.85456582855
 30
0.0
 11
503.4722855699
 21
-457.93533647895
 31
0.0
  0
LINE
  5
97
330
F39
100
AcDbEntity
  8
0
  6
CONTINUOUS
 62
     7
100
AcDbLine
 10
507.3222855699
 20
-457.20456582855
 30
0.0
 11
507.3222855699
 21
-458.45456582855
 31
0.0
  0
LINE
  5
98
330
F39
100
AcDbEntity
  8
0
  6
CONTINUOUS
 62
     7
100
AcDbLine
 10
507.3222855699
 20
-455.95456582855
 30
0.0
 11
507.3222855699
 21
-457.20456582855
 31
0.0
  0
LINE
  5
99
330
F39
100
AcDbEntity
  8
0
  6
CONTINUOUS
 62
     7
100
AcDbLine
 10
507.3222855699
 20
168.8516012158
 30
0.0
 11
507.3222855699
 21
167.6016012158
 31
0.0
  0
LINE
  5
9A
330
F39
100
AcDbEntity
  8
0
  6
CONTINUOUS
 62
     7
100
AcDbLine
 10
507.3222855699
 20
170.1016012158
 30
0.0
 11
507.3222855699
 21
168.8516012158
 31
0.0
  0
LINE
  5
9B
330
F39
100
AcDbEntity
  8
0
  6
CONTINUOUS
 62
     7
100
AcDbLine
 10
503.6222855699
 20
-581.3983987842
 30
0.0
 11
505.1222855699
 21
-581.3983987842
 31
0.0
  0
LINE
  5
9C
330
F39
100
AcDbEntity
  8
0
  6
CONTINUOUS
 62
     7
100
AcDbLine
 10
503.6222855699
 20
303.6016012158
 30
0.0
 11
505.1222855699
 21
303.6016012158
 31
0.0
  0
LINE
  5
9D
330
F39
100
AcDbEntity
  8
0
  6
CONTINUOUS
 62
     7
100
AcDbLine
 10
505.1222855699
 20
-581.3983987842
 30
0.0
 11
505.1222855699
 21
303.6016012158
 31
0.0
  0
LINE
  5
9E
330
F39
100
AcDbEntity
  8
0
  6
CONTINUOUS
 62
     7
100
AcDbLine
 10
503.6222855699
 20
-581.3983987842
 30
0.0
 11
503.6222855699
 21
303.6016012158
 31
0.0
  0
LINE
  5
9F
330
F39
100
AcDbEntity
  8
0
  6
CONTINUOUS
 62
     7
100
AcDbLine
 10
505.1222855699
 20
303.6016012158
 30
0.0
 11
505.1222855699
 21
308.1016012158
 31
0.0
  0
LINE
  5
A0
330
F39
100
AcDbEntity
  8
0
  6
CONTINUOUS
 62
     7
100
AcDbLine
 10
503.6222855699
 20
303.6016012158
 30
0.0
 11
503.6222855699
 21
308.1016012158
 31
0.0
  0
LINE
  5
A1
330
F39
100
AcDbEntity
  8
0
  6
CONTINUOUS
 62
     7
100
AcDbLine
 10
505.1222855699
 20
-585.8983987842
 30
0.0
 11
505.1222855699
 21
-581.3983987842
 31
0.0
  0
LINE
  5
A2
330
F39
100
AcDbEntity
  8
0
  6
CONTINUOUS
 62
     7
100
AcDbLine
 10
503.6222855699
 20
-585.8983987842
 30
0.0
 11
503.6222855699
 21
-581.3983987842
 31
0.0
  0
LINE
  5
A3
330
F39
100
AcDbEntity
  8
0
  6
CONTINUOUS
 62
     7
100
AcDbLine
 10
520.2687321793001
 20
-510.1698453936
 30
0.0
 11
525.3758389605
 21
-515.2769521748
 31
0.0
  0
LINE
  5
A4
330
F39
100
AcDbEntity
  8
0
  6
CONTINUOUS
 62
     7
100
AcDbLine
 10
525.3758389605
 20
-515.2769521748
 30
0.0
 11
525.0222855699001
 21
-515.6305055654
 31
0.0
  0
LINE
  5
A5
330
F39
100
AcDbEntity
  8
0
  6
CONTINUOUS
 62
     7
100
AcDbLine
 10
525.0222855699001
 20
-515.6305055654
 30
0.0
 11
519.9151787887
 21
-510.5233987842
 31
0.0
  0
LINE
  5
A6
330
F39
100
AcDbEntity
  8
0
  6
CONTINUOUS
 62
     7
100
AcDbLine
 10
520.2687321793001
 20
-510.1698453936
 30
0.0
 11
519.9151787887
 21
-510.5233987842
 31
0.0
  0
LINE
  5
A7
330
F39
100
AcDbEntity
  8
0
  6
CONTINUOUS
 62
     7
100
AcDbLine
 10
519.9151787887
 20
-510.5233987842
 30
0.0
 11
505.1222855699
 21
-510.5233987842
 31
0.0
  0
LINE
  5
A8
330
F39
100
AcDbEntity
  8
0
  6
CONTINUOUS
 62
     7
100
AcDbLine
 10
525.0222855699001
 20
-538.1662920030001
 30
0.0
 11
525.0222855699001
 21
-515.6305055654
 31
0.0
  0
LINE
  5
A9
330
F39
100
AcDbEntity
  8
0
  6
CONTINUOUS
 62
     7
100
AcDbLine
 10
519.9151787887
 20
-543.2733987842
 30
0.0
 11
525.0222855699001
 21
-538.1662920030001
 31
0.0
  0
LINE
  5
AA
330
F39
100
AcDbEntity
  8
0
  6
CONTINUOUS
 62
     7
100
AcDbLine
 10
505.1222855699
 20
-543.2733987842
 30
0.0
 11
519.9151787887
 21
-543.2733987842
 31
0.0
  0
LINE
  5
AB
330
F39
100
AcDbEntity
  8
0
  6
CONTINUOUS
 62
     7
100
AcDbLine
 10
525.5222855699001
 20
-515.6305055654
 30
0.0
 11
525.0222855699001
 21
-515.6305055654
 31
0.0
  0
ARC
  5
AC
330
F39
100
AcDbEntity
  8
0
  6
CONTINUOUS
 62
     7
100
AcDbCircle
 10
525.0222855699001
 20
-515.6305055654
 30
0.0
 40
0.500000000000024
100
AcDbArc
 50
0.0
 51
45.0
  0
LINE
  5
AD
330
F39
100
AcDbEntity
  8
0
  6
CONTINUOUS
 62
     7
100
AcDbLine
 10
519.9151787887
 20
-510.0233987842
 30
0.0
 11
519.9151787887
 21
-510.5233987842
 31
0.0
  0
ARC
  5
AE
330
F39
100
AcDbEntity
  8
0
  6
CONTINUOUS
 62
     7
100
AcDbCircle
 10
519.9151787887
 20
-510.5233987842
 30
0.0
 40
0.5
100
AcDbArc
 50
45.0000000000046
 51
90.0
  0
LINE
  5
AF
330
F39
100
AcDbEntity
  8
0
  6
CONTINUOUS
 62
     7
100
AcDbLine
 10
505.1222855699
 20
-510.0233987842
 30
0.0
 11
519.9151787887
 21
-510.0233987842
 31
0.0
  0
LINE
  5
B0
330
F39
100
AcDbEntity
  8
0
  6
CONTINUOUS
 62
     7
100
AcDbLine
 10
519.9151787887
 20
-543.2733987842
 30
0.0
 11
519.9151787887
 21
-543.7733987842
 31
0.0
  0
LINE
  5
B1
330
F39
100
AcDbEntity
  8
0
  6
CONTINUOUS
 62
     7
100
AcDbLine
 10
519.9151787887
 20
-543.7733987842
 30
0.0
 11
505.1222855699
 21
-543.7733987842
 31
0.0
  0
LINE
  5
B2
330
F39
100
AcDbEntity
  8
0
  6
CONTINUOUS
 62
     7
100
AcDbLine
 10
525.3758389605
 20
-538.5198453936
 30
0.0
 11
520.2687321793001
 21
-543.6269521748
 31
0.0
  0
LINE
  5
B3
330
F39
100
AcDbEntity
  8
0
  6
CONTINUOUS
 62
     7
100
AcDbLine
 10
520.2687321793001
 20
-543.6269521748
 30
0.0
 11
519.9151787887
 21
-543.2733987842
 31
0.0
  0
LINE
  5
B4
330
F39
100
AcDbEntity
  8
0
  6
CONTINUOUS
 62
     7
100
AcDbLine
 10
525.3758389605
 20
-538.5198453936
 30
0.0
 11
525.0222855699001
 21
-538.1662920030001
 31
0.0
  0
ARC
  5
B5
330
F39
100
AcDbEntity
  8
0
  6
CONTINUOUS
 62
     7
100
AcDbCircle
 10
519.9151787887
 20
-543.2733987842
 30
0.0
 40
0.500000000000057
100
AcDbArc
 50
270.0
 51
315.0
  0
LINE
  5
B6
330
F39
100
AcDbEntity
  8
0
  6
CONTINUOUS
 62
     7
100
AcDbLine
 10
525.5222855699001
 20
-538.1662920030001
 30
0.0
 11
525.0222855699001
 21
-538.1662920030001
 31
0.0
  0
ARC
  5
B7
330
F39
100
AcDbEntity
  8
0
  6
CONTINUOUS
 62
     7
100
AcDbCircle
 10
525.0222855699001
 20
-538.1662920030001
 30
0.0
 40
0.500000000000004
100
AcDbArc
 50
315.0
 51
0.0
  0
LINE
  5
B8
330
F39
100
AcDbEntity
  8
0
  6
CONTINUOUS
 62
     7
100
AcDbLine
 10
525.5222855699001
 20
-515.6305055654
 30
0.0
 11
525.5222855699001
 21
-538.1662920030001
 31
0.0
  0
ARC
  5
B9
330
F39
100
AcDbEntity
  8
0
  6
CONTINUOUS
 62
     7
100
AcDbCircle
 10
495.5076780035
 20
-524.9232140512499
 30
0.0
 40
1.442551359280002
100
AcDbArc
 50
170.5301789887017
 51
173.3332090872036
  0
LINE
  5
BA
330
F39
100
AcDbEntity
  8
0
  6
CONTINUOUS
 62
     7
100
AcDbLine
 10
494.1222855699
 20
-524.6867251119
 30
0.0
 11
494.0847851585
 21
-524.6858738401
 31
0.0
  0
LWPOLYLINE
  5
BB
330
F39
100
AcDbEntity
  8
0
  6
CONTINUOUS
 62
     7
100
AcDbPolyline
 90
        3
 70
   128
 43
0.0
 10
494.44742816835
 20
-524.70469452705
 10
494.2647685177
 20
-524.69428430975
 10
494.1222855699
 20
-524.6867251119
  0
LWPOLYLINE
  5
BC
330
F39
100
AcDbEntity
  8
0
  6
CONTINUOUS
 62
     7
100
AcDbPolyline
 90
        3
 70
   128
 43
0.0
 10
494.1222855699
 20
-529.1100724565
 10
494.3038511612
 20
-529.10035330715
 10
494.44742816835
 20
-529.09210304135
  0
LINE
  5
BD
330
F39
100
AcDbEntity
  8
0
  6
CONTINUOUS
 62
     7
100
AcDbLine
 10
494.0847851585
 20
-529.1109237283
 30
0.0
 11
494.1222855699
 21
-529.1100724565
 31
0.0
  0
ARC
  5
BE
330
F39
100
AcDbEntity
  8
0
  6
CONTINUOUS
 62
     7
100
AcDbCircle
 10
495.50767800355
 20
-528.87358351715
 30
0.0
 40
1.442551359337865
100
AcDbArc
 50
186.6667909129005
 51
189.4698210112998
  0
LINE
  5
BF
330
F39
100
AcDbEntity
  8
0
  6
CONTINUOUS
 62
     7
100
AcDbLine
 10
494.0748810236
 20
-524.75574095315
 30
0.0
 11
494.0748810236
 21
-529.04105661525
 31
0.0
  0
LINE
  5
C0
330
F39
100
AcDbEntity
  8
0
  6
CONTINUOUS
 62
     7
100
AcDbLine
 10
494.1222855699
 20
-529.1483987842
 30
0.0
 11
494.1222855699
 21
-529.1100724565
 31
0.0
  0
LWPOLYLINE
  5
C1
330
F39
100
AcDbEntity
  8
0
  6
CONTINUOUS
 62
     7
100
AcDbPolyline
 90
        3
 70
   128
 43
0.0
 10
494.1222855699
 20
-529.1483987842
 10
493.9868683177
 20
-529.1297117466
 10
493.8584290119
 20
-529.0731101177
  0
LINE
  5
C2
330
F39
100
AcDbEntity
  8
0
  6
CONTINUOUS
 62
     7
100
AcDbLine
 10
493.8584290119
 20
-529.0731101177
 30
0.0
 11
493.89080941155
 21
-529.0887932406
 31
0.0
  0
LWPOLYLINE
  5
C3
330
F39
100
AcDbEntity
  8
0
  6
CONTINUOUS
 62
     7
100
AcDbPolyline
 90
        3
 70
   128
 43
0.0
 10
493.8908094212
 20
-529.0887932483
 10
493.985078663
 20
-529.1073785842
 10
494.0847851585
 20
-529.1109237283
  0
LWPOLYLINE
  5
C4
330
F39
100
AcDbEntity
  8
0
  6
CONTINUOUS
 62
     7
100
AcDbPolyline
 90
        3
 70
   128
 43
0.0
 10
493.8908141337
 20
-524.7080144713
 10
493.9850095883
 20
-524.68946347835
 10
494.08478533095
 20
-524.685879312
  0
LINE
  5
C5
330
F39
100
AcDbEntity
  8
0
  6
CONTINUOUS
 62
     7
100
AcDbLine
 10
493.89080941155
 20
-524.70800432775
 30
0.0
 11
493.8584290119
 21
-524.7236874507
 31
0.0
  0
LWPOLYLINE
  5
C6
330
F39
100
AcDbEntity
  8
0
  6
CONTINUOUS
 62
     7
100
AcDbPolyline
 90
        3
 70
   128
 43
0.0
 10
493.8584290119
 20
-524.7236874507
 10
493.9868683177
 20
-524.66708582175
 10
494.1222855699
 20
-524.6483987842
  0
LINE
  5
C7
330
F39
100
AcDbEntity
  8
0
  6
CONTINUOUS
 62
     7
100
AcDbLine
 10
494.1222855699
 20
-524.6483987842
 30
0.0
 11
494.1222855699
 21
-524.6867251119
 31
0.0
  0
LINE
  5
C8
330
F39
100
AcDbEntity
  8
0
  6
CONTINUOUS
 62
     7
100
AcDbLine
 10
503.6222855699
 20
-529.1483987842
 30
0.0
 11
494.1222855699
 21
-529.1483987842
 31
0.0
  0
LINE
  5
C9
330
F39
100
AcDbEntity
  8
0
  6
CONTINUOUS
 62
     7
100
AcDbLine
 10
494.1222855699
 20
-524.6483987842
 30
0.0
 11
503.6222855699
 21
-524.6483987842
 31
0.0
  0
LWPOLYLINE
  5
CA
330
F39
100
AcDbEntity
  8
0
  6
CONTINUOUS
 62
     7
100
AcDbPolyline
 90
        3
 70
   128
 43
0.0
 10
493.89080941155
 20
-529.0887932406
 10
493.98108835055
 20
-529.0569206842
 10
494.0748810236
 20
-529.04105661525
  0
LWPOLYLINE
  5
CB
330
F39
100
AcDbEntity
  8
0
  6
CONTINUOUS
 62
     7
100
AcDbPolyline
 90
        3
 70
   128
 43
0.0
 10
493.6222855699
 20
-528.6483987842
 10
493.70124329215
 20
-528.9180715495
 10
493.8584290119
 20
-529.0731101177
  0
LINE
  5
CC
330
F39
100
AcDbEntity
  8
0
  6
CONTINUOUS
 62
     7
100
AcDbLine
 10
493.6222855699
 20
-528.6483987842
 30
0.0
 11
493.6222855699
 21
-525.1483987842
 31
0.0
  0
ARC
  5
CD
330
F39
100
AcDbEntity
  8
0
  6
CONTINUOUS
 62
     7
100
AcDbCircle
 10
494.1222855699
 20
-525.1483987842
 30
0.0
 40
0.4999999999999925
100
AcDbArc
 50
121.8510691154002
 51
180.0
  0
LWPOLYLINE
  5
CE
330
F39
100
AcDbEntity
  8
0
  6
CONTINUOUS
 62
     7
100
AcDbPolyline
 90
        3
 70
   128
 43
0.0
 10
494.0748810236
 20
-524.75574095315
 10
493.98108835055
 20
-524.7398768842
 10
493.89080941155
 20
-524.70800432775
  0
LINE
  5
CF
330
F39
100
AcDbEntity
  8
0
  6
CONTINUOUS
 62
     7
100
AcDbLine
 10
520.2687321793001
 20
256.8301546064
 30
0.0
 11
525.3758389605
 21
251.7230478252
 31
0.0
  0
LINE
  5
D0
330
F39
100
AcDbEntity
  8
0
  6
CONTINUOUS
 62
     7
100
AcDbLine
 10
525.3758389605
 20
251.7230478252
 30
0.0
 11
525.0222855699001
 21
251.3694944346
 31
0.0
  0
LINE
  5
D1
330
F39
100
AcDbEntity
  8
0
  6
CONTINUOUS
 62
     7
100
AcDbLine
 10
525.0222855699001
 20
251.3694944346
 30
0.0
 11
519.9151787887
 21
256.4766012158
 31
0.0
  0
LINE
  5
D2
330
F39
100
AcDbEntity
  8
0
  6
CONTINUOUS
 62
     7
100
AcDbLine
 10
520.2687321793001
 20
256.8301546064
 30
0.0
 11
519.9151787887
 21
256.4766012158
 31
0.0
  0
LINE
  5
D3
330
F39
100
AcDbEntity
  8
0
  6
CONTINUOUS
 62
     7
100
AcDbLine
 10
505.1222855699
 20
256.9766012158
 30
0.0
 11
519.9151787887
 21
256.9766012158
 31
0.0
  0
LINE
  5
D4
330
F39
100
AcDbEntity
  8
0
  6
CONTINUOUS
 62
     7
100
AcDbLine
 10
519.9151787887
 20
256.9766012158
 30
0.0
 11
519.9151787887
 21
256.4766012158
 31
0.0
  0
LINE
  5
D5
330
F39
100
AcDbEntity
  8
0
  6
CONTINUOUS
 62
     7
100
AcDbLine
 10
519.9151787887
 20
256.4766012158
 30
0.0
 11
505.1222855699
 21
256.4766012158
 31
0.0
  0
ARC
  5
D6
330
F39
100
AcDbEntity
  8
0
  6
CONTINUOUS
 62
     7
100
AcDbCircle
 10
519.9151787887
 20
256.4766012158
 30
0.0
 40
0.4999999999998863
100
AcDbArc
 50
45.0
 51
90.0
  0
LINE
  5
D7
330
F39
100
AcDbEntity
  8
0
  6
CONTINUOUS
 62
     7
100
AcDbLine
 10
525.5222855699001
 20
251.3694944346
 30
0.0
 11
525.0222855699001
 21
251.3694944346
 31
0.0
  0
ARC
  5
D8
330
F39
100
AcDbEntity
  8
0
  6
CONTINUOUS
 62
     7
100
AcDbCircle
 10
525.0222855699001
 20
251.3694944346
 30
0.0
 40
0.5
100
AcDbArc
 50
0.0
 51
45.0
  0
LINE
  5
D9
330
F39
100
AcDbEntity
  8
0
  6
CONTINUOUS
 62
     7
100
AcDbLine
 10
525.0222855699001
 20
228.833707997
 30
0.0
 11
525.0222855699001
 21
251.3694944346
 31
0.0
  0
LINE
  5
DA
330
F39
100
AcDbEntity
  8
0
  6
CONTINUOUS
 62
     7
100
AcDbLine
 10
519.9151787887
 20
223.7266012158
 30
0.0
 11
525.0222855699001
 21
228.833707997
 31
0.0
  0
LINE
  5
DB
330
F39
100
AcDbEntity
  8
0
  6
CONTINUOUS
 62
     7
100
AcDbLine
 10
505.1222855699
 20
223.7266012158
 30
0.0
 11
519.9151787887
 21
223.7266012158
 31
0.0
  0
LINE
  5
DC
330
F39
100
AcDbEntity
  8
0
  6
CONTINUOUS
 62
     7
100
AcDbLine
 10
525.5222855699001
 20
251.3694944346
 30
0.0
 11
525.5222855699001
 21
228.833707997
 31
0.0
  0
LINE
  5
DD
330
F39
100
AcDbEntity
  8
0
  6
CONTINUOUS
 62
     7
100
AcDbLine
 10
525.5222855699001
 20
228.833707997
 30
0.0
 11
525.0222855699001
 21
228.833707997
 31
0.0
  0
LINE
  5
DE
330
F39
100
AcDbEntity
  8
0
  6
CONTINUOUS
 62
     7
100
AcDbLine
 10
519.9151787887
 20
223.7266012158
 30
0.0
 11
519.9151787887
 21
223.2266012158
 31
0.0
  0
LINE
  5
DF
330
F39
100
AcDbEntity
  8
0
  6
CONTINUOUS
 62
     7
100
AcDbLine
 10
519.9151787887
 20
223.2266012158
 30
0.0
 11
505.1222855699
 21
223.2266012158
 31
0.0
  0
ARC
  5
E0
330
F39
100
AcDbEntity
  8
0
  6
CONTINUOUS
 62
     7
100
AcDbCircle
 10
519.9151787887
 20
223.7266012158
 30
0.0
 40
0.4999999999999639
100
AcDbArc
 50
270.0
 51
315.0
  0
LINE
  5
E1
330
F39
100
AcDbEntity
  8
0
  6
CONTINUOUS
 62
     7
100
AcDbLine
 10
520.2687321793001
 20
223.3730478251999
 30
0.0
 11
519.9151787887
 21
223.7266012158
 31
0.0
  0
LINE
  5
E2
330
F39
100
AcDbEntity
  8
0
  6
CONTINUOUS
 62
     7
100
AcDbLine
 10
525.3758389605
 20
228.4801546064
 30
0.0
 11
520.2687321793001
 21
223.3730478251999
 31
0.0
  0
LINE
  5
E3
330
F39
100
AcDbEntity
  8
0
  6
CONTINUOUS
 62
     7
100
AcDbLine
 10
525.3758389605
 20
228.4801546064
 30
0.0
 11
525.0222855699001
 21
228.833707997
 31
0.0
  0
ARC
  5
E4
330
F39
100
AcDbEntity
  8
0
  6
CONTINUOUS
 62
     7
100
AcDbCircle
 10
525.0222855699001
 20
228.833707997
 30
0.0
 40
0.5
100
AcDbArc
 50
315.0
 51
0.0
  0
LWPOLYLINE
  5
E5
330
F39
100
AcDbEntity
  8
0
  6
CONTINUOUS
 62
     7
100
AcDbPolyline
 90
        3
 70
   128
 43
0.0
 10
494.1222855699
 20
237.8899275435
 10
494.3038511612
 20
237.89964669285
 10
494.44742816835
 20
237.90789695865
  0
LINE
  5
E6
330
F39
100
AcDbEntity
  8
0
  6
CONTINUOUS
 62
     7
100
AcDbLine
 10
494.0847851585
 20
237.8890762717
 30
0.0
 11
494.1222855699
 21
237.8899275435
 31
0.0
  0
ARC
  5
E7
330
F39
100
AcDbEntity
  8
0
  6
CONTINUOUS
 62
     7
100
AcDbCircle
 10
495.50767800345
 20
238.12641648285
 30
0.0
 40
1.442551359275811
100
AcDbArc
 50
186.6667909127976
 51
189.4698210113996
  0
LINE
  5
E8
330
F39
100
AcDbEntity
  8
0
  6
CONTINUOUS
 62
     7
100
AcDbLine
 10
494.0748810236
 20
242.2442590468499
 30
0.0
 11
494.0748810236
 21
237.95894338475
 31
0.0
  0
ARC
  5
E9
330
F39
100
AcDbEntity
  8
0
  6
CONTINUOUS
 62
     7
100
AcDbCircle
 10
495.5076780034
 20
242.0767859487499
 30
0.0
 40
1.442551359211675
100
AcDbArc
 50
170.5301789886012
 51
173.3332090871998
  0
LINE
  5
EA
330
F39
100
AcDbEntity
  8
0
  6
CONTINUOUS
 62
     7
100
AcDbLine
 10
494.1222855699
 20
242.3132748881
 30
0.0
 11
494.0847851585
 21
242.3141261599
 31
0.0
  0
LWPOLYLINE
  5
EB
330
F39
100
AcDbEntity
  8
0
  6
CONTINUOUS
 62
     7
100
AcDbPolyline
 90
        3
 70
   128
 43
0.0
 10
494.44742816835
 20
242.29530547295
 10
494.2647685177
 20
242.3057156902499
 10
494.1222855699
 20
242.3132748881
  0
LINE
  5
EC
330
F39
100
AcDbEntity
  8
0
  6
CONTINUOUS
 62
     7
100
AcDbLine
 10
494.1222855699
 20
237.8516012158
 30
0.0
 11
494.1222855699
 21
237.8899275435
 31
0.0
  0
LWPOLYLINE
  5
ED
330
F39
100
AcDbEntity
  8
0
  6
CONTINUOUS
 62
     7
100
AcDbPolyline
 90
        3
 70
   128
 43
0.0
 10
494.1222855699
 20
237.8516012158
 10
493.9868683177
 20
237.8702882534
 10
493.8584290119
 20
237.9268898823
  0
LINE
  5
EE
330
F39
100
AcDbEntity
  8
0
  6
CONTINUOUS
 62
     7
100
AcDbLine
 10
493.8584290119
 20
237.9268898823
 30
0.0
 11
493.89080941155
 21
237.9112067594
 31
0.0
  0
LWPOLYLINE
  5
EF
330
F39
100
AcDbEntity
  8
0
  6
CONTINUOUS
 62
     7
100
AcDbPolyline
 90
        3
 70
   128
 43
0.0
 10
493.8908094212
 20
237.9112067517
 10
493.985078663
 20
237.8926214158
 10
494.0847851585
 20
237.8890762717
  0
LWPOLYLINE
  5
F0
330
F39
100
AcDbEntity
  8
0
  6
CONTINUOUS
 62
     7
100
AcDbPolyline
 90
        3
 70
   128
 43
0.0
 10
493.8908141337
 20
242.2919855287
 10
493.9850095883
 20
242.31053652165
 10
494.08478533095
 20
242.314120688
  0
LINE
  5
F1
330
F39
100
AcDbEntity
  8
0
  6
CONTINUOUS
 62
     7
100
AcDbLine
 10
493.89080941155
 20
242.29199567225
 30
0.0
 11
493.8584290119
 21
242.2763125493
 31
0.0
  0
LWPOLYLINE
  5
F2
330
F39
100
AcDbEntity
  8
0
  6
CONTINUOUS
 62
     7
100
AcDbPolyline
 90
        3
 70
   128
 43
0.0
 10
493.8584290119
 20
242.2763125493
 10
493.9868683177
 20
242.33291417825
 10
494.1222855699
 20
242.3516012158
  0
LINE
  5
F3
330
F39
100
AcDbEntity
  8
0
  6
CONTINUOUS
 62
     7
100
AcDbLine
 10
494.1222855699
 20
242.3516012158
 30
0.0
 11
494.1222855699
 21
242.3132748881
 31
0.0
  0
LINE
  5
F4
330
F39
100
AcDbEntity
  8
0
  6
CONTINUOUS
 62
     7
100
AcDbLine
 10
494.1222855699
 20
242.3516012158
 30
0.0
 11
503.6222855699
 21
242.3516012158
 31
0.0
  0
LINE
  5
F5
330
F39
100
AcDbEntity
  8
0
  6
CONTINUOUS
 62
     7
100
AcDbLine
 10
503.6222855699
 20
237.8516012158
 30
0.0
 11
494.1222855699
 21
237.8516012158
 31
0.0
  0
LWPOLYLINE
  5
F6
330
F39
100
AcDbEntity
  8
0
  6
CONTINUOUS
 62
     7
100
AcDbPolyline
 90
        3
 70
   128
 43
0.0
 10
493.89080941155
 20
237.9112067594
 10
493.98108835055
 20
237.9430793158
 10
494.0748810236
 20
237.95894338475
  0
LWPOLYLINE
  5
F7
330
F39
100
AcDbEntity
  8
0
  6
CONTINUOUS
 62
     7
100
AcDbPolyline
 90
        3
 70
   128
 43
0.0
 10
493.6222855699
 20
238.3516012158
 10
493.70124329215
 20
238.0819284505
 10
493.8584290119
 20
237.9268898823
  0
LINE
  5
F8
330
F39
100
AcDbEntity
  8
0
  6
CONTINUOUS
 62
     7
100
AcDbLine
 10
493.6222855699
 20
238.3516012158
 30
0.0
 11
493.6222855699
 21
241.8516012158
 31
0.0
  0
ARC
  5
F9
330
F39
100
AcDbEntity
  8
0
  6
CONTINUOUS
 62
     7
100
AcDbCircle
 10
494.1222855699
 20
241.8516012158
 30
0.0
 40
0.500000000000492
100
AcDbArc
 50
121.8510691154003
 51
180.0
  0
LWPOLYLINE
  5
FA
330
F39
100
AcDbEntity
  8
0
  6
CONTINUOUS
 62
     7
100
AcDbPolyline
 90
        3
 70
   128
 43
0.0
 10
494.0748810236
 20
242.2442590468499
 10
493.98108835055
 20
242.2601231158
 10
493.89080941155
 20
242.29199567225
  0
LINE
  5
FB
330
F39
100
AcDbEntity
  8
0
  6
CONTINUOUS
 62
     7
100
AcDbLine
 10
505.8222855699
 20
-338.3983987842
 30
0.0
 11
505.8222855699
 21
-335.8983987842
 31
0.0
  0
LINE
  5
FC
330
F39
100
AcDbEntity
  8
0
  6
CONTINUOUS
 62
     7
100
AcDbLine
 10
505.8222855699
 20
-340.8983987842
 30
0.0
 11
505.8222855699
 21
-338.3983987842
 31
0.0
  0
LINE
  5
FD
330
F39
100
AcDbEntity
  8
0
  6
CONTINUOUS
 62
     7
100
AcDbLine
 10
505.2722855699
 20
-338.3983987842
 30
0.0
 11
505.2722855699
 21
-340.8983987842
 31
0.0
  0
LINE
  5
FE
330
F39
100
AcDbEntity
  8
0
  6
CONTINUOUS
 62
     7
100
AcDbLine
 10
505.2722855699
 20
-335.8983987842
 30
0.0
 11
505.2722855699
 21
-338.3983987842
 31
0.0
  0
LINE
  5
FF
330
F39
100
AcDbEntity
  8
0
  6
CONTINUOUS
 62
     7
100
AcDbLine
 10
505.2722855699
 20
60.60160121579997
 30
0.0
 11
505.2722855699
 21
58.10160121579997
 31
0.0
  0
LINE
  5
100
330
F39
100
AcDbEntity
  8
0
  6
CONTINUOUS
 62
     7
100
AcDbLine
 10
505.2722855699
 20
63.10160121579997
 30
0.0
 11
505.2722855699
 21
60.60160121579997
 31
0.0
  0
LINE
  5
101
330
F39
100
AcDbEntity
  8
0
  6
CONTINUOUS
 62
     7
100
AcDbLine
 10
505.8222855699
 20
60.60160121579997
 30
0.0
 11
505.8222855699
 21
63.10160121579997
 31
0.0
  0
LINE
  5
102
330
F39
100
AcDbEntity
  8
0
  6
CONTINUOUS
 62
     7
100
AcDbLine
 10
505.8222855699
 20
58.10160121579997
 30
0.0
 11
505.8222855699
 21
60.60160121579997
 31
0.0
  0
LINE
  5
103
330
F39
100
AcDbEntity
  8
0
  6
CONTINUOUS
 62
     7
100
AcDbLine
 10
507.0722855699
 20
62.85160121579997
 30
0.0
 11
507.0722855699
 21
58.35160121579997
 31
0.0
  0
LINE
  5
104
330
F39
100
AcDbEntity
  8
0
  6
CONTINUOUS
 62
     7
100
AcDbLine
 10
507.8222855699
 20
62.85160121579997
 30
0.0
 11
507.8222855699
 21
58.35160121579997
 31
0.0
  0
LINE
  5
105
330
F39
100
AcDbEntity
  8
0
  6
CONTINUOUS
 62
     7
100
AcDbLine
 10
503.3722855699
 20
61.35160121579997
 30
0.0
 11
503.3722855699
 21
59.85160121579997
 31
0.0
  0
LINE
  5
106
330
F39
100
AcDbEntity
  8
0
  6
CONTINUOUS
 62
     7
100
AcDbLine
 10
507.8222855699
 20
-336.1483987842
 30
0.0
 11
507.8222855699
 21
-340.6483987842
 31
0.0
  0
LINE
  5
107
330
F39
100
AcDbEntity
  8
0
  6
CONTINUOUS
 62
     7
100
AcDbLine
 10
507.0722855699
 20
-336.1483987842
 30
0.0
 11
507.0722855699
 21
-340.6483987842
 31
0.0
  0
LINE
  5
108
330
F39
100
AcDbEntity
  8
0
  6
CONTINUOUS
 62
     7
100
AcDbLine
 10
503.3722855699
 20
-337.6483987842
 30
0.0
 11
503.3722855699
 21
-339.1483987842
 31
0.0
  0
LINE
  5
109
330
F39
100
AcDbEntity
  8
0
  6
CONTINUOUS
 62
     7
100
AcDbLine
 10
506.9722855699
 20
-510.0233987842
 30
0.0
 11
506.9722855699
 21
-188.4983987842
 31
0.0
  0
LINE
  5
10A
330
F39
100
AcDbEntity
  8
0
  6
CONTINUOUS
 62
     7
100
AcDbLine
 10
505.9722855699
 20
-510.0233987842
 30
0.0
 11
505.9722855699
 21
-188.4983987842
 31
0.0
  0
LINE
  5
10B
330
F39
100
AcDbEntity
  8
0
  6
CONTINUOUS
 62
     7
100
AcDbLine
 10
506.9722855699
 20
221.5766012158
 30
0.0
 11
505.9722855699
 21
221.5766012158
 31
0.0
  0
LINE
  5
10C
330
F39
100
AcDbEntity
  8
0
  6
CONTINUOUS
 62
     7
100
AcDbLine
 10
505.9722855699
 20
221.5766012158
 30
0.0
 11
505.9722855699
 21
-88.49839878420002
 31
0.0
  0
LINE
  5
10D
330
F39
100
AcDbEntity
  8
0
  6
CONTINUOUS
 62
     7
100
AcDbLine
 10
506.9722855699
 20
221.5766012158
 30
0.0
 11
506.9722855699
 21
-88.49839878420002
 31
0.0
  0
LINE
  5
10E
330
F39
100
AcDbEntity
  8
0
  6
CONTINUOUS
 62
     7
100
AcDbLine
 10
505.9722855699
 20
221.7266012158
 30
0.0
 11
506.9722855699
 21
221.7266012158
 31
0.0
  0
LINE
  5
10F
330
F39
100
AcDbEntity
  8
0
  6
CONTINUOUS
 62
     7
100
AcDbLine
 10
505.9722855699
 20
221.5766012158
 30
0.0
 11
505.9722855699
 21
221.7266012158
 31
0.0
  0
LINE
  5
110
330
F39
100
AcDbEntity
  8
0
  6
CONTINUOUS
 62
     7
100
AcDbLine
 10
506.9722855699
 20
221.7266012158
 30
0.0
 11
506.9722855699
 21
221.5766012158
 31
0.0
  0
LINE
  5
111
330
F39
100
AcDbEntity
  8
0
  6
CONTINUOUS
 62
     7
100
AcDbLine
 10
505.9722855699
 20
221.8766012158
 30
0.0
 11
506.9722855699
 21
221.8766012158
 31
0.0
  0
LINE
  5
112
330
F39
100
AcDbEntity
  8
0
  6
CONTINUOUS
 62
     7
100
AcDbLine
 10
505.9722855699
 20
221.7266012158
 30
0.0
 11
505.9722855699
 21
221.8766012158
 31
0.0
  0
LINE
  5
113
330
F39
100
AcDbEntity
  8
0
  6
CONTINUOUS
 62
     7
100
AcDbLine
 10
506.9722855699
 20
221.8766012158
 30
0.0
 11
506.9722855699
 21
221.7266012158
 31
0.0
  0
LINE
  5
114
330
F39
100
AcDbEntity
  8
0
  6
CONTINUOUS
 62
     7
100
AcDbLine
 10
505.9722855699
 20
223.2266012158
 30
0.0
 11
505.9722855699
 21
221.8766012158
 31
0.0
  0
LINE
  5
115
330
F39
100
AcDbEntity
  8
0
  6
CONTINUOUS
 62
     7
100
AcDbLine
 10
506.9722855699
 20
223.2266012158
 30
0.0
 11
506.9722855699
 21
221.8766012158
 31
0.0
  0
LINE
  5
116
330
F39
100
AcDbEntity
  8
0
  6
CONTINUOUS
 62
     7
100
AcDbLine
 10
505.1222855699
 20
-99.45025318330002
 30
0.0
 11
505.8722855699
 21
-99.45025318330002
 31
0.0
  0
LINE
  5
117
330
F39
100
AcDbEntity
  8
0
  6
CONTINUOUS
 62
     7
100
AcDbLine
 10
505.8722855699
 20
-99.45025318330002
 30
0.0
 11
505.8722855699
 21
-99.54310085240002
 31
0.0
  0
LINE
  5
118
330
F39
100
AcDbEntity
  8
0
  6
CONTINUOUS
 62
     7
100
AcDbLine
 10
505.1222855699
 20
-88.49839878420002
 30
0.0
 11
514.3722855699
 21
-88.49839878420002
 31
0.0
  0
LINE
  5
119
330
F39
100
AcDbEntity
  8
0
  6
CONTINUOUS
 62
     7
100
AcDbLine
 10
514.3722855699
 20
-88.49839878420002
 30
0.0
 11
519.8571131271999
 21
-97.99839878420002
 31
0.0
  0
ARC
  5
11A
330
F39
100
AcDbEntity
  8
0
  6
CONTINUOUS
 62
     7
100
AcDbCircle
 10
520.07361947815
 20
-97.87339878420002
 30
0.0
 40
0.2500000000000063
100
AcDbArc
 50
209.9999999999972
 51
270.0
  0
LINE
  5
11B
330
F39
100
AcDbEntity
  8
0
  6
CONTINUOUS
 62
     7
100
AcDbLine
 10
520.42928191085
 20
-98.12339878420002
 30
0.0
 11
520.07361947815
 21
-98.12339878420002
 31
0.0
  0
LINE
  5
11C
330
F39
100
AcDbEntity
  8
0
  6
CONTINUOUS
 62
     7
100
AcDbLine
 10
520.42928191085
 20
-98.49839878420002
 30
0.0
 11
520.42928191085
 21
-98.12339878420002
 31
0.0
  0
LINE
  5
11D
330
F39
100
AcDbEntity
  8
0
  6
CONTINUOUS
 62
     7
100
AcDbLine
 10
520.42928191085
 20
-98.49839878420002
 30
0.0
 11
514.1222855699
 21
-98.49839878420002
 31
0.0
  0
LINE
  5
11E
330
F39
100
AcDbEntity
  8
0
  6
CONTINUOUS
 62
     7
100
AcDbLine
 10
514.1222855699
 20
-99.24839878420002
 30
0.0
 11
514.1222855699
 21
-98.49839878420002
 31
0.0
  0
LINE
  5
11F
330
F39
100
AcDbEntity
  8
0
  6
CONTINUOUS
 62
     7
100
AcDbLine
 10
514.1222855699
 20
-99.24839878420002
 30
0.0
 11
511.1222855699
 21
-99.24839878420002
 31
0.0
  0
LINE
  5
120
330
F39
100
AcDbEntity
  8
0
  6
CONTINUOUS
 62
     7
100
AcDbLine
 10
511.1222855699
 20
-99.24839878420002
 30
0.0
 11
511.1222855699
 21
-98.49839878420002
 31
0.0
  0
LINE
  5
121
330
F39
100
AcDbEntity
  8
0
  6
CONTINUOUS
 62
     7
100
AcDbLine
 10
511.1222855699
 20
-98.49839878420002
 30
0.0
 11
505.8722855699
 21
-98.49839878420002
 31
0.0
  0
LINE
  5
122
330
F39
100
AcDbEntity
  8
0
  6
CONTINUOUS
 62
     7
100
AcDbLine
 10
505.8722855699
 20
-98.49839878420002
 30
0.0
 11
505.8722855699
 21
-99.45025318330002
 31
0.0
  0
LINE
  5
123
330
F39
100
AcDbEntity
  8
0
  6
CONTINUOUS
 62
     7
100
AcDbLine
 10
521.42928191085
 20
-98.12339878420002
 30
0.0
 11
521.42928191085
 21
-98.49839878420002
 31
0.0
  0
LINE
  5
124
330
F39
100
AcDbEntity
  8
0
  6
CONTINUOUS
 62
     7
100
AcDbLine
 10
520.42928191085
 20
-98.12339878420002
 30
0.0
 11
521.42928191085
 21
-98.12339878420002
 31
0.0
  0
LINE
  5
125
330
F39
100
AcDbEntity
  8
0
  6
CONTINUOUS
 62
     7
100
AcDbLine
 10
521.29530731465
 20
-98.49839878420002
 30
0.0
 11
520.42928191085
 21
-98.49839878420002
 31
0.0
  0
LINE
  5
126
330
F39
100
AcDbEntity
  8
0
  6
CONTINUOUS
 62
     7
100
AcDbLine
 10
511.1222855699
 20
-178.4983987842
 30
0.0
 11
505.8722855699
 21
-178.4983987842
 31
0.0
  0
LINE
  5
127
330
F39
100
AcDbEntity
  8
0
  6
CONTINUOUS
 62
     7
100
AcDbLine
 10
511.1222855699
 20
-177.7483987842
 30
0.0
 11
511.1222855699
 21
-178.4983987842
 31
0.0
  0
LINE
  5
128
330
F39
100
AcDbEntity
  8
0
  6
CONTINUOUS
 62
     7
100
AcDbLine
 10
511.1222855699
 20
-177.7483987842
 30
0.0
 11
514.1222855699
 21
-177.7483987842
 31
0.0
  0
LINE
  5
129
330
F39
100
AcDbEntity
  8
0
  6
CONTINUOUS
 62
     7
100
AcDbLine
 10
520.42928191085
 20
-178.4983987842
 30
0.0
 11
514.1222855699
 21
-178.4983987842
 31
0.0
  0
LINE
  5
12A
330
F39
100
AcDbEntity
  8
0
  6
CONTINUOUS
 62
     7
100
AcDbLine
 10
520.42928191085
 20
-178.8733987842
 30
0.0
 11
520.42928191085
 21
-178.4983987842
 31
0.0
  0
LINE
  5
12B
330
F39
100
AcDbEntity
  8
0
  6
CONTINUOUS
 62
     7
100
AcDbLine
 10
520.42928191085
 20
-178.8733987842
 30
0.0
 11
520.07361947815
 21
-178.8733987842
 31
0.0
  0
LINE
  5
12C
330
F39
100
AcDbEntity
  8
0
  6
CONTINUOUS
 62
     7
100
AcDbLine
 10
505.1222855699
 20
-188.4983987842
 30
0.0
 11
514.3722855699
 21
-188.4983987842
 31
0.0
  0
LINE
  5
12D
330
F39
100
AcDbEntity
  8
0
  6
CONTINUOUS
 62
     7
100
AcDbLine
 10
505.8722855699
 20
-177.5465443851
 30
0.0
 11
505.1222855699
 21
-177.5465443851
 31
0.0
  0
LINE
  5
12E
330
F39
100
AcDbEntity
  8
0
  6
CONTINUOUS
 62
     7
100
AcDbLine
 10
514.3722855699
 20
-188.4983987842
 30
0.0
 11
519.8571131271999
 21
-178.9983987842
 31
0.0
  0
LINE
  5
12F
330
F39
100
AcDbEntity
  8
0
  6
CONTINUOUS
 62
     7
100
AcDbLine
 10
514.1222855699
 20
-177.7483987842
 30
0.0
 11
514.1222855699
 21
-178.4983987842
 31
0.0
  0
ARC
  5
130
330
F39
100
AcDbEntity
  8
0
  6
CONTINUOUS
 62
     7
100
AcDbCircle
 10
520.07361947815
 20
-179.1233987842
 30
0.0
 40
0.25
100
AcDbArc
 50
90.0
 51
150.0000000000027
  0
LINE
  5
131
330
F39
100
AcDbEntity
  8
0
  6
CONTINUOUS
 62
     7
100
AcDbLine
 10
505.8722855699
 20
-178.4983987842
 30
0.0
 11
505.8722855699
 21
-177.5465443851
 31
0.0
  0
LINE
  5
132
330
F39
100
AcDbEntity
  8
0
  6
CONTINUOUS
 62
     7
100
AcDbLine
 10
521.42928191085
 20
-178.4983987842
 30
0.0
 11
521.42928191085
 21
-178.8733987842
 31
0.0
  0
LINE
  5
133
330
F39
100
AcDbEntity
  8
0
  6
CONTINUOUS
 62
     7
100
AcDbLine
 10
520.42928191085
 20
-178.4983987842
 30
0.0
 11
521.29530731465
 21
-178.4983987842
 31
0.0
  0
LINE
  5
134
330
F39
100
AcDbEntity
  8
0
  6
CONTINUOUS
 62
     7
100
AcDbLine
 10
521.42928191085
 20
-178.8733987842
 30
0.0
 11
520.42928191085
 21
-178.8733987842
 31
0.0
  0
LINE
  5
135
330
F39
100
AcDbEntity
  8
0
  6
CONTINUOUS
 62
     7
100
AcDbLine
 10
505.8722855699
 20
-177.453696716
 30
0.0
 11
505.8722855699
 21
-177.5465443851
 31
0.0
  0
LINE
  5
136
330
F39
100
AcDbEntity
  8
0
  6
CONTINUOUS
 62
     7
100
AcDbLine
 10
539.9151787887
 20
-98.99839878420002
 30
0.0
 11
505.1222855699
 21
-98.99839878420002
 31
0.0
  0
LINE
  5
137
330
F39
100
AcDbEntity
  8
0
  6
CONTINUOUS
 62
     7
100
AcDbLine
 10
548.1222855699
 20
-107.2055055654
 30
0.0
 11
539.9151787887
 21
-98.99839878420002
 31
0.0
  0
LINE
  5
138
330
F39
100
AcDbEntity
  8
0
  6
CONTINUOUS
 62
     7
100
AcDbLine
 10
548.1222855699
 20
-169.791292003
 30
0.0
 11
548.1222855699
 21
-107.2055055654
 31
0.0
  0
LINE
  5
139
330
F39
100
AcDbEntity
  8
0
  6
CONTINUOUS
 62
     7
100
AcDbLine
 10
539.9151787887
 20
-177.9983987842
 30
0.0
 11
548.1222855699
 21
-169.791292003
 31
0.0
  0
LINE
  5
13A
330
F39
100
AcDbEntity
  8
0
  6
CONTINUOUS
 62
     7
100
AcDbLine
 10
505.1222855699
 20
-177.9983987842
 30
0.0
 11
539.9151787887
 21
-177.9983987842
 31
0.0
  0
ARC
  5
13B
330
F39
100
AcDbEntity
  8
0
  6
CONTINUOUS
 62
     7
100
AcDbCircle
 10
533.6222855699
 20
-173.4983987842
 30
0.0
 40
2.550000000000011
100
AcDbArc
 50
180.0
 51
0.0
  0
LINE
  5
13C
330
F39
100
AcDbEntity
  8
0
  6
CONTINUOUS
 62
     7
100
AcDbLine
 10
536.1722855698999
 20
-168.42790180175
 30
0.0
 11
536.1722855698999
 21
-173.4983987842
 31
0.0
  0
ARC
  5
13D
102
{ACAD_REACTORS
330
104E
102
}
330
F39
100
AcDbEntity
  8
0
  6
CONTINUOUS
 62
     7
100
AcDbCircle
 10
533.6222855699
 20
-163.4983987842
 30
0.0
 40
5.549999999999955
100
AcDbArc
 50
297.3522329090995
 51
242.6477670909005
  0
LINE
  5
13E
330
F39
100
AcDbEntity
  8
0
  6
CONTINUOUS
 62
     7
100
AcDbLine
 10
531.0722855699
 20
-173.4983987842
 30
0.0
 11
531.0722855699
 21
-168.42790180175
 31
0.0
  0
CIRCLE
  5
13F
330
F39
100
AcDbEntity
  8
0
  6
CONTINUOUS
 62
     7
100
AcDbCircle
 10
533.6222855699
 20
-135.2483987842
 30
0.0
 40
1.875
  0
CIRCLE
  5
140
330
F39
100
AcDbEntity
  8
0
  6
CONTINUOUS
 62
     7
100
AcDbCircle
 10
524.1222855699
 20
-124.4983987842
 30
0.0
 40
1.625
  0
CIRCLE
  5
141
330
F39
100
AcDbEntity
  8
0
  6
CONTINUOUS
 62
     7
100
AcDbCircle
 10
543.1222855699
 20
-124.4983987842
 30
0.0
 40
1.624999999999943
  0
CIRCLE
  5
142
330
F39
100
AcDbEntity
  8
0
  6
CONTINUOUS
 62
     7
100
AcDbCircle
 10
524.1222855699
 20
-167.2483987842
 30
0.0
 40
1.625
  0
CIRCLE
  5
143
330
F39
100
AcDbEntity
  8
0
  6
CONTINUOUS
 62
     7
100
AcDbCircle
 10
543.1222855699
 20
-167.2483987842
 30
0.0
 40
1.624999999999943
  0
CIRCLE
  5
144
330
F39
100
AcDbEntity
  8
0
  6
CONTINUOUS
 62
     7
100
AcDbCircle
 10
528.6222855699
 20
-169.9983987842
 30
0.0
 40
1.300000000000012
  0
CIRCLE
  5
145
330
F39
100
AcDbEntity
  8
0
  6
CONTINUOUS
 62
     7
100
AcDbCircle
 10
538.6222855699
 20
-169.9983987842
 30
0.0
 40
1.299999999999955
  0
CIRCLE
  5
146
330
F39
100
AcDbEntity
  8
0
  6
CONTINUOUS
 62
     7
100
AcDbCircle
 10
533.6222855699
 20
-124.4983987842
 30
0.0
 40
4.324999999999989
  0
LINE
  5
147
330
F39
100
AcDbEntity
  8
0
  6
CONTINUOUS
 62
     7
100
AcDbLine
 10
521.29530731465
 20
-98.49839878420002
 30
0.0
 11
539.9151787887
 21
-98.49839878420002
 31
0.0
  0
LINE
  5
148
330
F39
100
AcDbEntity
  8
0
  6
CONTINUOUS
 62
     7
100
AcDbLine
 10
539.9151787887
 20
-98.49839878420002
 30
0.0
 11
539.9151787887
 21
-98.99839878420002
 31
0.0
  0
LINE
  5
149
330
F39
100
AcDbEntity
  8
0
  6
CONTINUOUS
 62
     7
100
AcDbLine
 10
540.2687321793001
 20
-98.64484539360001
 30
0.0
 11
539.9151787887
 21
-98.99839878420002
 31
0.0
  0
ARC
  5
14A
330
F39
100
AcDbEntity
  8
0
  6
CONTINUOUS
 62
     7
100
AcDbCircle
 10
539.9151787887
 20
-98.99839878420002
 30
0.0
 40
0.5
100
AcDbArc
 50
45.0000000000046
 51
90.0
  0
LINE
  5
14B
330
F39
100
AcDbEntity
  8
0
  6
CONTINUOUS
 62
     7
100
AcDbLine
 10
540.2687321793001
 20
-98.64484539360001
 30
0.0
 11
548.4758389604999
 21
-106.8519521748
 31
0.0
  0
LINE
  5
14C
330
F39
100
AcDbEntity
  8
0
  6
CONTINUOUS
 62
     7
100
AcDbLine
 10
548.4758389604999
 20
-106.8519521748
 30
0.0
 11
548.1222855699
 21
-107.2055055654
 31
0.0
  0
LINE
  5
14D
330
F39
100
AcDbEntity
  8
0
  6
CONTINUOUS
 62
     7
100
AcDbLine
 10
548.6222855699
 20
-107.2055055654
 30
0.0
 11
548.6222855699
 21
-169.791292003
 31
0.0
  0
LINE
  5
14E
330
F39
100
AcDbEntity
  8
0
  6
CONTINUOUS
 62
     7
100
AcDbLine
 10
548.6222855699
 20
-169.791292003
 30
0.0
 11
548.1222855699
 21
-169.791292003
 31
0.0
  0
LINE
  5
14F
330
F39
100
AcDbEntity
  8
0
  6
CONTINUOUS
 62
     7
100
AcDbLine
 10
548.6222855699
 20
-107.2055055654
 30
0.0
 11
548.1222855699
 21
-107.2055055654
 31
0.0
  0
ARC
  5
150
330
F39
100
AcDbEntity
  8
0
  6
CONTINUOUS
 62
     7
100
AcDbCircle
 10
548.1222855699
 20
-107.2055055654
 30
0.0
 40
0.5
100
AcDbArc
 50
0.0
 51
44.9999999999954
  0
CIRCLE
  5
151
102
{ACAD_REACTORS
330
1041
102
}
330
F39
100
AcDbEntity
  8
0
  6
CONTINUOUS
 62
     7
100
AcDbCircle
 10
533.6222855699
 20
-124.4983987842
 30
0.0
 40
4.25
  0
CIRCLE
  5
152
330
F39
100
AcDbEntity
  8
0
  6
CONTINUOUS
 62
     7
100
AcDbCircle
 10
533.6222855699
 20
-124.4983987842
 30
0.0
 40
3.75
  0
LINE
  5
153
330
F39
100
AcDbEntity
  8
0
  6
CONTINUOUS
 62
     7
100
AcDbLine
 10
548.4758389604999
 20
-170.1448453936
 30
0.0
 11
540.2687321793001
 21
-178.3519521748
 31
0.0
  0
LINE
  5
154
330
F39
100
AcDbEntity
  8
0
  6
CONTINUOUS
 62
     7
100
AcDbLine
 10
540.2687321793001
 20
-178.3519521748
 30
0.0
 11
539.9151787887
 21
-177.9983987842
 31
0.0
  0
LINE
  5
155
330
F39
100
AcDbEntity
  8
0
  6
CONTINUOUS
 62
     7
100
AcDbLine
 10
548.4758389604999
 20
-170.1448453936
 30
0.0
 11
548.1222855699
 21
-169.791292003
 31
0.0
  0
ARC
  5
156
330
F39
100
AcDbEntity
  8
0
  6
CONTINUOUS
 62
     7
100
AcDbCircle
 10
548.1222855699
 20
-169.791292003
 30
0.0
 40
0.500000000000004
100
AcDbArc
 50
315.0000000000047
 51
0.0
  0
ARC
  5
157
330
F39
100
AcDbEntity
  8
0
  6
CONTINUOUS
 62
     7
100
AcDbCircle
 10
539.9151787887
 20
-177.9983987842
 30
0.0
 40
0.500000000000004
100
AcDbArc
 50
270.0
 51
314.9999999999953
  0
LINE
  5
158
330
F39
100
AcDbEntity
  8
0
  6
CONTINUOUS
 62
     7
100
AcDbLine
 10
539.9151787887
 20
-177.9983987842
 30
0.0
 11
539.9151787887
 21
-178.4983987842
 31
0.0
  0
LINE
  5
159
330
F39
100
AcDbEntity
  8
0
  6
CONTINUOUS
 62
     7
100
AcDbLine
 10
539.9151787887
 20
-178.4983987842
 30
0.0
 11
521.29530731465
 21
-178.4983987842
 31
0.0
  0
LINE
  5
15A
330
F39
100
AcDbEntity
  8
0
  6
CONTINUOUS
 62
     7
100
AcDbLine
 10
503.44500836195
 20
-112.7983987842
 30
0.0
 11
502.0152855699
 21
-112.7983987842
 31
0.0
  0
LINE
  5
15B
330
F39
100
AcDbEntity
  8
0
  6
CONTINUOUS
 62
     7
100
AcDbLine
 10
502.0152855699
 20
-107.83926350015
 30
0.0
 11
502.0152855699
 21
-112.7983987842
 31
0.0
  0
LINE
  5
15C
330
F39
100
AcDbEntity
  8
0
  6
CONTINUOUS
 62
     7
100
AcDbLine
 10
502.0152855699
 20
-114.8983987842
 30
0.0
 11
502.0152855699
 21
-119.85753406825
 31
0.0
  0
LINE
  5
15D
330
F39
100
AcDbEntity
  8
0
  6
CONTINUOUS
 62
     7
100
AcDbLine
 10
503.44500836195
 20
-114.8983987842
 30
0.0
 11
502.0152855699
 21
-114.8983987842
 31
0.0
  0
LINE
  5
15E
330
F39
100
AcDbEntity
  8
0
  6
CONTINUOUS
 62
     7
100
AcDbLine
 10
503.44500836195
 20
-112.7983987842
 30
0.0
 11
503.44500836195
 21
-114.8983987842
 31
0.0
  0
LINE
  5
15F
330
F39
100
AcDbEntity
  8
0
  6
CONTINUOUS
 62
     7
100
AcDbLine
 10
503.6222855699
 20
-119.85753406825
 30
0.0
 11
502.0152855699
 21
-119.85753406825
 31
0.0
  0
LINE
  5
160
330
F39
100
AcDbEntity
  8
0
  6
CONTINUOUS
 62
     7
100
AcDbLine
 10
503.6222855699
 20
-107.83926350015
 30
0.0
 11
502.0152855699
 21
-107.83926350015
 31
0.0
  0
LINE
  5
161
330
F39
100
AcDbEntity
  8
0
  6
CONTINUOUS
 62
     7
100
AcDbLine
 10
535.9494387983
 20
-126.6685042774
 30
0.0
 11
531.4521800767
 21
-126.82555201255
 31
0.0
  0
LINE
  5
162
330
F39
100
AcDbEntity
  8
0
  6
CONTINUOUS
 62
     7
100
AcDbLine
 10
535.7923910631
 20
-122.1712455558
 30
0.0
 11
535.9494387983
 21
-126.6685042774
 31
0.0
  0
LINE
  5
163
330
F39
100
AcDbEntity
  8
0
  6
CONTINUOUS
 62
     7
100
AcDbLine
 10
531.29513234155
 20
-122.328293291
 30
0.0
 11
535.7923910631
 21
-122.1712455558
 31
0.0
  0
LINE
  5
164
330
F39
100
AcDbEntity
  8
0
  6
CONTINUOUS
 62
     7
100
AcDbLine
 10
531.4521800767
 20
-126.82555201255
 30
0.0
 11
531.29513234155
 21
-122.328293291
 31
0.0
  0
LINE
  5
165
330
F39
100
AcDbEntity
  8
0
  6
CONTINUOUS
 62
     7
100
AcDbLine
 10
500.7986847367
 20
-114.8983987842
 30
0.0
 11
500.7986847367
 21
-117.2233987842
 31
0.0
  0
LINE
  5
166
330
F39
100
AcDbEntity
  8
0
  6
CONTINUOUS
 62
     7
100
AcDbLine
 10
499.1277130741
 20
-112.7983987842
 30
0.0
 11
499.1277130741
 21
-114.8983987842
 31
0.0
  0
LINE
  5
167
330
F39
100
AcDbEntity
  8
0
  6
CONTINUOUS
 62
     7
100
AcDbLine
 10
500.7986847367
 20
-110.4733987842
 30
0.0
 11
500.7986847367
 21
-112.7983987842
 31
0.0
  0
LINE
  5
168
330
F39
100
AcDbEntity
  8
0
  6
CONTINUOUS
 62
     7
100
AcDbLine
 10
493.7722855699
 20
-143.9983987842
 30
0.0
 11
503.6222855699
 21
-143.9983987842
 31
0.0
  0
LINE
  5
169
330
F39
100
AcDbEntity
  8
0
  6
CONTINUOUS
 62
     7
100
AcDbLine
 10
493.7722855699
 20
-143.9983987842
 30
0.0
 11
493.7722855699
 21
-144.1483987842
 31
0.0
  0
LINE
  5
16A
330
F39
100
AcDbEntity
  8
0
  6
CONTINUOUS
 62
     7
100
AcDbLine
 10
493.7722855699
 20
-144.1483987842
 30
0.0
 11
493.7722855699
 21
-158.8483987842
 31
0.0
  0
LINE
  5
16B
330
F39
100
AcDbEntity
  8
0
  6
CONTINUOUS
 62
     7
100
AcDbLine
 10
493.6222855699
 20
-144.1483987842
 30
0.0
 11
493.7722855699
 21
-144.1483987842
 31
0.0
  0
ARC
  5
16C
330
F39
100
AcDbEntity
  8
0
  6
CONTINUOUS
 62
     7
100
AcDbCircle
 10
493.7722855699
 20
-144.1483987842
 30
0.0
 40
0.1500000000000057
100
AcDbArc
 50
90.0
 51
180.0
  0
LINE
  5
16D
330
F39
100
AcDbEntity
  8
0
  6
CONTINUOUS
 62
     7
100
AcDbLine
 10
493.7722855699
 20
-158.8483987842
 30
0.0
 11
493.6222855699
 21
-158.8483987842
 31
0.0
  0
LINE
  5
16E
330
F39
100
AcDbEntity
  8
0
  6
CONTINUOUS
 62
     7
100
AcDbLine
 10
493.6222855699
 20
-158.8483987842
 30
0.0
 11
493.6222855699
 21
-144.1483987842
 31
0.0
  0
LINE
  5
16F
330
F39
100
AcDbEntity
  8
0
  6
CONTINUOUS
 62
     7
100
AcDbLine
 10
493.7722855699
 20
-158.8483987842
 30
0.0
 11
493.7722855699
 21
-158.9983987842
 31
0.0
  0
ARC
  5
170
330
F39
100
AcDbEntity
  8
0
  6
CONTINUOUS
 62
     7
100
AcDbCircle
 10
493.7722855699
 20
-158.8483987842
 30
0.0
 40
0.1500000000000057
100
AcDbArc
 50
180.0
 51
270.0
  0
LINE
  5
171
330
F39
100
AcDbEntity
  8
0
  6
CONTINUOUS
 62
     7
100
AcDbLine
 10
503.6222855699
 20
-158.9983987842
 30
0.0
 11
493.7722855699
 21
-158.9983987842
 31
0.0
  0
LINE
  5
172
330
F39
100
AcDbEntity
  8
0
  6
CONTINUOUS
 62
     7
100
AcDbLine
 10
501.7952855699
 20
-107.83926350015
 30
0.0
 11
501.7952855699
 21
-112.7983987842
 31
0.0
  0
LINE
  5
173
330
F39
100
AcDbEntity
  8
0
  6
CONTINUOUS
 62
     7
100
AcDbLine
 10
501.7979650618
 20
-112.7983987842
 30
0.0
 11
501.7952855699
 21
-112.7983987842
 31
0.0
  0
LINE
  5
174
330
F39
100
AcDbEntity
  8
0
  6
CONTINUOUS
 62
     7
100
AcDbLine
 10
502.0152855699
 20
-112.7983987842
 30
0.0
 11
501.7979650618
 21
-112.7983987842
 31
0.0
  0
LINE
  5
175
330
F39
100
AcDbEntity
  8
0
  6
CONTINUOUS
 62
     7
100
AcDbLine
 10
502.0152855699
 20
-107.83926350015
 30
0.0
 11
501.7952855699
 21
-107.83926350015
 31
0.0
  0
LINE
  5
176
330
F39
100
AcDbEntity
  8
0
  6
CONTINUOUS
 62
     7
100
AcDbLine
 10
501.7952855699
 20
-114.8983987842
 30
0.0
 11
501.7952855699
 21
-119.85753406825
 31
0.0
  0
LINE
  5
177
330
F39
100
AcDbEntity
  8
0
  6
CONTINUOUS
 62
     7
100
AcDbLine
 10
502.0152855699
 20
-114.8983987842
 30
0.0
 11
501.7979650618
 21
-114.8983987842
 31
0.0
  0
LINE
  5
178
330
F39
100
AcDbEntity
  8
0
  6
CONTINUOUS
 62
     7
100
AcDbLine
 10
501.7979650618
 20
-114.8983987842
 30
0.0
 11
501.7952855699
 21
-114.8983987842
 31
0.0
  0
LINE
  5
179
330
F39
100
AcDbEntity
  8
0
  6
CONTINUOUS
 62
     7
100
AcDbLine
 10
502.0152855699
 20
-119.85753406825
 30
0.0
 11
501.7952855699
 21
-119.85753406825
 31
0.0
  0
LINE
  5
17A
330
F39
100
AcDbEntity
  8
0
  6
CONTINUOUS
 62
     7
100
AcDbLine
 10
499.2439753431
 20
-119.85753406825
 30
0.0
 11
498.5739753431
 21
-121.8483987842
 31
0.0
  0
LINE
  5
17B
330
F39
100
AcDbEntity
  8
0
  6
CONTINUOUS
 62
     7
100
AcDbLine
 10
498.5739753431
 20
-121.8483987842
 30
0.0
 11
498.1927808228
 21
-121.8483987842
 31
0.0
  0
LINE
  5
17C
330
F39
100
AcDbEntity
  8
0
  6
CONTINUOUS
 62
     7
100
AcDbLine
 10
498.1927808228
 20
-105.8483987842
 30
0.0
 11
498.1927808228
 21
-121.8483987842
 31
0.0
  0
LINE
  5
17D
330
F39
100
AcDbEntity
  8
0
  6
CONTINUOUS
 62
     7
100
AcDbLine
 10
498.5739753431
 20
-105.8483987842
 30
0.0
 11
498.1927808228
 21
-105.8483987842
 31
0.0
  0
LINE
  5
17E
330
F39
100
AcDbEntity
  8
0
  6
CONTINUOUS
 62
     7
100
AcDbLine
 10
499.2439753431
 20
-107.83926350015
 30
0.0
 11
498.5739753431
 21
-105.8483987842
 31
0.0
  0
LINE
  5
17F
330
F39
100
AcDbEntity
  8
0
  6
CONTINUOUS
 62
     7
100
AcDbLine
 10
501.576502196
 20
-110.4733987842
 30
0.0
 11
501.576502196
 21
-112.7983987842
 31
0.0
  0
LINE
  5
180
330
F39
100
AcDbEntity
  8
0
  6
CONTINUOUS
 62
     7
100
AcDbLine
 10
501.576502196
 20
-110.4733987842
 30
0.0
 11
500.0915779555
 21
-110.4733987842
 31
0.0
  0
LINE
  5
181
330
F39
100
AcDbEntity
  8
0
  6
CONTINUOUS
 62
     7
100
AcDbLine
 10
500.0915779555
 20
-110.4733987842
 30
0.0
 11
500.0915779555
 21
-112.7983987842
 31
0.0
  0
LINE
  5
182
330
F39
100
AcDbEntity
  8
0
  6
CONTINUOUS
 62
     7
100
AcDbLine
 10
500.0915779555
 20
-112.7983987842
 30
0.0
 11
498.4206062929
 21
-112.7983987842
 31
0.0
  0
LINE
  5
183
330
F39
100
AcDbEntity
  8
0
  6
CONTINUOUS
 62
     7
100
AcDbLine
 10
498.4206062929
 20
-112.7983987842
 30
0.0
 11
498.4206062929
 21
-114.8983987842
 31
0.0
  0
LINE
  5
184
330
F39
100
AcDbEntity
  8
0
  6
CONTINUOUS
 62
     7
100
AcDbLine
 10
500.0915779555
 20
-114.8983987842
 30
0.0
 11
498.4206062929
 21
-114.8983987842
 31
0.0
  0
LINE
  5
185
330
F39
100
AcDbEntity
  8
0
  6
CONTINUOUS
 62
     7
100
AcDbLine
 10
500.0915779555
 20
-114.8983987842
 30
0.0
 11
500.0915779555
 21
-117.2233987842
 31
0.0
  0
LINE
  5
186
330
F39
100
AcDbEntity
  8
0
  6
CONTINUOUS
 62
     7
100
AcDbLine
 10
501.576502196
 20
-117.2233987842
 30
0.0
 11
500.0915779555
 21
-117.2233987842
 31
0.0
  0
LINE
  5
187
330
F39
100
AcDbEntity
  8
0
  6
CONTINUOUS
 62
     7
100
AcDbLine
 10
501.576502196
 20
-114.8983987842
 30
0.0
 11
501.576502196
 21
-117.2233987842
 31
0.0
  0
LINE
  5
188
330
F39
100
AcDbEntity
  8
0
  6
CONTINUOUS
 62
     7
100
AcDbLine
 10
501.7952855699
 20
-114.8983987842
 30
0.0
 11
501.576502196
 21
-114.8983987842
 31
0.0
  0
LINE
  5
189
330
F39
100
AcDbEntity
  8
0
  6
CONTINUOUS
 62
     7
100
AcDbLine
 10
501.7952855699
 20
-112.7983987842
 30
0.0
 11
501.576502196
 21
-112.7983987842
 31
0.0
  0
LINE
  5
18A
330
F39
100
AcDbEntity
  8
0
  6
CONTINUOUS
 62
     7
100
AcDbLine
 10
501.7952855699
 20
-119.85753406825
 30
0.0
 11
499.2439753431
 21
-119.85753406825
 31
0.0
  0
LINE
  5
18B
330
F39
100
AcDbEntity
  8
0
  6
CONTINUOUS
 62
     7
100
AcDbLine
 10
501.7952855699
 20
-107.83926350015
 30
0.0
 11
499.2439753431
 21
-107.83926350015
 31
0.0
  0
LINE
  5
18C
330
F39
100
AcDbEntity
  8
0
  6
CONTINUOUS
 62
     7
100
AcDbLine
 10
500.7986847367
 20
-112.7983987842
 30
0.0
 11
500.0915779555
 21
-112.7983987842
 31
0.0
  0
LINE
  5
18D
330
F39
100
AcDbEntity
  8
0
  6
CONTINUOUS
 62
     7
100
AcDbLine
 10
500.7986847367
 20
-114.8983987842
 30
0.0
 11
500.0915779555
 21
-114.8983987842
 31
0.0
  0
LINE
  5
18E
330
F39
100
AcDbEntity
  8
0
  6
CONTINUOUS
 62
     7
100
AcDbLine
 10
498.5739753431
 20
-105.8483987842
 30
0.0
 11
503.6222855699
 21
-105.8483987842
 31
0.0
  0
LINE
  5
18F
330
F39
100
AcDbEntity
  8
0
  6
CONTINUOUS
 62
     7
100
AcDbLine
 10
498.5739753431
 20
-121.8483987842
 30
0.0
 11
503.6222855699
 21
-121.8483987842
 31
0.0
  0
LINE
  5
190
330
F39
100
AcDbEntity
  8
0
  6
CONTINUOUS
 62
     7
100
AcDbLine
 10
498.1927808228
 20
-121.8483987842
 30
0.0
 11
498.1222855699
 21
-121.8483987842
 31
0.0
  0
LINE
  5
191
330
F39
100
AcDbEntity
  8
0
  6
CONTINUOUS
 62
     7
100
AcDbLine
 10
498.1927808228
 20
-105.8483987842
 30
0.0
 11
498.1222855699
 21
-105.8483987842
 31
0.0
  0
LINE
  5
192
330
F39
100
AcDbEntity
  8
0
  6
CONTINUOUS
 62
     7
100
AcDbLine
 10
494.44742816835
 20
-524.70469452705
 30
0.0
 11
503.6222855699
 21
-525.7969394558
 31
0.0
  0
LINE
  5
193
330
F39
100
AcDbEntity
  8
0
  6
CONTINUOUS
 62
     7
100
AcDbLine
 10
503.6222855699
 20
-525.8923367324501
 30
0.0
 11
494.0748810236
 21
-524.75574095315
 31
0.0
  0
LINE
  5
194
330
F39
100
AcDbEntity
  8
0
  6
CONTINUOUS
 62
     7
100
AcDbLine
 10
494.0748810236
 20
-529.04105661525
 30
0.0
 11
503.6222855699
 21
-527.90446083595
 31
0.0
  0
LINE
  5
195
330
F39
100
AcDbEntity
  8
0
  6
CONTINUOUS
 62
     7
100
AcDbLine
 10
503.6222855699
 20
-527.99985811255
 30
0.0
 11
494.44742816835
 21
-529.09210304135
 31
0.0
  0
LINE
  5
196
330
F39
100
AcDbEntity
  8
0
  6
CONTINUOUS
 62
     7
100
AcDbLine
 10
503.6222855699
 20
-524.70469452705
 30
0.0
 11
494.44742816835
 21
-524.70469452705
 31
0.0
  0
LINE
  5
197
330
F39
100
AcDbEntity
  8
0
  6
CONTINUOUS
 62
     7
100
AcDbLine
 10
494.44742816835
 20
-529.09210304135
 30
0.0
 11
503.6222855699
 21
-529.09210304135
 31
0.0
  0
LINE
  5
198
330
F39
100
AcDbEntity
  8
0
  6
CONTINUOUS
 62
     7
100
AcDbLine
 10
494.0748810236
 20
237.95894338475
 30
0.0
 11
503.6222855699
 21
239.09553916405
 31
0.0
  0
LINE
  5
199
330
F39
100
AcDbEntity
  8
0
  6
CONTINUOUS
 62
     7
100
AcDbLine
 10
503.6222855699
 20
239.00014188745
 30
0.0
 11
494.44742816835
 21
237.90789695865
 31
0.0
  0
LINE
  5
19A
330
F39
100
AcDbEntity
  8
0
  6
CONTINUOUS
 62
     7
100
AcDbLine
 10
503.6222855699
 20
241.10766326755
 30
0.0
 11
494.0748810236
 21
242.2442590468499
 31
0.0
  0
LINE
  5
19B
330
F39
100
AcDbEntity
  8
0
  6
CONTINUOUS
 62
     7
100
AcDbLine
 10
494.44742816835
 20
242.29530547295
 30
0.0
 11
503.6222855699
 21
241.2030605442
 31
0.0
  0
LINE
  5
19C
330
F39
100
AcDbEntity
  8
0
  6
CONTINUOUS
 62
     7
100
AcDbLine
 10
503.6222855699
 20
242.29530547295
 30
0.0
 11
494.44742816835
 21
242.29530547295
 31
0.0
  0
LINE
  5
19D
330
F39
100
AcDbEntity
  8
0
  6
CONTINUOUS
 62
     7
100
AcDbLine
 10
494.44742816835
 20
237.90789695865
 30
0.0
 11
503.6222855699
 21
237.90789695865
 31
0.0
  0
LINE
  5
19E
330
F39
100
AcDbEntity
  8
0
  6
CONTINUOUS
 62
     7
100
AcDbLine
 10
503.6222855699
 20
-144.1483987842
 30
0.0
 11
493.7722855699
 21
-144.1483987842
 31
0.0
  0
LINE
  5
19F
330
F39
100
AcDbEntity
  8
0
  6
CONTINUOUS
 62
     7
100
AcDbLine
 10
493.7722855699
 20
-158.8483987842
 30
0.0
 11
503.6222855699
 21
-158.8483987842
 31
0.0
  0
CIRCLE
  5
1A0
330
F39
100
AcDbEntity
  8
0
  6
CONTINUOUS
 62
     7
100
AcDbCircle
 10
590.16886339285
 20
168.4516012158
 30
0.0
 40
2.274999999999988
  0
CIRCLE
  5
1A1
330
F39
100
AcDbEntity
  8
0
  6
CONTINUOUS
 62
     7
100
AcDbCircle
 10
590.16886339285
 20
168.4516012158
 30
0.0
 40
2.749999999999993
  0
CIRCLE
  5
1A2
330
F39
100
AcDbEntity
  8
0
  6
CONTINUOUS
 62
     7
100
AcDbCircle
 10
590.16886339285
 20
-457.60456582855
 30
0.0
 40
2.274999999999988
  0
CIRCLE
  5
1A3
330
F39
100
AcDbEntity
  8
0
  6
CONTINUOUS
 62
     7
100
AcDbCircle
 10
590.16886339285
 20
-457.60456582855
 30
0.0
 40
2.75
  0
CIRCLE
  5
1A4
330
F39
100
AcDbEntity
  8
0
  6
CONTINUOUS
 62
     7
100
AcDbCircle
 10
590.16886339285
 20
-457.60456582855
 30
0.0
 40
2.25
  0
LINE
  5
1A5
330
F39
100
AcDbEntity
  8
0
  6
CONTINUOUS
 62
     7
100
AcDbLine
 10
591.41886339285
 20
-456.88287799205
 30
0.0
 11
590.16886339285
 21
-456.16119015555
 31
0.0
  0
LINE
  5
1A6
330
F39
100
AcDbEntity
  8
0
  6
CONTINUOUS
 62
     7
100
AcDbLine
 10
590.16886339285
 20
-456.16119015555
 30
0.0
 11
588.91886339285
 21
-456.88287799205
 31
0.0
  0
LINE
  5
1A7
330
F39
100
AcDbEntity
  8
0
  6
CONTINUOUS
 62
     7
100
AcDbLine
 10
588.91886339285
 20
-456.88287799205
 30
0.0
 11
588.91886339285
 21
-458.32625366505
 31
0.0
  0
LINE
  5
1A8
330
F39
100
AcDbEntity
  8
0
  6
CONTINUOUS
 62
     7
100
AcDbLine
 10
588.91886339285
 20
-458.32625366505
 30
0.0
 11
590.16886339285
 21
-459.0479415015
 31
0.0
  0
LINE
  5
1A9
330
F39
100
AcDbEntity
  8
0
  6
CONTINUOUS
 62
     7
100
AcDbLine
 10
590.16886339285
 20
-459.0479415015
 30
0.0
 11
591.41886339285
 21
-458.32625366505
 31
0.0
  0
LINE
  5
1AA
330
F39
100
AcDbEntity
  8
0
  6
CONTINUOUS
 62
     7
100
AcDbLine
 10
591.41886339285
 20
-458.32625366505
 30
0.0
 11
591.41886339285
 21
-456.88287799205
 31
0.0
  0
CIRCLE
  5
1AB
330
F39
100
AcDbEntity
  8
0
  6
CONTINUOUS
 62
     7
100
AcDbCircle
 10
590.16886339285
 20
168.4516012158
 30
0.0
 40
2.249999999999943
  0
LINE
  5
1AC
330
F39
100
AcDbEntity
  8
0
  6
CONTINUOUS
 62
     7
100
AcDbLine
 10
591.41886339285
 20
169.1732890523
 30
0.0
 11
590.16886339285
 21
169.8949768888
 31
0.0
  0
LINE
  5
1AD
330
F39
100
AcDbEntity
  8
0
  6
CONTINUOUS
 62
     7
100
AcDbLine
 10
590.16886339285
 20
169.8949768888
 30
0.0
 11
588.91886339285
 21
169.1732890523
 31
0.0
  0
LINE
  5
1AE
330
F39
100
AcDbEntity
  8
0
  6
CONTINUOUS
 62
     7
100
AcDbLine
 10
588.91886339285
 20
169.1732890523
 30
0.0
 11
588.91886339285
 21
167.7299133793
 31
0.0
  0
LINE
  5
1AF
330
F39
100
AcDbEntity
  8
0
  6
CONTINUOUS
 62
     7
100
AcDbLine
 10
588.91886339285
 20
167.7299133793
 30
0.0
 11
590.16886339285
 21
167.00822554285
 31
0.0
  0
LINE
  5
1B0
330
F39
100
AcDbEntity
  8
0
  6
CONTINUOUS
 62
     7
100
AcDbLine
 10
590.16886339285
 20
167.00822554285
 30
0.0
 11
591.41886339285
 21
167.7299133793
 31
0.0
  0
LINE
  5
1B1
330
F39
100
AcDbEntity
  8
0
  6
CONTINUOUS
 62
     7
100
AcDbLine
 10
591.41886339285
 20
167.7299133793
 30
0.0
 11
591.41886339285
 21
169.1732890523
 31
0.0
  0
LINE
  5
1B2
330
F39
100
AcDbEntity
  8
0
  6
CONTINUOUS
 62
     7
100
AcDbLine
 10
594.66886339285
 20
-581.3983987842
 30
0.0
 11
594.66886339285
 21
303.6016012158
 31
0.0
  0
ARC
  5
1B3
330
F39
100
AcDbEntity
  8
0
  6
CONTINUOUS
 62
     7
100
AcDbCircle
 10
590.16886339285
 20
-581.3983987842
 30
0.0
 40
4.5
100
AcDbArc
 50
180.0
 51
0.0
  0
LINE
  5
1B4
330
F39
100
AcDbEntity
  8
0
  6
CONTINUOUS
 62
     7
100
AcDbLine
 10
585.66886339285
 20
303.6016012158
 30
0.0
 11
585.66886339285
 21
-581.3983987842
 31
0.0
  0
ARC
  5
1B5
330
F39
100
AcDbEntity
  8
0
  6
CONTINUOUS
 62
     7
100
AcDbCircle
 10
590.16886339285
 20
303.6016012158
 30
0.0
 40
4.5
100
AcDbArc
 50
0.0
 51
180.0
  0
CIRCLE
  5
1B6
330
F39
100
AcDbEntity
  8
0
  6
CONTINUOUS
 62
     7
100
AcDbCircle
 10
590.16886339285
 20
-512.8983987842
 30
0.0
 40
2.0
  0
CIRCLE
  5
1B7
330
F39
100
AcDbEntity
  8
0
  6
CONTINUOUS
 62
     7
100
AcDbCircle
 10
590.16886339285
 20
-540.8983987842
 30
0.0
 40
2.0
  0
CIRCLE
  5
1B8
330
F39
100
AcDbEntity
  8
0
  6
CONTINUOUS
 62
     7
100
AcDbCircle
 10
590.16886339285
 20
254.1016012158
 30
0.0
 40
2.0
  0
CIRCLE
  5
1B9
330
F39
100
AcDbEntity
  8
0
  6
CONTINUOUS
 62
     7
100
AcDbCircle
 10
590.16886339285
 20
226.1016012158
 30
0.0
 40
2.0
  0
CIRCLE
  5
1BA
330
F39
100
AcDbEntity
  8
0
  6
CONTINUOUS
 62
     7
100
AcDbCircle
 10
590.16886339285
 20
-164.4983987842
 30
0.0
 40
2.0
  0
CIRCLE
  5
1BB
330
F39
100
AcDbEntity
  8
0
  6
CONTINUOUS
 62
     7
100
AcDbCircle
 10
590.16886339285
 20
-138.4983987842
 30
0.0
 40
2.0
  0
CIRCLE
  5
1BC
330
F39
100
AcDbEntity
  8
0
  6
CONTINUOUS
 62
     7
100
AcDbCircle
 10
590.16886339285
 20
-100.3983987842
 30
0.0
 40
2.0
  0
CIRCLE
  5
1BD
330
F39
100
AcDbEntity
  8
0
  6
CONTINUOUS
 62
     7
100
AcDbCircle
 10
590.16886339285
 20
-565.8983987842
 30
0.0
 40
2.5
  0
CIRCLE
  5
1BE
330
F39
100
AcDbEntity
  8
0
  6
CONTINUOUS
 62
     7
100
AcDbCircle
 10
590.16886339285
 20
-474.8983987842
 30
0.0
 40
2.5
  0
CIRCLE
  5
1BF
330
F39
100
AcDbEntity
  8
0
  6
CONTINUOUS
 62
     7
100
AcDbCircle
 10
590.16886339285
 20
-383.8983987842
 30
0.0
 40
2.5
  0
CIRCLE
  5
1C0
330
F39
100
AcDbEntity
  8
0
  6
CONTINUOUS
 62
     7
100
AcDbCircle
 10
590.16886339285
 20
-292.8983987842
 30
0.0
 40
2.5
  0
CIRCLE
  5
1C1
330
F39
100
AcDbEntity
  8
0
  6
CONTINUOUS
 62
     7
100
AcDbCircle
 10
590.16886339285
 20
-201.8983987842
 30
0.0
 40
2.5
  0
CIRCLE
  5
1C2
330
F39
100
AcDbEntity
  8
0
  6
CONTINUOUS
 62
     7
100
AcDbCircle
 10
590.16886339285
 20
-172.7483987842
 30
0.0
 40
2.5
  0
CIRCLE
  5
1C3
330
F39
100
AcDbEntity
  8
0
  6
CONTINUOUS
 62
     7
100
AcDbCircle
 10
590.16886339285
 20
283.6016012158
 30
0.0
 40
2.5
  0
CIRCLE
  5
1C4
330
F39
100
AcDbEntity
  8
0
  6
CONTINUOUS
 62
     7
100
AcDbCircle
 10
590.16886339285
 20
197.1016012158
 30
0.0
 40
2.5
  0
CIRCLE
  5
1C5
330
F39
100
AcDbEntity
  8
0
  6
CONTINUOUS
 62
     7
100
AcDbCircle
 10
590.16886339285
 20
106.1016012158
 30
0.0
 40
2.5
  0
CIRCLE
  5
1C6
330
F39
100
AcDbEntity
  8
0
  6
CONTINUOUS
 62
     7
100
AcDbCircle
 10
590.16886339285
 20
15.10160121579997
 30
0.0
 40
2.5
  0
CIRCLE
  5
1C7
330
F39
100
AcDbEntity
  8
0
  6
CONTINUOUS
 62
     7
100
AcDbCircle
 10
590.16886339285
 20
-74.89839878420003
 30
0.0
 40
2.5
  0
LINE
  5
1C8
330
F39
100
AcDbEntity
  8
0
  6
CONTINUOUS
 62
     7
100
AcDbLine
 10
588.5688633928501
 20
-459.8411927532
 30
0.0
 11
588.5688633928501
 21
-467.9233987842
 31
0.0
  0
ARC
  5
1C9
330
F39
100
AcDbEntity
  8
0
  6
CONTINUOUS
 62
     7
100
AcDbCircle
 10
590.16886339285
 20
-467.9233987842
 30
0.0
 40
1.600000000000023
100
AcDbArc
 50
180.0
 51
0.0
  0
LINE
  5
1CA
330
F39
100
AcDbEntity
  8
0
  6
CONTINUOUS
 62
     7
100
AcDbLine
 10
591.76886339285
 20
-467.9233987842
 30
0.0
 11
591.76886339285
 21
-459.8411927532
 31
0.0
  0
ARC
  5
1CB
330
F39
100
AcDbEntity
  8
0
  6
CONTINUOUS
 62
     7
100
AcDbCircle
 10
590.16886339285
 20
-455.9233987842
 30
0.0
 40
1.600000000000029
100
AcDbArc
 50
23.86066884770092
 51
156.1393311533015
  0
LINE
  5
1CC
330
F39
100
AcDbEntity
  8
0
  6
CONTINUOUS
 62
     7
100
AcDbLine
 10
588.5688633928501
 20
181.0766012158
 30
0.0
 11
588.5688633928501
 21
170.68822814045
 31
0.0
  0
LINE
  5
1CD
330
F39
100
AcDbEntity
  8
0
  6
CONTINUOUS
 62
     7
100
AcDbLine
 10
591.76886339285
 20
170.68822814045
 30
0.0
 11
591.76886339285
 21
181.0766012158
 31
0.0
  0
ARC
  5
1CE
330
F39
100
AcDbEntity
  8
0
  6
CONTINUOUS
 62
     7
100
AcDbCircle
 10
590.16886339285
 20
181.0766012158
 30
0.0
 40
1.600000000000023
100
AcDbArc
 50
0.0
 51
180.0
  0
CIRCLE
  5
1CF
330
F39
100
AcDbEntity
  8
0
  6
CONTINUOUS
 62
     7
100
AcDbCircle
 10
590.16886339285
 20
-338.3983987842
 30
0.0
 40
0.7749999999999205
  0
CIRCLE
  5
1D0
330
F39
100
AcDbEntity
  8
0
  6
CONTINUOUS
 62
     7
100
AcDbCircle
 10
590.16886339285
 20
60.60160121579997
 30
0.0
 40
0.7749999999999775
  0
LINE
  5
1D1
330
F39
100
AcDbEntity
  8
0
  6
CONTINUOUS
 62
     7
100
AcDbLine
 10
591.48889998715
 20
237.88289695865
 30
0.0
 11
592.41099371425
 21
239.03551411755
 31
0.0
  0
ARC
  5
1D2
330
F39
100
AcDbEntity
  8
0
  6
CONTINUOUS
 62
     7
100
AcDbCircle
 10
592.29386339285
 20
239.1292183747
 30
0.0
 40
0.1500000000000341
100
AcDbArc
 50
321.340191745876
 51
0.0
  0
LINE
  5
1D3
330
F39
100
AcDbEntity
  8
0
  6
CONTINUOUS
 62
     7
100
AcDbLine
 10
592.4438633928501
 20
239.1292183747
 30
0.0
 11
592.4438633928501
 21
241.0739840569
 31
0.0
  0
ARC
  5
1D4
330
F39
100
AcDbEntity
  8
0
  6
CONTINUOUS
 62
     7
100
AcDbCircle
 10
592.29386339285
 20
241.0739840569
 30
0.0
 40
0.1499999999999773
100
AcDbArc
 50
0.0
 51
38.65980825409009
  0
LINE
  5
1D5
330
F39
100
AcDbEntity
  8
0
  6
CONTINUOUS
 62
     7
100
AcDbLine
 10
592.41099371425
 20
241.16768831405
 30
0.0
 11
591.48889998715
 21
242.3203054729499
 31
0.0
  0
ARC
  5
1D6
330
F39
100
AcDbEntity
  8
0
  6
CONTINUOUS
 62
     7
100
AcDbCircle
 10
591.37176966575
 20
242.2266012158
 30
0.0
 40
0.1500000000000071
100
AcDbArc
 50
38.65980825409009
 51
90.0
  0
LINE
  5
1D7
330
F39
100
AcDbEntity
  8
0
  6
CONTINUOUS
 62
     7
100
AcDbLine
 10
591.37176966575
 20
242.3766012158
 30
0.0
 11
588.96595712
 21
242.3766012158
 31
0.0
  0
ARC
  5
1D8
330
F39
100
AcDbEntity
  8
0
  6
CONTINUOUS
 62
     7
100
AcDbCircle
 10
588.96595712
 20
242.2266012158
 30
0.0
 40
0.1499999999999773
100
AcDbArc
 50
90.0
 51
141.3401917459099
  0
LINE
  5
1D9
330
F39
100
AcDbEntity
  8
0
  6
CONTINUOUS
 62
     7
100
AcDbLine
 10
588.84882679855
 20
242.3203054729499
 30
0.0
 11
587.9267330714499
 21
241.16768831405
 31
0.0
  0
ARC
  5
1DA
330
F39
100
AcDbEntity
  8
0
  6
CONTINUOUS
 62
     7
100
AcDbCircle
 10
588.04386339285
 20
241.0739840569
 30
0.0
 40
0.1500000000000071
100
AcDbArc
 50
141.3401917459099
 51
180.0
  0
LINE
  5
1DB
330
F39
100
AcDbEntity
  8
0
  6
CONTINUOUS
 62
     7
100
AcDbLine
 10
587.89386339285
 20
241.0739840569
 30
0.0
 11
587.89386339285
 21
239.1292183747
 31
0.0
  0
ARC
  5
1DC
330
F39
100
AcDbEntity
  8
0
  6
CONTINUOUS
 62
     7
100
AcDbCircle
 10
588.04386339285
 20
239.1292183747
 30
0.0
 40
0.1500000000000071
100
AcDbArc
 50
180.0
 51
218.6598082540901
  0
LINE
  5
1DD
330
F39
100
AcDbEntity
  8
0
  6
CONTINUOUS
 62
     7
100
AcDbLine
 10
587.9267330714499
 20
239.03551411755
 30
0.0
 11
588.84882679855
 21
237.88289695865
 31
0.0
  0
ARC
  5
1DE
330
F39
100
AcDbEntity
  8
0
  6
CONTINUOUS
 62
     7
100
AcDbCircle
 10
588.96595712
 20
237.9766012158
 30
0.0
 40
0.1500000000000909
100
AcDbArc
 50
218.659808254124
 51
270.0
  0
LINE
  5
1DF
330
F39
100
AcDbEntity
  8
0
  6
CONTINUOUS
 62
     7
100
AcDbLine
 10
588.96595712
 20
237.8266012158
 30
0.0
 11
591.37176966575
 21
237.8266012158
 31
0.0
  0
ARC
  5
1E0
330
F39
100
AcDbEntity
  8
0
  6
CONTINUOUS
 62
     7
100
AcDbCircle
 10
591.37176966575
 20
237.9766012158
 30
0.0
 40
0.1500000000000071
100
AcDbArc
 50
270.0
 51
321.3401917459099
  0
LINE
  5
1E1
330
F39
100
AcDbEntity
  8
0
  6
CONTINUOUS
 62
     7
100
AcDbLine
 10
591.27610923575
 20
-120.81877331665
 30
0.0
 11
591.6045158871
 21
-121.7961740647
 31
0.0
  0
ARC
  5
1E2
330
F39
100
AcDbEntity
  8
0
  6
CONTINUOUS
 62
     7
100
AcDbCircle
 10
591.74670422195
 20
-121.7483987842
 30
0.0
 40
0.1500000000000057
100
AcDbArc
 50
198.5723485103876
 51
270.0
  0
LINE
  5
1E3
330
F39
100
AcDbEntity
  8
0
  6
CONTINUOUS
 62
     7
100
AcDbLine
 10
591.74670422195
 20
-121.8983987842
 30
0.0
 11
593.0688633928501
 21
-121.8983987842
 31
0.0
  0
ARC
  5
1E4
330
F39
100
AcDbEntity
  8
0
  6
CONTINUOUS
 62
     7
100
AcDbCircle
 10
593.0688633928501
 20
-121.7483987842
 30
0.0
 40
0.1500000000000341
100
AcDbArc
 50
270.0
 51
0.0
  0
LINE
  5
1E5
330
F39
100
AcDbEntity
  8
0
  6
CONTINUOUS
 62
     7
100
AcDbLine
 10
593.2188633928499
 20
-121.7483987842
 30
0.0
 11
593.2188633928499
 21
-106.0483987842
 31
0.0
  0
ARC
  5
1E6
330
F39
100
AcDbEntity
  8
0
  6
CONTINUOUS
 62
     7
100
AcDbCircle
 10
593.0688633928501
 20
-106.0483987842
 30
0.0
 40
0.1500000000000341
100
AcDbArc
 50
0.0
 51
90.0
  0
LINE
  5
1E7
330
F39
100
AcDbEntity
  8
0
  6
CONTINUOUS
 62
     7
100
AcDbLine
 10
593.0688633928501
 20
-105.8983987842
 30
0.0
 11
591.74670422195
 21
-105.8983987842
 31
0.0
  0
ARC
  5
1E8
330
F39
100
AcDbEntity
  8
0
  6
CONTINUOUS
 62
     7
100
AcDbCircle
 10
591.74670422195
 20
-106.0483987842
 30
0.0
 40
0.1500000000000832
100
AcDbArc
 50
90.0
 51
161.4276514896021
  0
LINE
  5
1E9
330
F39
100
AcDbEntity
  8
0
  6
CONTINUOUS
 62
     7
100
AcDbLine
 10
591.6045158871
 20
-106.0006235037
 30
0.0
 11
591.27610923575
 21
-106.9780242517
 31
0.0
  0
ARC
  5
1EA
330
F39
100
AcDbEntity
  8
0
  6
CONTINUOUS
 62
     7
100
AcDbCircle
 10
591.0391286776501
 20
-106.8983987842
 30
0.0
 40
0.25
100
AcDbArc
 50
270.0
 51
341.4276514895917
  0
LINE
  5
1EB
330
F39
100
AcDbEntity
  8
0
  6
CONTINUOUS
 62
     7
100
AcDbLine
 10
591.0391286776501
 20
-107.1483987842
 30
0.0
 11
589.29859810805
 21
-107.1483987842
 31
0.0
  0
ARC
  5
1EC
330
F39
100
AcDbEntity
  8
0
  6
CONTINUOUS
 62
     7
100
AcDbCircle
 10
589.29859810805
 20
-106.8983987842
 30
0.0
 40
0.25
100
AcDbArc
 50
198.5723485104
 51
270.0
  0
LINE
  5
1ED
330
F39
100
AcDbEntity
  8
0
  6
CONTINUOUS
 62
     7
100
AcDbLine
 10
589.0616175499499
 20
-106.9780242517
 30
0.0
 11
588.7332108986
 21
-106.0006235037
 31
0.0
  0
ARC
  5
1EE
330
F39
100
AcDbEntity
  8
0
  6
CONTINUOUS
 62
     7
100
AcDbCircle
 10
588.59102256375
 20
-106.0483987842
 30
0.0
 40
0.1500000000000057
100
AcDbArc
 50
18.57234851040146
 51
90.0
  0
LINE
  5
1EF
330
F39
100
AcDbEntity
  8
0
  6
CONTINUOUS
 62
     7
100
AcDbLine
 10
588.59102256375
 20
-105.8983987842
 30
0.0
 11
588.5156902519
 21
-105.8983987842
 31
0.0
  0
ARC
  5
1F0
330
F39
100
AcDbEntity
  8
0
  6
CONTINUOUS
 62
     7
100
AcDbCircle
 10
587.26886339285
 20
-106.0483987842
 30
0.0
 40
0.1500000000000341
100
AcDbArc
 50
131.8103148957904
 51
180.0
  0
LINE
  5
1F1
330
F39
100
AcDbEntity
  8
0
  6
CONTINUOUS
 62
     7
100
AcDbLine
 10
587.11886339285
 20
-106.0483987842
 30
0.0
 11
587.11886339285
 21
-121.7483987842
 31
0.0
  0
ARC
  5
1F2
330
F39
100
AcDbEntity
  8
0
  6
CONTINUOUS
 62
     7
100
AcDbCircle
 10
587.26886339285
 20
-121.7483987842
 30
0.0
 40
0.1500000000000341
100
AcDbArc
 50
180.0
 51
270.0
  0
LINE
  5
1F3
330
F39
100
AcDbEntity
  8
0
  6
CONTINUOUS
 62
     7
100
AcDbLine
 10
587.26886339285
 20
-121.8983987842
 30
0.0
 11
588.59102256375
 21
-121.8983987842
 31
0.0
  0
ARC
  5
1F4
330
F39
100
AcDbEntity
  8
0
  6
CONTINUOUS
 62
     7
100
AcDbCircle
 10
588.59102256375
 20
-121.7483987842
 30
0.0
 40
0.1500000000000057
100
AcDbArc
 50
270.0
 51
341.4276514895985
  0
LINE
  5
1F5
330
F39
100
AcDbEntity
  8
0
  6
CONTINUOUS
 62
     7
100
AcDbLine
 10
588.7332108986
 20
-121.7961740647
 30
0.0
 11
589.0616175499499
 21
-120.81877331665
 31
0.0
  0
ARC
  5
1F6
330
F39
100
AcDbEntity
  8
0
  6
CONTINUOUS
 62
     7
100
AcDbCircle
 10
589.29859810805
 20
-120.8983987842
 30
0.0
 40
0.25
100
AcDbArc
 50
90.0
 51
161.4276514896
  0
LINE
  5
1F7
330
F39
100
AcDbEntity
  8
0
  6
CONTINUOUS
 62
     7
100
AcDbLine
 10
589.29859810805
 20
-120.6483987842
 30
0.0
 11
591.0391286776501
 21
-120.6483987842
 31
0.0
  0
ARC
  5
1F8
330
F39
100
AcDbEntity
  8
0
  6
CONTINUOUS
 62
     7
100
AcDbCircle
 10
591.0391286776501
 20
-120.8983987842
 30
0.0
 40
0.25
100
AcDbArc
 50
18.57234851040834
 51
90.0
  0
LINE
  5
1F9
330
F39
100
AcDbEntity
  8
0
  6
CONTINUOUS
 62
     7
100
AcDbLine
 10
592.1938633928501
 20
-158.8733987842
 30
0.0
 11
592.1938633928501
 21
-144.1233987842
 31
0.0
  0
ARC
  5
1FA
330
F39
100
AcDbEntity
  8
0
  6
CONTINUOUS
 62
     7
100
AcDbCircle
 10
592.04386339285
 20
-144.1233987842
 30
0.0
 40
0.1499999999999773
100
AcDbArc
 50
0.0
 51
90.0
  0
LINE
  5
1FB
330
F39
100
AcDbEntity
  8
0
  6
CONTINUOUS
 62
     7
100
AcDbLine
 10
592.04386339285
 20
-143.9733987842
 30
0.0
 11
588.29386339285
 21
-143.9733987842
 31
0.0
  0
ARC
  5
1FC
330
F39
100
AcDbEntity
  8
0
  6
CONTINUOUS
 62
     7
100
AcDbCircle
 10
588.29386339285
 20
-144.1233987842
 30
0.0
 40
0.1500000000000057
100
AcDbArc
 50
90.0
 51
180.0
  0
LINE
  5
1FD
330
F39
100
AcDbEntity
  8
0
  6
CONTINUOUS
 62
     7
100
AcDbLine
 10
588.14386339285
 20
-144.1233987842
 30
0.0
 11
588.14386339285
 21
-158.8733987842
 31
0.0
  0
ARC
  5
1FE
330
F39
100
AcDbEntity
  8
0
  6
CONTINUOUS
 62
     7
100
AcDbCircle
 10
588.29386339285
 20
-158.8733987842
 30
0.0
 40
0.1500000000000057
100
AcDbArc
 50
180.0
 51
270.0
  0
LINE
  5
1FF
330
F39
100
AcDbEntity
  8
0
  6
CONTINUOUS
 62
     7
100
AcDbLine
 10
588.29386339285
 20
-159.0233987842
 30
0.0
 11
592.04386339285
 21
-159.0233987842
 31
0.0
  0
ARC
  5
200
330
F39
100
AcDbEntity
  8
0
  6
CONTINUOUS
 62
     7
100
AcDbCircle
 10
592.04386339285
 20
-158.8733987842
 30
0.0
 40
0.1500000000000341
100
AcDbArc
 50
270.0
 51
0.0
  0
ARC
  5
201
330
F39
100
AcDbEntity
  8
0
  6
CONTINUOUS
 62
     7
100
AcDbCircle
 10
591.37176966575
 20
-529.0233987842
 30
0.0
 40
0.1500000000000341
100
AcDbArc
 50
270.0
 51
321.3401917459099
  0
LINE
  5
202
330
F39
100
AcDbEntity
  8
0
  6
CONTINUOUS
 62
     7
100
AcDbLine
 10
591.48889998715
 20
-529.11710304135
 30
0.0
 11
592.41099371425
 21
-527.96448588245
 31
0.0
  0
ARC
  5
203
330
F39
100
AcDbEntity
  8
0
  6
CONTINUOUS
 62
     7
100
AcDbCircle
 10
592.29386339285
 20
-527.8707816253
 30
0.0
 40
0.1500000000000249
100
AcDbArc
 50
321.340191745876
 51
0.0
  0
LINE
  5
204
330
F39
100
AcDbEntity
  8
0
  6
CONTINUOUS
 62
     7
100
AcDbLine
 10
592.4438633928501
 20
-527.8707816253
 30
0.0
 11
592.4438633928501
 21
-525.9260159431001
 31
0.0
  0
ARC
  5
205
330
F39
100
AcDbEntity
  8
0
  6
CONTINUOUS
 62
     7
100
AcDbCircle
 10
592.29386339285
 20
-525.9260159431001
 30
0.0
 40
0.1500000000000426
100
AcDbArc
 50
0.0
 51
38.659808254124
  0
LINE
  5
206
330
F39
100
AcDbEntity
  8
0
  6
CONTINUOUS
 62
     7
100
AcDbLine
 10
592.41099371425
 20
-525.83231168595
 30
0.0
 11
591.48889998715
 21
-524.6796945270501
 31
0.0
  0
ARC
  5
207
330
F39
100
AcDbEntity
  8
0
  6
CONTINUOUS
 62
     7
100
AcDbCircle
 10
591.37176966575
 20
-524.7733987842
 30
0.0
 40
0.1500000000000341
100
AcDbArc
 50
38.65980825409009
 51
90.0
  0
LINE
  5
208
330
F39
100
AcDbEntity
  8
0
  6
CONTINUOUS
 62
     7
100
AcDbLine
 10
591.37176966575
 20
-524.6233987842
 30
0.0
 11
588.96595711995
 21
-524.6233987842
 31
0.0
  0
ARC
  5
209
330
F39
100
AcDbEntity
  8
0
  6
CONTINUOUS
 62
     7
100
AcDbCircle
 10
588.96595711995
 20
-524.7733987842
 30
0.0
 40
0.1500000000000341
100
AcDbArc
 50
90.0
 51
141.3401917459099
  0
LINE
  5
20A
330
F39
100
AcDbEntity
  8
0
  6
CONTINUOUS
 62
     7
100
AcDbLine
 10
588.84882679855
 20
-524.6796945270501
 30
0.0
 11
587.9267330714499
 21
-525.83231168595
 31
0.0
  0
ARC
  5
20B
330
F39
100
AcDbEntity
  8
0
  6
CONTINUOUS
 62
     7
100
AcDbCircle
 10
588.04386339285
 20
-525.9260159431001
 30
0.0
 40
0.1499999999999805
100
AcDbArc
 50
141.340191745876
 51
180.0
  0
LINE
  5
20C
330
F39
100
AcDbEntity
  8
0
  6
CONTINUOUS
 62
     7
100
AcDbLine
 10
587.89386339285
 20
-525.9260159431001
 30
0.0
 11
587.89386339285
 21
-527.8707816253
 31
0.0
  0
ARC
  5
20D
330
F39
100
AcDbEntity
  8
0
  6
CONTINUOUS
 62
     7
100
AcDbCircle
 10
588.04386339285
 20
-527.8707816253
 30
0.0
 40
0.1499999999999805
100
AcDbArc
 50
180.0
 51
218.659808254124
  0
LINE
  5
20E
330
F39
100
AcDbEntity
  8
0
  6
CONTINUOUS
 62
     7
100
AcDbLine
 10
587.9267330714499
 20
-527.96448588245
 30
0.0
 11
588.84882679855
 21
-529.11710304135
 31
0.0
  0
ARC
  5
20F
330
F39
100
AcDbEntity
  8
0
  6
CONTINUOUS
 62
     7
100
AcDbCircle
 10
588.96595711995
 20
-529.0233987842
 30
0.0
 40
0.1500000000000249
100
AcDbArc
 50
218.6598082540901
 51
270.0
  0
LINE
  5
210
330
F39
100
AcDbEntity
  8
0
  6
CONTINUOUS
 62
     7
100
AcDbLine
 10
588.96595711995
 20
-529.1733987842
 30
0.0
 11
591.37176966575
 21
-529.1733987842
 31
0.0
  0
CIRCLE
  5
211
330
F39
100
AcDbEntity
  8
0
  6
CONTINUOUS
 62
     7
100
AcDbCircle
 10
590.16886339285
 20
-565.8983987842
 30
0.0
 40
1.375
  0
CIRCLE
  5
212
330
F39
100
AcDbEntity
  8
0
  6
CONTINUOUS
 62
     7
100
AcDbCircle
 10
590.16886339285
 20
-474.8983987842
 30
0.0
 40
1.375
  0
CIRCLE
  5
213
330
F39
100
AcDbEntity
  8
0
  6
CONTINUOUS
 62
     7
100
AcDbCircle
 10
590.16886339285
 20
-383.8983987842
 30
0.0
 40
1.375
  0
CIRCLE
  5
214
330
F39
100
AcDbEntity
  8
0
  6
CONTINUOUS
 62
     7
100
AcDbCircle
 10
590.16886339285
 20
-292.8983987842
 30
0.0
 40
1.375000000000057
  0
CIRCLE
  5
215
330
F39
100
AcDbEntity
  8
0
  6
CONTINUOUS
 62
     7
100
AcDbCircle
 10
590.16886339285
 20
-201.8983987842
 30
0.0
 40
1.374999999999943
  0
CIRCLE
  5
216
330
F39
100
AcDbEntity
  8
0
  6
CONTINUOUS
 62
     7
100
AcDbCircle
 10
590.16886339285
 20
-172.7483987842
 30
0.0
 40
1.374999999999943
  0
CIRCLE
  5
217
330
F39
100
AcDbEntity
  8
0
  6
CONTINUOUS
 62
     7
100
AcDbCircle
 10
590.16886339285
 20
-74.89839878420003
 30
0.0
 40
1.375
  0
CIRCLE
  5
218
330
F39
100
AcDbEntity
  8
0
  6
CONTINUOUS
 62
     7
100
AcDbCircle
 10
590.16886339285
 20
15.10160121579997
 30
0.0
 40
1.375000000000057
  0
CIRCLE
  5
219
330
F39
100
AcDbEntity
  8
0
  6
CONTINUOUS
 62
     7
100
AcDbCircle
 10
590.16886339285
 20
106.1016012158
 30
0.0
 40
1.375
  0
CIRCLE
  5
21A
330
F39
100
AcDbEntity
  8
0
  6
CONTINUOUS
 62
     7
100
AcDbCircle
 10
590.16886339285
 20
197.1016012158
 30
0.0
 40
1.375
  0
CIRCLE
  5
21B
330
F39
100
AcDbEntity
  8
0
  6
CONTINUOUS
 62
     7
100
AcDbCircle
 10
590.16886339285
 20
283.6016012158
 30
0.0
 40
1.375
  0
CIRCLE
  5
21C
330
F39
100
AcDbEntity
  8
0
  6
CONTINUOUS
 62
     7
100
AcDbCircle
 10
590.16886339285
 20
-100.3983987842
 30
0.0
 40
1.875
  0
LINE
  5
21D
330
F39
100
AcDbEntity
  8
0
  6
CONTINUOUS
 62
     7
100
AcDbLine
 10
589.9438633928501
 20
-101.3983987842
 30
0.0
 11
590.39386339285
 21
-101.3983987842
 31
0.0
  0
LINE
  5
21E
330
F39
100
AcDbEntity
  8
0
  6
CONTINUOUS
 62
     7
100
AcDbLine
 10
590.39386339285
 20
-100.7583987842
 30
0.0
 11
590.39386339285
 21
-101.3983987842
 31
0.0
  0
LINE
  5
21F
330
F39
100
AcDbEntity
  8
0
  6
CONTINUOUS
 62
     7
100
AcDbLine
 10
590.52886339285
 20
-100.6233987842
 30
0.0
 11
590.39386339285
 21
-100.7583987842
 31
0.0
  0
LINE
  5
220
330
F39
100
AcDbEntity
  8
0
  6
CONTINUOUS
 62
     7
100
AcDbLine
 10
590.52886339285
 20
-100.6233987842
 30
0.0
 11
591.16886339285
 21
-100.6233987842
 31
0.0
  0
LINE
  5
221
330
F39
100
AcDbEntity
  8
0
  6
CONTINUOUS
 62
     7
100
AcDbLine
 10
591.16886339285
 20
-100.6233987842
 30
0.0
 11
591.16886339285
 21
-100.1733987842
 31
0.0
  0
LINE
  5
222
330
F39
100
AcDbEntity
  8
0
  6
CONTINUOUS
 62
     7
100
AcDbLine
 10
590.52886339285
 20
-100.1733987842
 30
0.0
 11
591.16886339285
 21
-100.1733987842
 31
0.0
  0
LINE
  5
223
330
F39
100
AcDbEntity
  8
0
  6
CONTINUOUS
 62
     7
100
AcDbLine
 10
590.39386339285
 20
-100.0383987842
 30
0.0
 11
590.52886339285
 21
-100.1733987842
 31
0.0
  0
LINE
  5
224
330
F39
100
AcDbEntity
  8
0
  6
CONTINUOUS
 62
     7
100
AcDbLine
 10
590.39386339285
 20
-99.39839878420003
 30
0.0
 11
590.39386339285
 21
-100.0383987842
 31
0.0
  0
LINE
  5
225
330
F39
100
AcDbEntity
  8
0
  6
CONTINUOUS
 62
     7
100
AcDbLine
 10
589.9438633928501
 20
-99.39839878420003
 30
0.0
 11
590.39386339285
 21
-99.39839878420003
 31
0.0
  0
LINE
  5
226
330
F39
100
AcDbEntity
  8
0
  6
CONTINUOUS
 62
     7
100
AcDbLine
 10
589.9438633928501
 20
-99.39839878420003
 30
0.0
 11
589.9438633928501
 21
-100.0383987842
 31
0.0
  0
LINE
  5
227
330
F39
100
AcDbEntity
  8
0
  6
CONTINUOUS
 62
     7
100
AcDbLine
 10
589.8088633928501
 20
-100.1733987842
 30
0.0
 11
589.9438633928501
 21
-100.0383987842
 31
0.0
  0
LINE
  5
228
330
F39
100
AcDbEntity
  8
0
  6
CONTINUOUS
 62
     7
100
AcDbLine
 10
589.16886339285
 20
-100.1733987842
 30
0.0
 11
589.8088633928501
 21
-100.1733987842
 31
0.0
  0
LINE
  5
229
330
F39
100
AcDbEntity
  8
0
  6
CONTINUOUS
 62
     7
100
AcDbLine
 10
589.16886339285
 20
-100.6233987842
 30
0.0
 11
589.16886339285
 21
-100.1733987842
 31
0.0
  0
LINE
  5
22A
330
F39
100
AcDbEntity
  8
0
  6
CONTINUOUS
 62
     7
100
AcDbLine
 10
589.16886339285
 20
-100.6233987842
 30
0.0
 11
589.8088633928501
 21
-100.6233987842
 31
0.0
  0
LINE
  5
22B
330
F39
100
AcDbEntity
  8
0
  6
CONTINUOUS
 62
     7
100
AcDbLine
 10
589.9438633928501
 20
-100.7583987842
 30
0.0
 11
589.8088633928501
 21
-100.6233987842
 31
0.0
  0
LINE
  5
22C
330
F39
100
AcDbEntity
  8
0
  6
CONTINUOUS
 62
     7
100
AcDbLine
 10
589.9438633928501
 20
-100.7583987842
 30
0.0
 11
589.9438633928501
 21
-101.3983987842
 31
0.0
  0
LINE
  5
22D
330
F39
100
AcDbEntity
  8
0
  6
CONTINUOUS
 62
     7
100
AcDbLine
 10
589.9438633928501
 20
-100.6233987842
 30
0.0
 11
589.87636339285
 21
-100.6908987842
 31
0.0
  0
LINE
  5
22E
330
F39
100
AcDbEntity
  8
0
  6
CONTINUOUS
 62
     7
100
AcDbLine
 10
589.9438633928501
 20
-100.1733987842
 30
0.0
 11
589.87636339285
 21
-100.1058987842
 31
0.0
  0
LINE
  5
22F
330
F39
100
AcDbEntity
  8
0
  6
CONTINUOUS
 62
     7
100
AcDbLine
 10
589.9438633928501
 20
-100.1733987842
 30
0.0
 11
589.9438633928501
 21
-100.6233987842
 31
0.0
  0
LINE
  5
230
330
F39
100
AcDbEntity
  8
0
  6
CONTINUOUS
 62
     7
100
AcDbLine
 10
590.39386339285
 20
-100.1733987842
 30
0.0
 11
590.46136339285
 21
-100.1058987842
 31
0.0
  0
LINE
  5
231
330
F39
100
AcDbEntity
  8
0
  6
CONTINUOUS
 62
     7
100
AcDbLine
 10
590.39386339285
 20
-100.1733987842
 30
0.0
 11
589.9438633928501
 21
-100.1733987842
 31
0.0
  0
LINE
  5
232
330
F39
100
AcDbEntity
  8
0
  6
CONTINUOUS
 62
     7
100
AcDbLine
 10
590.39386339285
 20
-100.6233987842
 30
0.0
 11
589.9438633928501
 21
-100.6233987842
 31
0.0
  0
LINE
  5
233
330
F39
100
AcDbEntity
  8
0
  6
CONTINUOUS
 62
     7
100
AcDbLine
 10
590.39386339285
 20
-100.6233987842
 30
0.0
 11
590.46136339285
 21
-100.6908987842
 31
0.0
  0
LINE
  5
234
330
F39
100
AcDbEntity
  8
0
  6
CONTINUOUS
 62
     7
100
AcDbLine
 10
590.39386339285
 20
-100.1733987842
 30
0.0
 11
590.39386339285
 21
-100.6233987842
 31
0.0
  0
LINE
  5
235
330
F39
100
AcDbEntity
  8
0
  6
CONTINUOUS
 62
     7
100
AcDbLine
 10
589.9438633928501
 20
-100.6233987842
 30
0.0
 11
590.0276200229
 21
-100.53964215415
 31
0.0
  0
LINE
  5
236
330
F39
100
AcDbEntity
  8
0
  6
CONTINUOUS
 62
     7
100
AcDbLine
 10
590.0276200229
 20
-100.6233987842
 30
0.0
 11
590.0276200229
 21
-100.53964215415
 31
0.0
  0
LINE
  5
237
330
F39
100
AcDbEntity
  8
0
  6
CONTINUOUS
 62
     7
100
AcDbLine
 10
589.9438633928501
 20
-100.53964215415
 30
0.0
 11
590.0276200229
 21
-100.53964215415
 31
0.0
  0
LINE
  5
238
330
F39
100
AcDbEntity
  8
0
  6
CONTINUOUS
 62
     7
100
AcDbLine
 10
590.0276200229
 20
-100.25715541425
 30
0.0
 11
589.9438633928501
 21
-100.1733987842
 31
0.0
  0
LINE
  5
239
330
F39
100
AcDbEntity
  8
0
  6
CONTINUOUS
 62
     7
100
AcDbLine
 10
589.9438633928501
 20
-100.25715541425
 30
0.0
 11
590.0276200229
 21
-100.25715541425
 31
0.0
  0
LINE
  5
23A
330
F39
100
AcDbEntity
  8
0
  6
CONTINUOUS
 62
     7
100
AcDbLine
 10
590.0276200229
 20
-100.25715541425
 30
0.0
 11
590.0276200229
 21
-100.1733987842
 31
0.0
  0
LINE
  5
23B
330
F39
100
AcDbEntity
  8
0
  6
CONTINUOUS
 62
     7
100
AcDbLine
 10
590.3101067627999
 20
-100.25715541425
 30
0.0
 11
590.39386339285
 21
-100.25715541425
 31
0.0
  0
LINE
  5
23C
330
F39
100
AcDbEntity
  8
0
  6
CONTINUOUS
 62
     7
100
AcDbLine
 10
590.39386339285
 20
-100.1733987842
 30
0.0
 11
590.3101067627999
 21
-100.25715541425
 31
0.0
  0
LINE
  5
23D
330
F39
100
AcDbEntity
  8
0
  6
CONTINUOUS
 62
     7
100
AcDbLine
 10
590.3101067627999
 20
-100.25715541425
 30
0.0
 11
590.3101067627999
 21
-100.1733987842
 31
0.0
  0
LINE
  5
23E
330
F39
100
AcDbEntity
  8
0
  6
CONTINUOUS
 62
     7
100
AcDbLine
 10
590.3101067627999
 20
-100.53964215415
 30
0.0
 11
590.39386339285
 21
-100.6233987842
 31
0.0
  0
LINE
  5
23F
330
F39
100
AcDbEntity
  8
0
  6
CONTINUOUS
 62
     7
100
AcDbLine
 10
590.3101067627999
 20
-100.53964215415
 30
0.0
 11
590.39386339285
 21
-100.53964215415
 31
0.0
  0
LINE
  5
240
330
F39
100
AcDbEntity
  8
0
  6
CONTINUOUS
 62
     7
100
AcDbLine
 10
590.3101067627999
 20
-100.6233987842
 30
0.0
 11
590.3101067627999
 21
-100.53964215415
 31
0.0
  0
LINE
  5
241
330
F39
100
AcDbEntity
  8
0
  6
CONTINUOUS
 62
     7
100
AcDbLine
 10
590.16886339285
 20
-100.3983987842
 30
0.0
 11
590.0276200229
 21
-100.25715541425
 31
0.0
  0
LINE
  5
242
330
F39
100
AcDbEntity
  8
0
  6
CONTINUOUS
 62
     7
100
AcDbLine
 10
590.3101067627999
 20
-100.25715541425
 30
0.0
 11
590.16886339285
 21
-100.3983987842
 31
0.0
  0
LINE
  5
243
330
F39
100
AcDbEntity
  8
0
  6
CONTINUOUS
 62
     7
100
AcDbLine
 10
590.0276200229
 20
-100.53964215415
 30
0.0
 11
590.16886339285
 21
-100.3983987842
 31
0.0
  0
LINE
  5
244
330
F39
100
AcDbEntity
  8
0
  6
CONTINUOUS
 62
     7
100
AcDbLine
 10
590.16886339285
 20
-100.3983987842
 30
0.0
 11
590.3101067627999
 21
-100.53964215415
 31
0.0
  0
LINE
  5
245
330
F39
100
AcDbEntity
  8
0
  6
CONTINUOUS
 62
     7
100
AcDbLine
 10
589.9438633928501
 20
-139.4983987842
 30
0.0
 11
590.39386339285
 21
-139.4983987842
 31
0.0
  0
LINE
  5
246
330
F39
100
AcDbEntity
  8
0
  6
CONTINUOUS
 62
     7
100
AcDbLine
 10
590.39386339285
 20
-138.8583987842
 30
0.0
 11
590.39386339285
 21
-139.4983987842
 31
0.0
  0
LINE
  5
247
330
F39
100
AcDbEntity
  8
0
  6
CONTINUOUS
 62
     7
100
AcDbLine
 10
590.52886339285
 20
-138.7233987842
 30
0.0
 11
590.39386339285
 21
-138.8583987842
 31
0.0
  0
LINE
  5
248
330
F39
100
AcDbEntity
  8
0
  6
CONTINUOUS
 62
     7
100
AcDbLine
 10
590.52886339285
 20
-138.7233987842
 30
0.0
 11
591.16886339285
 21
-138.7233987842
 31
0.0
  0
LINE
  5
249
330
F39
100
AcDbEntity
  8
0
  6
CONTINUOUS
 62
     7
100
AcDbLine
 10
591.16886339285
 20
-138.7233987842
 30
0.0
 11
591.16886339285
 21
-138.2733987842
 31
0.0
  0
LINE
  5
24A
330
F39
100
AcDbEntity
  8
0
  6
CONTINUOUS
 62
     7
100
AcDbLine
 10
590.52886339285
 20
-138.2733987842
 30
0.0
 11
591.16886339285
 21
-138.2733987842
 31
0.0
  0
LINE
  5
24B
330
F39
100
AcDbEntity
  8
0
  6
CONTINUOUS
 62
     7
100
AcDbLine
 10
590.39386339285
 20
-138.1383987842
 30
0.0
 11
590.52886339285
 21
-138.2733987842
 31
0.0
  0
LINE
  5
24C
330
F39
100
AcDbEntity
  8
0
  6
CONTINUOUS
 62
     7
100
AcDbLine
 10
590.39386339285
 20
-137.4983987842
 30
0.0
 11
590.39386339285
 21
-138.1383987842
 31
0.0
  0
LINE
  5
24D
330
F39
100
AcDbEntity
  8
0
  6
CONTINUOUS
 62
     7
100
AcDbLine
 10
589.9438633928501
 20
-137.4983987842
 30
0.0
 11
590.39386339285
 21
-137.4983987842
 31
0.0
  0
LINE
  5
24E
330
F39
100
AcDbEntity
  8
0
  6
CONTINUOUS
 62
     7
100
AcDbLine
 10
589.9438633928501
 20
-137.4983987842
 30
0.0
 11
589.9438633928501
 21
-138.1383987842
 31
0.0
  0
LINE
  5
24F
330
F39
100
AcDbEntity
  8
0
  6
CONTINUOUS
 62
     7
100
AcDbLine
 10
589.8088633928501
 20
-138.2733987842
 30
0.0
 11
589.9438633928501
 21
-138.1383987842
 31
0.0
  0
LINE
  5
250
330
F39
100
AcDbEntity
  8
0
  6
CONTINUOUS
 62
     7
100
AcDbLine
 10
589.16886339285
 20
-138.2733987842
 30
0.0
 11
589.8088633928501
 21
-138.2733987842
 31
0.0
  0
LINE
  5
251
330
F39
100
AcDbEntity
  8
0
  6
CONTINUOUS
 62
     7
100
AcDbLine
 10
589.16886339285
 20
-138.7233987842
 30
0.0
 11
589.16886339285
 21
-138.2733987842
 31
0.0
  0
LINE
  5
252
330
F39
100
AcDbEntity
  8
0
  6
CONTINUOUS
 62
     7
100
AcDbLine
 10
589.16886339285
 20
-138.7233987842
 30
0.0
 11
589.8088633928501
 21
-138.7233987842
 31
0.0
  0
LINE
  5
253
330
F39
100
AcDbEntity
  8
0
  6
CONTINUOUS
 62
     7
100
AcDbLine
 10
589.9438633928501
 20
-138.8583987842
 30
0.0
 11
589.8088633928501
 21
-138.7233987842
 31
0.0
  0
LINE
  5
254
330
F39
100
AcDbEntity
  8
0
  6
CONTINUOUS
 62
     7
100
AcDbLine
 10
589.9438633928501
 20
-138.8583987842
 30
0.0
 11
589.9438633928501
 21
-139.4983987842
 31
0.0
  0
CIRCLE
  5
255
330
F39
100
AcDbEntity
  8
0
  6
CONTINUOUS
 62
     7
100
AcDbCircle
 10
590.16886339285
 20
-138.4983987842
 30
0.0
 40
1.875
  0
LINE
  5
256
330
F39
100
AcDbEntity
  8
0
  6
CONTINUOUS
 62
     7
100
AcDbLine
 10
589.9438633928501
 20
-138.7233987842
 30
0.0
 11
589.87636339285
 21
-138.7908987842
 31
0.0
  0
LINE
  5
257
330
F39
100
AcDbEntity
  8
0
  6
CONTINUOUS
 62
     7
100
AcDbLine
 10
589.9438633928501
 20
-138.2733987842
 30
0.0
 11
589.87636339285
 21
-138.2058987842
 31
0.0
  0
LINE
  5
258
330
F39
100
AcDbEntity
  8
0
  6
CONTINUOUS
 62
     7
100
AcDbLine
 10
589.9438633928501
 20
-138.2733987842
 30
0.0
 11
589.9438633928501
 21
-138.7233987842
 31
0.0
  0
LINE
  5
259
330
F39
100
AcDbEntity
  8
0
  6
CONTINUOUS
 62
     7
100
AcDbLine
 10
590.39386339285
 20
-138.7233987842
 30
0.0
 11
589.9438633928501
 21
-138.7233987842
 31
0.0
  0
LINE
  5
25A
330
F39
100
AcDbEntity
  8
0
  6
CONTINUOUS
 62
     7
100
AcDbLine
 10
590.39386339285
 20
-138.7233987842
 30
0.0
 11
590.46136339285
 21
-138.7908987842
 31
0.0
  0
LINE
  5
25B
330
F39
100
AcDbEntity
  8
0
  6
CONTINUOUS
 62
     7
100
AcDbLine
 10
590.39386339285
 20
-138.2733987842
 30
0.0
 11
590.46136339285
 21
-138.2058987842
 31
0.0
  0
LINE
  5
25C
330
F39
100
AcDbEntity
  8
0
  6
CONTINUOUS
 62
     7
100
AcDbLine
 10
590.39386339285
 20
-138.2733987842
 30
0.0
 11
589.9438633928501
 21
-138.2733987842
 31
0.0
  0
LINE
  5
25D
330
F39
100
AcDbEntity
  8
0
  6
CONTINUOUS
 62
     7
100
AcDbLine
 10
590.39386339285
 20
-138.2733987842
 30
0.0
 11
590.39386339285
 21
-138.7233987842
 31
0.0
  0
LINE
  5
25E
330
F39
100
AcDbEntity
  8
0
  6
CONTINUOUS
 62
     7
100
AcDbLine
 10
589.9438633928501
 20
-138.7233987842
 30
0.0
 11
590.0276200229
 21
-138.63964215415
 31
0.0
  0
LINE
  5
25F
330
F39
100
AcDbEntity
  8
0
  6
CONTINUOUS
 62
     7
100
AcDbLine
 10
590.0276200229
 20
-138.7233987842
 30
0.0
 11
590.0276200229
 21
-138.63964215415
 31
0.0
  0
LINE
  5
260
330
F39
100
AcDbEntity
  8
0
  6
CONTINUOUS
 62
     7
100
AcDbLine
 10
590.0276200229
 20
-138.35715541425
 30
0.0
 11
589.9438633928501
 21
-138.2733987842
 31
0.0
  0
LINE
  5
261
330
F39
100
AcDbEntity
  8
0
  6
CONTINUOUS
 62
     7
100
AcDbLine
 10
589.9438633928501
 20
-138.35715541425
 30
0.0
 11
590.0276200229
 21
-138.35715541425
 31
0.0
  0
LINE
  5
262
330
F39
100
AcDbEntity
  8
0
  6
CONTINUOUS
 62
     7
100
AcDbLine
 10
590.0276200229
 20
-138.35715541425
 30
0.0
 11
590.0276200229
 21
-138.2733987842
 31
0.0
  0
LINE
  5
263
330
F39
100
AcDbEntity
  8
0
  6
CONTINUOUS
 62
     7
100
AcDbLine
 10
589.9438633928501
 20
-138.63964215415
 30
0.0
 11
590.0276200229
 21
-138.63964215415
 31
0.0
  0
LINE
  5
264
330
F39
100
AcDbEntity
  8
0
  6
CONTINUOUS
 62
     7
100
AcDbLine
 10
590.3101067627999
 20
-138.35715541425
 30
0.0
 11
590.39386339285
 21
-138.35715541425
 31
0.0
  0
LINE
  5
265
330
F39
100
AcDbEntity
  8
0
  6
CONTINUOUS
 62
     7
100
AcDbLine
 10
590.39386339285
 20
-138.2733987842
 30
0.0
 11
590.3101067627999
 21
-138.35715541425
 31
0.0
  0
LINE
  5
266
330
F39
100
AcDbEntity
  8
0
  6
CONTINUOUS
 62
     7
100
AcDbLine
 10
590.3101067627999
 20
-138.63964215415
 30
0.0
 11
590.39386339285
 21
-138.7233987842
 31
0.0
  0
LINE
  5
267
330
F39
100
AcDbEntity
  8
0
  6
CONTINUOUS
 62
     7
100
AcDbLine
 10
590.3101067627999
 20
-138.7233987842
 30
0.0
 11
590.3101067627999
 21
-138.63964215415
 31
0.0
  0
LINE
  5
268
330
F39
100
AcDbEntity
  8
0
  6
CONTINUOUS
 62
     7
100
AcDbLine
 10
590.3101067627999
 20
-138.35715541425
 30
0.0
 11
590.3101067627999
 21
-138.2733987842
 31
0.0
  0
LINE
  5
269
330
F39
100
AcDbEntity
  8
0
  6
CONTINUOUS
 62
     7
100
AcDbLine
 10
590.3101067627999
 20
-138.63964215415
 30
0.0
 11
590.39386339285
 21
-138.63964215415
 31
0.0
  0
LINE
  5
26A
330
F39
100
AcDbEntity
  8
0
  6
CONTINUOUS
 62
     7
100
AcDbLine
 10
590.16886339285
 20
-138.4983987842
 30
0.0
 11
590.0276200229
 21
-138.35715541425
 31
0.0
  0
LINE
  5
26B
330
F39
100
AcDbEntity
  8
0
  6
CONTINUOUS
 62
     7
100
AcDbLine
 10
590.3101067627999
 20
-138.35715541425
 30
0.0
 11
590.16886339285
 21
-138.4983987842
 31
0.0
  0
LINE
  5
26C
330
F39
100
AcDbEntity
  8
0
  6
CONTINUOUS
 62
     7
100
AcDbLine
 10
590.16886339285
 20
-138.4983987842
 30
0.0
 11
590.3101067627999
 21
-138.63964215415
 31
0.0
  0
LINE
  5
26D
330
F39
100
AcDbEntity
  8
0
  6
CONTINUOUS
 62
     7
100
AcDbLine
 10
590.0276200229
 20
-138.63964215415
 30
0.0
 11
590.16886339285
 21
-138.4983987842
 31
0.0
  0
CIRCLE
  5
26E
330
F39
100
AcDbEntity
  8
0
  6
CONTINUOUS
 62
     7
100
AcDbCircle
 10
590.16886339285
 20
-540.8983987842
 30
0.0
 40
1.875
  0
LINE
  5
26F
330
F39
100
AcDbEntity
  8
0
  6
CONTINUOUS
 62
     7
100
AcDbLine
 10
589.9438633928501
 20
-541.8983987842
 30
0.0
 11
590.39386339285
 21
-541.8983987842
 31
0.0
  0
LINE
  5
270
330
F39
100
AcDbEntity
  8
0
  6
CONTINUOUS
 62
     7
100
AcDbLine
 10
590.39386339285
 20
-541.2583987842
 30
0.0
 11
590.39386339285
 21
-541.8983987842
 31
0.0
  0
LINE
  5
271
330
F39
100
AcDbEntity
  8
0
  6
CONTINUOUS
 62
     7
100
AcDbLine
 10
590.52886339285
 20
-541.1233987842
 30
0.0
 11
590.39386339285
 21
-541.2583987842
 31
0.0
  0
LINE
  5
272
330
F39
100
AcDbEntity
  8
0
  6
CONTINUOUS
 62
     7
100
AcDbLine
 10
590.52886339285
 20
-541.1233987842
 30
0.0
 11
591.16886339285
 21
-541.1233987842
 31
0.0
  0
LINE
  5
273
330
F39
100
AcDbEntity
  8
0
  6
CONTINUOUS
 62
     7
100
AcDbLine
 10
591.16886339285
 20
-541.1233987842
 30
0.0
 11
591.16886339285
 21
-540.6733987842
 31
0.0
  0
LINE
  5
274
330
F39
100
AcDbEntity
  8
0
  6
CONTINUOUS
 62
     7
100
AcDbLine
 10
590.52886339285
 20
-540.6733987842
 30
0.0
 11
591.16886339285
 21
-540.6733987842
 31
0.0
  0
LINE
  5
275
330
F39
100
AcDbEntity
  8
0
  6
CONTINUOUS
 62
     7
100
AcDbLine
 10
590.39386339285
 20
-540.5383987842
 30
0.0
 11
590.52886339285
 21
-540.6733987842
 31
0.0
  0
LINE
  5
276
330
F39
100
AcDbEntity
  8
0
  6
CONTINUOUS
 62
     7
100
AcDbLine
 10
590.39386339285
 20
-539.8983987842
 30
0.0
 11
590.39386339285
 21
-540.5383987842
 31
0.0
  0
LINE
  5
277
330
F39
100
AcDbEntity
  8
0
  6
CONTINUOUS
 62
     7
100
AcDbLine
 10
589.9438633928501
 20
-539.8983987842
 30
0.0
 11
590.39386339285
 21
-539.8983987842
 31
0.0
  0
LINE
  5
278
330
F39
100
AcDbEntity
  8
0
  6
CONTINUOUS
 62
     7
100
AcDbLine
 10
589.9438633928501
 20
-539.8983987842
 30
0.0
 11
589.9438633928501
 21
-540.5383987842
 31
0.0
  0
LINE
  5
279
330
F39
100
AcDbEntity
  8
0
  6
CONTINUOUS
 62
     7
100
AcDbLine
 10
589.8088633928501
 20
-540.6733987842
 30
0.0
 11
589.9438633928501
 21
-540.5383987842
 31
0.0
  0
LINE
  5
27A
330
F39
100
AcDbEntity
  8
0
  6
CONTINUOUS
 62
     7
100
AcDbLine
 10
589.16886339285
 20
-540.6733987842
 30
0.0
 11
589.8088633928501
 21
-540.6733987842
 31
0.0
  0
LINE
  5
27B
330
F39
100
AcDbEntity
  8
0
  6
CONTINUOUS
 62
     7
100
AcDbLine
 10
589.16886339285
 20
-541.1233987842
 30
0.0
 11
589.16886339285
 21
-540.6733987842
 31
0.0
  0
LINE
  5
27C
330
F39
100
AcDbEntity
  8
0
  6
CONTINUOUS
 62
     7
100
AcDbLine
 10
589.16886339285
 20
-541.1233987842
 30
0.0
 11
589.8088633928501
 21
-541.1233987842
 31
0.0
  0
LINE
  5
27D
330
F39
100
AcDbEntity
  8
0
  6
CONTINUOUS
 62
     7
100
AcDbLine
 10
589.9438633928501
 20
-541.2583987842
 30
0.0
 11
589.8088633928501
 21
-541.1233987842
 31
0.0
  0
LINE
  5
27E
330
F39
100
AcDbEntity
  8
0
  6
CONTINUOUS
 62
     7
100
AcDbLine
 10
589.9438633928501
 20
-541.2583987842
 30
0.0
 11
589.9438633928501
 21
-541.8983987842
 31
0.0
  0
LINE
  5
27F
330
F39
100
AcDbEntity
  8
0
  6
CONTINUOUS
 62
     7
100
AcDbLine
 10
589.9438633928501
 20
-541.1233987842
 30
0.0
 11
589.87636339285
 21
-541.1908987842
 31
0.0
  0
LINE
  5
280
330
F39
100
AcDbEntity
  8
0
  6
CONTINUOUS
 62
     7
100
AcDbLine
 10
589.9438633928501
 20
-540.6733987842
 30
0.0
 11
589.87636339285
 21
-540.6058987842
 31
0.0
  0
LINE
  5
281
330
F39
100
AcDbEntity
  8
0
  6
CONTINUOUS
 62
     7
100
AcDbLine
 10
589.9438633928501
 20
-540.6733987842
 30
0.0
 11
589.9438633928501
 21
-541.1233987842
 31
0.0
  0
LINE
  5
282
330
F39
100
AcDbEntity
  8
0
  6
CONTINUOUS
 62
     7
100
AcDbLine
 10
590.39386339285
 20
-540.6733987842
 30
0.0
 11
590.46136339285
 21
-540.6058987842
 31
0.0
  0
LINE
  5
283
330
F39
100
AcDbEntity
  8
0
  6
CONTINUOUS
 62
     7
100
AcDbLine
 10
590.39386339285
 20
-540.6733987842
 30
0.0
 11
589.9438633928501
 21
-540.6733987842
 31
0.0
  0
LINE
  5
284
330
F39
100
AcDbEntity
  8
0
  6
CONTINUOUS
 62
     7
100
AcDbLine
 10
590.39386339285
 20
-541.1233987842
 30
0.0
 11
589.9438633928501
 21
-541.1233987842
 31
0.0
  0
LINE
  5
285
330
F39
100
AcDbEntity
  8
0
  6
CONTINUOUS
 62
     7
100
AcDbLine
 10
590.39386339285
 20
-541.1233987842
 30
0.0
 11
590.46136339285
 21
-541.1908987842
 31
0.0
  0
LINE
  5
286
330
F39
100
AcDbEntity
  8
0
  6
CONTINUOUS
 62
     7
100
AcDbLine
 10
590.39386339285
 20
-540.6733987842
 30
0.0
 11
590.39386339285
 21
-541.1233987842
 31
0.0
  0
LINE
  5
287
330
F39
100
AcDbEntity
  8
0
  6
CONTINUOUS
 62
     7
100
AcDbLine
 10
590.0276200229
 20
-540.7571554142501
 30
0.0
 11
589.9438633928501
 21
-540.6733987842
 31
0.0
  0
LINE
  5
288
330
F39
100
AcDbEntity
  8
0
  6
CONTINUOUS
 62
     7
100
AcDbLine
 10
589.9438633928501
 20
-540.7571554142501
 30
0.0
 11
590.0276200229
 21
-540.7571554142501
 31
0.0
  0
LINE
  5
289
330
F39
100
AcDbEntity
  8
0
  6
CONTINUOUS
 62
     7
100
AcDbLine
 10
589.9438633928501
 20
-541.1233987842
 30
0.0
 11
590.0276200229
 21
-541.03964215415
 31
0.0
  0
LINE
  5
28A
330
F39
100
AcDbEntity
  8
0
  6
CONTINUOUS
 62
     7
100
AcDbLine
 10
590.0276200229
 20
-541.1233987842
 30
0.0
 11
590.0276200229
 21
-541.03964215415
 31
0.0
  0
LINE
  5
28B
330
F39
100
AcDbEntity
  8
0
  6
CONTINUOUS
 62
     7
100
AcDbLine
 10
590.0276200229
 20
-540.7571554142501
 30
0.0
 11
590.0276200229
 21
-540.6733987842
 31
0.0
  0
LINE
  5
28C
330
F39
100
AcDbEntity
  8
0
  6
CONTINUOUS
 62
     7
100
AcDbLine
 10
589.9438633928501
 20
-541.03964215415
 30
0.0
 11
590.0276200229
 21
-541.03964215415
 31
0.0
  0
LINE
  5
28D
330
F39
100
AcDbEntity
  8
0
  6
CONTINUOUS
 62
     7
100
AcDbLine
 10
590.3101067627999
 20
-540.7571554142501
 30
0.0
 11
590.39386339285
 21
-540.7571554142501
 31
0.0
  0
LINE
  5
28E
330
F39
100
AcDbEntity
  8
0
  6
CONTINUOUS
 62
     7
100
AcDbLine
 10
590.39386339285
 20
-540.6733987842
 30
0.0
 11
590.3101067627999
 21
-540.7571554142501
 31
0.0
  0
LINE
  5
28F
330
F39
100
AcDbEntity
  8
0
  6
CONTINUOUS
 62
     7
100
AcDbLine
 10
590.3101067627999
 20
-540.7571554142501
 30
0.0
 11
590.3101067627999
 21
-540.6733987842
 31
0.0
  0
LINE
  5
290
330
F39
100
AcDbEntity
  8
0
  6
CONTINUOUS
 62
     7
100
AcDbLine
 10
590.3101067627999
 20
-541.03964215415
 30
0.0
 11
590.39386339285
 21
-541.1233987842
 31
0.0
  0
LINE
  5
291
330
F39
100
AcDbEntity
  8
0
  6
CONTINUOUS
 62
     7
100
AcDbLine
 10
590.3101067627999
 20
-541.1233987842
 30
0.0
 11
590.3101067627999
 21
-541.03964215415
 31
0.0
  0
LINE
  5
292
330
F39
100
AcDbEntity
  8
0
  6
CONTINUOUS
 62
     7
100
AcDbLine
 10
590.3101067627999
 20
-541.03964215415
 30
0.0
 11
590.39386339285
 21
-541.03964215415
 31
0.0
  0
LINE
  5
293
330
F39
100
AcDbEntity
  8
0
  6
CONTINUOUS
 62
     7
100
AcDbLine
 10
590.16886339285
 20
-540.8983987842
 30
0.0
 11
590.3101067627999
 21
-541.03964215415
 31
0.0
  0
LINE
  5
294
330
F39
100
AcDbEntity
  8
0
  6
CONTINUOUS
 62
     7
100
AcDbLine
 10
590.0276200229
 20
-541.03964215415
 30
0.0
 11
590.16886339285
 21
-540.8983987842
 31
0.0
  0
LINE
  5
295
330
F39
100
AcDbEntity
  8
0
  6
CONTINUOUS
 62
     7
100
AcDbLine
 10
590.16886339285
 20
-540.8983987842
 30
0.0
 11
590.0276200229
 21
-540.7571554142501
 31
0.0
  0
LINE
  5
296
330
F39
100
AcDbEntity
  8
0
  6
CONTINUOUS
 62
     7
100
AcDbLine
 10
590.3101067627999
 20
-540.7571554142501
 30
0.0
 11
590.16886339285
 21
-540.8983987842
 31
0.0
  0
CIRCLE
  5
297
330
F39
100
AcDbEntity
  8
0
  6
CONTINUOUS
 62
     7
100
AcDbCircle
 10
590.16886339285
 20
-512.8983987842
 30
0.0
 40
1.874999999999943
  0
LINE
  5
298
330
F39
100
AcDbEntity
  8
0
  6
CONTINUOUS
 62
     7
100
AcDbLine
 10
589.9438633928501
 20
-513.8983987842
 30
0.0
 11
590.39386339285
 21
-513.8983987842
 31
0.0
  0
LINE
  5
299
330
F39
100
AcDbEntity
  8
0
  6
CONTINUOUS
 62
     7
100
AcDbLine
 10
590.39386339285
 20
-513.2583987842
 30
0.0
 11
590.39386339285
 21
-513.8983987842
 31
0.0
  0
LINE
  5
29A
330
F39
100
AcDbEntity
  8
0
  6
CONTINUOUS
 62
     7
100
AcDbLine
 10
590.52886339285
 20
-513.1233987842
 30
0.0
 11
590.39386339285
 21
-513.2583987842
 31
0.0
  0
LINE
  5
29B
330
F39
100
AcDbEntity
  8
0
  6
CONTINUOUS
 62
     7
100
AcDbLine
 10
590.52886339285
 20
-513.1233987842
 30
0.0
 11
591.16886339285
 21
-513.1233987842
 31
0.0
  0
LINE
  5
29C
330
F39
100
AcDbEntity
  8
0
  6
CONTINUOUS
 62
     7
100
AcDbLine
 10
591.16886339285
 20
-513.1233987842
 30
0.0
 11
591.16886339285
 21
-512.6733987842
 31
0.0
  0
LINE
  5
29D
330
F39
100
AcDbEntity
  8
0
  6
CONTINUOUS
 62
     7
100
AcDbLine
 10
590.52886339285
 20
-512.6733987842
 30
0.0
 11
591.16886339285
 21
-512.6733987842
 31
0.0
  0
LINE
  5
29E
330
F39
100
AcDbEntity
  8
0
  6
CONTINUOUS
 62
     7
100
AcDbLine
 10
590.39386339285
 20
-512.5383987842
 30
0.0
 11
590.52886339285
 21
-512.6733987842
 31
0.0
  0
LINE
  5
29F
330
F39
100
AcDbEntity
  8
0
  6
CONTINUOUS
 62
     7
100
AcDbLine
 10
590.39386339285
 20
-511.8983987842
 30
0.0
 11
590.39386339285
 21
-512.5383987842
 31
0.0
  0
LINE
  5
2A0
330
F39
100
AcDbEntity
  8
0
  6
CONTINUOUS
 62
     7
100
AcDbLine
 10
589.9438633928501
 20
-511.8983987842
 30
0.0
 11
590.39386339285
 21
-511.8983987842
 31
0.0
  0
LINE
  5
2A1
330
F39
100
AcDbEntity
  8
0
  6
CONTINUOUS
 62
     7
100
AcDbLine
 10
589.9438633928501
 20
-511.8983987842
 30
0.0
 11
589.9438633928501
 21
-512.5383987842
 31
0.0
  0
LINE
  5
2A2
330
F39
100
AcDbEntity
  8
0
  6
CONTINUOUS
 62
     7
100
AcDbLine
 10
589.8088633928501
 20
-512.6733987842
 30
0.0
 11
589.9438633928501
 21
-512.5383987842
 31
0.0
  0
LINE
  5
2A3
330
F39
100
AcDbEntity
  8
0
  6
CONTINUOUS
 62
     7
100
AcDbLine
 10
589.16886339285
 20
-512.6733987842
 30
0.0
 11
589.8088633928501
 21
-512.6733987842
 31
0.0
  0
LINE
  5
2A4
330
F39
100
AcDbEntity
  8
0
  6
CONTINUOUS
 62
     7
100
AcDbLine
 10
589.16886339285
 20
-513.1233987842
 30
0.0
 11
589.16886339285
 21
-512.6733987842
 31
0.0
  0
LINE
  5
2A5
330
F39
100
AcDbEntity
  8
0
  6
CONTINUOUS
 62
     7
100
AcDbLine
 10
589.16886339285
 20
-513.1233987842
 30
0.0
 11
589.8088633928501
 21
-513.1233987842
 31
0.0
  0
LINE
  5
2A6
330
F39
100
AcDbEntity
  8
0
  6
CONTINUOUS
 62
     7
100
AcDbLine
 10
589.9438633928501
 20
-513.2583987842
 30
0.0
 11
589.8088633928501
 21
-513.1233987842
 31
0.0
  0
LINE
  5
2A7
330
F39
100
AcDbEntity
  8
0
  6
CONTINUOUS
 62
     7
100
AcDbLine
 10
589.9438633928501
 20
-513.2583987842
 30
0.0
 11
589.9438633928501
 21
-513.8983987842
 31
0.0
  0
LINE
  5
2A8
330
F39
100
AcDbEntity
  8
0
  6
CONTINUOUS
 62
     7
100
AcDbLine
 10
589.9438633928501
 20
-513.1233987842
 30
0.0
 11
589.87636339285
 21
-513.1908987842
 31
0.0
  0
LINE
  5
2A9
330
F39
100
AcDbEntity
  8
0
  6
CONTINUOUS
 62
     7
100
AcDbLine
 10
589.9438633928501
 20
-512.6733987842
 30
0.0
 11
589.87636339285
 21
-512.6058987842
 31
0.0
  0
LINE
  5
2AA
330
F39
100
AcDbEntity
  8
0
  6
CONTINUOUS
 62
     7
100
AcDbLine
 10
589.9438633928501
 20
-512.6733987842
 30
0.0
 11
589.9438633928501
 21
-513.1233987842
 31
0.0
  0
LINE
  5
2AB
330
F39
100
AcDbEntity
  8
0
  6
CONTINUOUS
 62
     7
100
AcDbLine
 10
590.39386339285
 20
-513.1233987842
 30
0.0
 11
589.9438633928501
 21
-513.1233987842
 31
0.0
  0
LINE
  5
2AC
330
F39
100
AcDbEntity
  8
0
  6
CONTINUOUS
 62
     7
100
AcDbLine
 10
590.39386339285
 20
-513.1233987842
 30
0.0
 11
590.46136339285
 21
-513.1908987842
 31
0.0
  0
LINE
  5
2AD
330
F39
100
AcDbEntity
  8
0
  6
CONTINUOUS
 62
     7
100
AcDbLine
 10
590.39386339285
 20
-512.6733987842
 30
0.0
 11
590.46136339285
 21
-512.6058987842
 31
0.0
  0
LINE
  5
2AE
330
F39
100
AcDbEntity
  8
0
  6
CONTINUOUS
 62
     7
100
AcDbLine
 10
590.39386339285
 20
-512.6733987842
 30
0.0
 11
589.9438633928501
 21
-512.6733987842
 31
0.0
  0
LINE
  5
2AF
330
F39
100
AcDbEntity
  8
0
  6
CONTINUOUS
 62
     7
100
AcDbLine
 10
590.39386339285
 20
-512.6733987842
 30
0.0
 11
590.39386339285
 21
-513.1233987842
 31
0.0
  0
LINE
  5
2B0
330
F39
100
AcDbEntity
  8
0
  6
CONTINUOUS
 62
     7
100
AcDbLine
 10
589.9438633928501
 20
-513.03964215415
 30
0.0
 11
590.0276200229
 21
-513.03964215415
 31
0.0
  0
LINE
  5
2B1
330
F39
100
AcDbEntity
  8
0
  6
CONTINUOUS
 62
     7
100
AcDbLine
 10
589.9438633928501
 20
-513.1233987842
 30
0.0
 11
590.0276200229
 21
-513.03964215415
 31
0.0
  0
LINE
  5
2B2
330
F39
100
AcDbEntity
  8
0
  6
CONTINUOUS
 62
     7
100
AcDbLine
 10
590.0276200229
 20
-512.7571554142501
 30
0.0
 11
589.9438633928501
 21
-512.6733987842
 31
0.0
  0
LINE
  5
2B3
330
F39
100
AcDbEntity
  8
0
  6
CONTINUOUS
 62
     7
100
AcDbLine
 10
590.0276200229
 20
-512.7571554142501
 30
0.0
 11
590.0276200229
 21
-512.6733987842
 31
0.0
  0
LINE
  5
2B4
330
F39
100
AcDbEntity
  8
0
  6
CONTINUOUS
 62
     7
100
AcDbLine
 10
589.9438633928501
 20
-512.7571554142501
 30
0.0
 11
590.0276200229
 21
-512.7571554142501
 31
0.0
  0
LINE
  5
2B5
330
F39
100
AcDbEntity
  8
0
  6
CONTINUOUS
 62
     7
100
AcDbLine
 10
590.0276200229
 20
-513.1233987842
 30
0.0
 11
590.0276200229
 21
-513.03964215415
 31
0.0
  0
LINE
  5
2B6
330
F39
100
AcDbEntity
  8
0
  6
CONTINUOUS
 62
     7
100
AcDbLine
 10
590.3101067627999
 20
-513.03964215415
 30
0.0
 11
590.39386339285
 21
-513.1233987842
 31
0.0
  0
LINE
  5
2B7
330
F39
100
AcDbEntity
  8
0
  6
CONTINUOUS
 62
     7
100
AcDbLine
 10
590.3101067627999
 20
-513.03964215415
 30
0.0
 11
590.39386339285
 21
-513.03964215415
 31
0.0
  0
LINE
  5
2B8
330
F39
100
AcDbEntity
  8
0
  6
CONTINUOUS
 62
     7
100
AcDbLine
 10
590.3101067627999
 20
-512.7571554142501
 30
0.0
 11
590.39386339285
 21
-512.7571554142501
 31
0.0
  0
LINE
  5
2B9
330
F39
100
AcDbEntity
  8
0
  6
CONTINUOUS
 62
     7
100
AcDbLine
 10
590.39386339285
 20
-512.6733987842
 30
0.0
 11
590.3101067627999
 21
-512.7571554142501
 31
0.0
  0
LINE
  5
2BA
330
F39
100
AcDbEntity
  8
0
  6
CONTINUOUS
 62
     7
100
AcDbLine
 10
590.3101067627999
 20
-512.7571554142501
 30
0.0
 11
590.3101067627999
 21
-512.6733987842
 31
0.0
  0
LINE
  5
2BB
330
F39
100
AcDbEntity
  8
0
  6
CONTINUOUS
 62
     7
100
AcDbLine
 10
590.3101067627999
 20
-513.1233987842
 30
0.0
 11
590.3101067627999
 21
-513.03964215415
 31
0.0
  0
LINE
  5
2BC
330
F39
100
AcDbEntity
  8
0
  6
CONTINUOUS
 62
     7
100
AcDbLine
 10
590.16886339285
 20
-512.8983987842
 30
0.0
 11
590.0276200229
 21
-512.7571554142501
 31
0.0
  0
LINE
  5
2BD
330
F39
100
AcDbEntity
  8
0
  6
CONTINUOUS
 62
     7
100
AcDbLine
 10
590.0276200229
 20
-513.03964215415
 30
0.0
 11
590.16886339285
 21
-512.8983987842
 31
0.0
  0
LINE
  5
2BE
330
F39
100
AcDbEntity
  8
0
  6
CONTINUOUS
 62
     7
100
AcDbLine
 10
590.3101067627999
 20
-512.7571554142501
 30
0.0
 11
590.16886339285
 21
-512.8983987842
 31
0.0
  0
LINE
  5
2BF
330
F39
100
AcDbEntity
  8
0
  6
CONTINUOUS
 62
     7
100
AcDbLine
 10
590.16886339285
 20
-512.8983987842
 30
0.0
 11
590.3101067627999
 21
-513.03964215415
 31
0.0
  0
LINE
  5
2C0
330
F39
100
AcDbEntity
  8
0
  6
CONTINUOUS
 62
     7
100
AcDbLine
 10
589.9438633928501
 20
253.1016012158
 30
0.0
 11
590.39386339285
 21
253.1016012158
 31
0.0
  0
LINE
  5
2C1
330
F39
100
AcDbEntity
  8
0
  6
CONTINUOUS
 62
     7
100
AcDbLine
 10
590.39386339285
 20
253.7416012158
 30
0.0
 11
590.39386339285
 21
253.1016012158
 31
0.0
  0
LINE
  5
2C2
330
F39
100
AcDbEntity
  8
0
  6
CONTINUOUS
 62
     7
100
AcDbLine
 10
590.52886339285
 20
253.8766012158
 30
0.0
 11
590.39386339285
 21
253.7416012158
 31
0.0
  0
LINE
  5
2C3
330
F39
100
AcDbEntity
  8
0
  6
CONTINUOUS
 62
     7
100
AcDbLine
 10
590.52886339285
 20
253.8766012158
 30
0.0
 11
591.16886339285
 21
253.8766012158
 31
0.0
  0
LINE
  5
2C4
330
F39
100
AcDbEntity
  8
0
  6
CONTINUOUS
 62
     7
100
AcDbLine
 10
591.16886339285
 20
253.8766012158
 30
0.0
 11
591.16886339285
 21
254.3266012158
 31
0.0
  0
LINE
  5
2C5
330
F39
100
AcDbEntity
  8
0
  6
CONTINUOUS
 62
     7
100
AcDbLine
 10
590.52886339285
 20
254.3266012158
 30
0.0
 11
591.16886339285
 21
254.3266012158
 31
0.0
  0
LINE
  5
2C6
330
F39
100
AcDbEntity
  8
0
  6
CONTINUOUS
 62
     7
100
AcDbLine
 10
590.39386339285
 20
254.4616012158
 30
0.0
 11
590.52886339285
 21
254.3266012158
 31
0.0
  0
LINE
  5
2C7
330
F39
100
AcDbEntity
  8
0
  6
CONTINUOUS
 62
     7
100
AcDbLine
 10
590.39386339285
 20
255.1016012158
 30
0.0
 11
590.39386339285
 21
254.4616012158
 31
0.0
  0
LINE
  5
2C8
330
F39
100
AcDbEntity
  8
0
  6
CONTINUOUS
 62
     7
100
AcDbLine
 10
589.9438633928501
 20
255.1016012158
 30
0.0
 11
590.39386339285
 21
255.1016012158
 31
0.0
  0
LINE
  5
2C9
330
F39
100
AcDbEntity
  8
0
  6
CONTINUOUS
 62
     7
100
AcDbLine
 10
589.9438633928501
 20
255.1016012158
 30
0.0
 11
589.9438633928501
 21
254.4616012158
 31
0.0
  0
LINE
  5
2CA
330
F39
100
AcDbEntity
  8
0
  6
CONTINUOUS
 62
     7
100
AcDbLine
 10
589.8088633928501
 20
254.3266012158
 30
0.0
 11
589.9438633928501
 21
254.4616012158
 31
0.0
  0
LINE
  5
2CB
330
F39
100
AcDbEntity
  8
0
  6
CONTINUOUS
 62
     7
100
AcDbLine
 10
589.16886339285
 20
254.3266012158
 30
0.0
 11
589.8088633928501
 21
254.3266012158
 31
0.0
  0
LINE
  5
2CC
330
F39
100
AcDbEntity
  8
0
  6
CONTINUOUS
 62
     7
100
AcDbLine
 10
589.16886339285
 20
253.8766012158
 30
0.0
 11
589.16886339285
 21
254.3266012158
 31
0.0
  0
LINE
  5
2CD
330
F39
100
AcDbEntity
  8
0
  6
CONTINUOUS
 62
     7
100
AcDbLine
 10
589.16886339285
 20
253.8766012158
 30
0.0
 11
589.8088633928501
 21
253.8766012158
 31
0.0
  0
LINE
  5
2CE
330
F39
100
AcDbEntity
  8
0
  6
CONTINUOUS
 62
     7
100
AcDbLine
 10
589.9438633928501
 20
253.7416012158
 30
0.0
 11
589.8088633928501
 21
253.8766012158
 31
0.0
  0
LINE
  5
2CF
330
F39
100
AcDbEntity
  8
0
  6
CONTINUOUS
 62
     7
100
AcDbLine
 10
589.9438633928501
 20
253.7416012158
 30
0.0
 11
589.9438633928501
 21
253.1016012158
 31
0.0
  0
CIRCLE
  5
2D0
330
F39
100
AcDbEntity
  8
0
  6
CONTINUOUS
 62
     7
100
AcDbCircle
 10
590.16886339285
 20
254.1016012158
 30
0.0
 40
1.875
  0
LINE
  5
2D1
330
F39
100
AcDbEntity
  8
0
  6
CONTINUOUS
 62
     7
100
AcDbLine
 10
589.9438633928501
 20
253.8766012158
 30
0.0
 11
589.87636339285
 21
253.8091012158
 31
0.0
  0
LINE
  5
2D2
330
F39
100
AcDbEntity
  8
0
  6
CONTINUOUS
 62
     7
100
AcDbLine
 10
589.9438633928501
 20
254.3266012158
 30
0.0
 11
589.87636339285
 21
254.3941012158
 31
0.0
  0
LINE
  5
2D3
330
F39
100
AcDbEntity
  8
0
  6
CONTINUOUS
 62
     7
100
AcDbLine
 10
589.9438633928501
 20
254.3266012158
 30
0.0
 11
589.9438633928501
 21
253.8766012158
 31
0.0
  0
LINE
  5
2D4
330
F39
100
AcDbEntity
  8
0
  6
CONTINUOUS
 62
     7
100
AcDbLine
 10
590.39386339285
 20
254.3266012158
 30
0.0
 11
590.46136339285
 21
254.3941012158
 31
0.0
  0
LINE
  5
2D5
330
F39
100
AcDbEntity
  8
0
  6
CONTINUOUS
 62
     7
100
AcDbLine
 10
590.39386339285
 20
254.3266012158
 30
0.0
 11
589.9438633928501
 21
254.3266012158
 31
0.0
  0
LINE
  5
2D6
330
F39
100
AcDbEntity
  8
0
  6
CONTINUOUS
 62
     7
100
AcDbLine
 10
590.39386339285
 20
253.8766012158
 30
0.0
 11
589.9438633928501
 21
253.8766012158
 31
0.0
  0
LINE
  5
2D7
330
F39
100
AcDbEntity
  8
0
  6
CONTINUOUS
 62
     7
100
AcDbLine
 10
590.39386339285
 20
253.8766012158
 30
0.0
 11
590.46136339285
 21
253.8091012158
 31
0.0
  0
LINE
  5
2D8
330
F39
100
AcDbEntity
  8
0
  6
CONTINUOUS
 62
     7
100
AcDbLine
 10
590.39386339285
 20
254.3266012158
 30
0.0
 11
590.39386339285
 21
253.8766012158
 31
0.0
  0
LINE
  5
2D9
330
F39
100
AcDbEntity
  8
0
  6
CONTINUOUS
 62
     7
100
AcDbLine
 10
590.0276200229
 20
254.2428445857499
 30
0.0
 11
589.9438633928501
 21
254.3266012158
 31
0.0
  0
LINE
  5
2DA
330
F39
100
AcDbEntity
  8
0
  6
CONTINUOUS
 62
     7
100
AcDbLine
 10
590.0276200229
 20
254.2428445857499
 30
0.0
 11
590.0276200229
 21
254.3266012158
 31
0.0
  0
LINE
  5
2DB
330
F39
100
AcDbEntity
  8
0
  6
CONTINUOUS
 62
     7
100
AcDbLine
 10
589.9438633928501
 20
254.2428445857499
 30
0.0
 11
590.0276200229
 21
254.2428445857499
 31
0.0
  0
LINE
  5
2DC
330
F39
100
AcDbEntity
  8
0
  6
CONTINUOUS
 62
     7
100
AcDbLine
 10
589.9438633928501
 20
253.96035784585
 30
0.0
 11
590.0276200229
 21
253.96035784585
 31
0.0
  0
LINE
  5
2DD
330
F39
100
AcDbEntity
  8
0
  6
CONTINUOUS
 62
     7
100
AcDbLine
 10
589.9438633928501
 20
253.8766012158
 30
0.0
 11
590.0276200229
 21
253.96035784585
 31
0.0
  0
LINE
  5
2DE
330
F39
100
AcDbEntity
  8
0
  6
CONTINUOUS
 62
     7
100
AcDbLine
 10
590.0276200229
 20
253.8766012158
 30
0.0
 11
590.0276200229
 21
253.96035784585
 31
0.0
  0
LINE
  5
2DF
330
F39
100
AcDbEntity
  8
0
  6
CONTINUOUS
 62
     7
100
AcDbLine
 10
590.3101067627999
 20
253.96035784585
 30
0.0
 11
590.39386339285
 21
253.8766012158
 31
0.0
  0
LINE
  5
2E0
330
F39
100
AcDbEntity
  8
0
  6
CONTINUOUS
 62
     7
100
AcDbLine
 10
590.3101067627999
 20
253.96035784585
 30
0.0
 11
590.39386339285
 21
253.96035784585
 31
0.0
  0
LINE
  5
2E1
330
F39
100
AcDbEntity
  8
0
  6
CONTINUOUS
 62
     7
100
AcDbLine
 10
590.3101067627999
 20
254.2428445857499
 30
0.0
 11
590.39386339285
 21
254.2428445857499
 31
0.0
  0
LINE
  5
2E2
330
F39
100
AcDbEntity
  8
0
  6
CONTINUOUS
 62
     7
100
AcDbLine
 10
590.39386339285
 20
254.3266012158
 30
0.0
 11
590.3101067627999
 21
254.2428445857499
 31
0.0
  0
LINE
  5
2E3
330
F39
100
AcDbEntity
  8
0
  6
CONTINUOUS
 62
     7
100
AcDbLine
 10
590.3101067627999
 20
253.8766012158
 30
0.0
 11
590.3101067627999
 21
253.96035784585
 31
0.0
  0
LINE
  5
2E4
330
F39
100
AcDbEntity
  8
0
  6
CONTINUOUS
 62
     7
100
AcDbLine
 10
590.3101067627999
 20
254.2428445857499
 30
0.0
 11
590.3101067627999
 21
254.3266012158
 31
0.0
  0
LINE
  5
2E5
330
F39
100
AcDbEntity
  8
0
  6
CONTINUOUS
 62
     7
100
AcDbLine
 10
590.16886339285
 20
254.1016012158
 30
0.0
 11
590.0276200229
 21
254.2428445857499
 31
0.0
  0
LINE
  5
2E6
330
F39
100
AcDbEntity
  8
0
  6
CONTINUOUS
 62
     7
100
AcDbLine
 10
590.3101067627999
 20
254.2428445857499
 30
0.0
 11
590.16886339285
 21
254.1016012158
 31
0.0
  0
LINE
  5
2E7
330
F39
100
AcDbEntity
  8
0
  6
CONTINUOUS
 62
     7
100
AcDbLine
 10
590.0276200229
 20
253.96035784585
 30
0.0
 11
590.16886339285
 21
254.1016012158
 31
0.0
  0
LINE
  5
2E8
330
F39
100
AcDbEntity
  8
0
  6
CONTINUOUS
 62
     7
100
AcDbLine
 10
590.16886339285
 20
254.1016012158
 30
0.0
 11
590.3101067627999
 21
253.96035784585
 31
0.0
  0
CIRCLE
  5
2E9
330
F39
100
AcDbEntity
  8
0
  6
CONTINUOUS
 62
     7
100
AcDbCircle
 10
590.16886339285
 20
226.1016012158
 30
0.0
 40
1.875
  0
LINE
  5
2EA
330
F39
100
AcDbEntity
  8
0
  6
CONTINUOUS
 62
     7
100
AcDbLine
 10
589.9438633928501
 20
225.1016012158
 30
0.0
 11
590.39386339285
 21
225.1016012158
 31
0.0
  0
LINE
  5
2EB
330
F39
100
AcDbEntity
  8
0
  6
CONTINUOUS
 62
     7
100
AcDbLine
 10
590.39386339285
 20
225.7416012158
 30
0.0
 11
590.39386339285
 21
225.1016012158
 31
0.0
  0
LINE
  5
2EC
330
F39
100
AcDbEntity
  8
0
  6
CONTINUOUS
 62
     7
100
AcDbLine
 10
590.52886339285
 20
225.8766012158
 30
0.0
 11
590.39386339285
 21
225.7416012158
 31
0.0
  0
LINE
  5
2ED
330
F39
100
AcDbEntity
  8
0
  6
CONTINUOUS
 62
     7
100
AcDbLine
 10
590.52886339285
 20
225.8766012158
 30
0.0
 11
591.16886339285
 21
225.8766012158
 31
0.0
  0
LINE
  5
2EE
330
F39
100
AcDbEntity
  8
0
  6
CONTINUOUS
 62
     7
100
AcDbLine
 10
591.16886339285
 20
225.8766012158
 30
0.0
 11
591.16886339285
 21
226.3266012158
 31
0.0
  0
LINE
  5
2EF
330
F39
100
AcDbEntity
  8
0
  6
CONTINUOUS
 62
     7
100
AcDbLine
 10
590.52886339285
 20
226.3266012158
 30
0.0
 11
591.16886339285
 21
226.3266012158
 31
0.0
  0
LINE
  5
2F0
330
F39
100
AcDbEntity
  8
0
  6
CONTINUOUS
 62
     7
100
AcDbLine
 10
590.39386339285
 20
226.4616012158
 30
0.0
 11
590.52886339285
 21
226.3266012158
 31
0.0
  0
LINE
  5
2F1
330
F39
100
AcDbEntity
  8
0
  6
CONTINUOUS
 62
     7
100
AcDbLine
 10
590.39386339285
 20
227.1016012158
 30
0.0
 11
590.39386339285
 21
226.4616012158
 31
0.0
  0
LINE
  5
2F2
330
F39
100
AcDbEntity
  8
0
  6
CONTINUOUS
 62
     7
100
AcDbLine
 10
589.9438633928501
 20
227.1016012158
 30
0.0
 11
590.39386339285
 21
227.1016012158
 31
0.0
  0
LINE
  5
2F3
330
F39
100
AcDbEntity
  8
0
  6
CONTINUOUS
 62
     7
100
AcDbLine
 10
589.9438633928501
 20
227.1016012158
 30
0.0
 11
589.9438633928501
 21
226.4616012158
 31
0.0
  0
LINE
  5
2F4
330
F39
100
AcDbEntity
  8
0
  6
CONTINUOUS
 62
     7
100
AcDbLine
 10
589.8088633928501
 20
226.3266012158
 30
0.0
 11
589.9438633928501
 21
226.4616012158
 31
0.0
  0
LINE
  5
2F5
330
F39
100
AcDbEntity
  8
0
  6
CONTINUOUS
 62
     7
100
AcDbLine
 10
589.16886339285
 20
226.3266012158
 30
0.0
 11
589.8088633928501
 21
226.3266012158
 31
0.0
  0
LINE
  5
2F6
330
F39
100
AcDbEntity
  8
0
  6
CONTINUOUS
 62
     7
100
AcDbLine
 10
589.16886339285
 20
225.8766012158
 30
0.0
 11
589.16886339285
 21
226.3266012158
 31
0.0
  0
LINE
  5
2F7
330
F39
100
AcDbEntity
  8
0
  6
CONTINUOUS
 62
     7
100
AcDbLine
 10
589.16886339285
 20
225.8766012158
 30
0.0
 11
589.8088633928501
 21
225.8766012158
 31
0.0
  0
LINE
  5
2F8
330
F39
100
AcDbEntity
  8
0
  6
CONTINUOUS
 62
     7
100
AcDbLine
 10
589.9438633928501
 20
225.7416012158
 30
0.0
 11
589.8088633928501
 21
225.8766012158
 31
0.0
  0
LINE
  5
2F9
330
F39
100
AcDbEntity
  8
0
  6
CONTINUOUS
 62
     7
100
AcDbLine
 10
589.9438633928501
 20
225.7416012158
 30
0.0
 11
589.9438633928501
 21
225.1016012158
 31
0.0
  0
LINE
  5
2FA
330
F39
100
AcDbEntity
  8
0
  6
CONTINUOUS
 62
     7
100
AcDbLine
 10
589.9438633928501
 20
225.8766012158
 30
0.0
 11
589.87636339285
 21
225.8091012158
 31
0.0
  0
LINE
  5
2FB
330
F39
100
AcDbEntity
  8
0
  6
CONTINUOUS
 62
     7
100
AcDbLine
 10
589.9438633928501
 20
226.3266012158
 30
0.0
 11
589.87636339285
 21
226.3941012158
 31
0.0
  0
LINE
  5
2FC
330
F39
100
AcDbEntity
  8
0
  6
CONTINUOUS
 62
     7
100
AcDbLine
 10
589.9438633928501
 20
226.3266012158
 30
0.0
 11
589.9438633928501
 21
225.8766012158
 31
0.0
  0
LINE
  5
2FD
330
F39
100
AcDbEntity
  8
0
  6
CONTINUOUS
 62
     7
100
AcDbLine
 10
590.39386339285
 20
225.8766012158
 30
0.0
 11
589.9438633928501
 21
225.8766012158
 31
0.0
  0
LINE
  5
2FE
330
F39
100
AcDbEntity
  8
0
  6
CONTINUOUS
 62
     7
100
AcDbLine
 10
590.39386339285
 20
225.8766012158
 30
0.0
 11
590.46136339285
 21
225.8091012158
 31
0.0
  0
LINE
  5
2FF
330
F39
100
AcDbEntity
  8
0
  6
CONTINUOUS
 62
     7
100
AcDbLine
 10
590.39386339285
 20
226.3266012158
 30
0.0
 11
590.46136339285
 21
226.3941012158
 31
0.0
  0
LINE
  5
300
330
F39
100
AcDbEntity
  8
0
  6
CONTINUOUS
 62
     7
100
AcDbLine
 10
590.39386339285
 20
226.3266012158
 30
0.0
 11
589.9438633928501
 21
226.3266012158
 31
0.0
  0
LINE
  5
301
330
F39
100
AcDbEntity
  8
0
  6
CONTINUOUS
 62
     7
100
AcDbLine
 10
590.39386339285
 20
226.3266012158
 30
0.0
 11
590.39386339285
 21
225.8766012158
 31
0.0
  0
LINE
  5
302
330
F39
100
AcDbEntity
  8
0
  6
CONTINUOUS
 62
     7
100
AcDbLine
 10
590.0276200229
 20
226.2428445857499
 30
0.0
 11
589.9438633928501
 21
226.3266012158
 31
0.0
  0
LINE
  5
303
330
F39
100
AcDbEntity
  8
0
  6
CONTINUOUS
 62
     7
100
AcDbLine
 10
590.0276200229
 20
226.2428445857499
 30
0.0
 11
590.0276200229
 21
226.3266012158
 31
0.0
  0
LINE
  5
304
330
F39
100
AcDbEntity
  8
0
  6
CONTINUOUS
 62
     7
100
AcDbLine
 10
589.9438633928501
 20
225.96035784585
 30
0.0
 11
590.0276200229
 21
225.96035784585
 31
0.0
  0
LINE
  5
305
330
F39
100
AcDbEntity
  8
0
  6
CONTINUOUS
 62
     7
100
AcDbLine
 10
589.9438633928501
 20
225.8766012158
 30
0.0
 11
590.0276200229
 21
225.96035784585
 31
0.0
  0
LINE
  5
306
330
F39
100
AcDbEntity
  8
0
  6
CONTINUOUS
 62
     7
100
AcDbLine
 10
590.0276200229
 20
225.8766012158
 30
0.0
 11
590.0276200229
 21
225.96035784585
 31
0.0
  0
LINE
  5
307
330
F39
100
AcDbEntity
  8
0
  6
CONTINUOUS
 62
     7
100
AcDbLine
 10
589.9438633928501
 20
226.2428445857499
 30
0.0
 11
590.0276200229
 21
226.2428445857499
 31
0.0
  0
LINE
  5
308
330
F39
100
AcDbEntity
  8
0
  6
CONTINUOUS
 62
     7
100
AcDbLine
 10
590.3101067627999
 20
226.2428445857499
 30
0.0
 11
590.39386339285
 21
226.2428445857499
 31
0.0
  0
LINE
  5
309
330
F39
100
AcDbEntity
  8
0
  6
CONTINUOUS
 62
     7
100
AcDbLine
 10
590.39386339285
 20
226.3266012158
 30
0.0
 11
590.3101067627999
 21
226.2428445857499
 31
0.0
  0
LINE
  5
30A
330
F39
100
AcDbEntity
  8
0
  6
CONTINUOUS
 62
     7
100
AcDbLine
 10
590.3101067627999
 20
225.96035784585
 30
0.0
 11
590.39386339285
 21
225.8766012158
 31
0.0
  0
LINE
  5
30B
330
F39
100
AcDbEntity
  8
0
  6
CONTINUOUS
 62
     7
100
AcDbLine
 10
590.3101067627999
 20
225.8766012158
 30
0.0
 11
590.3101067627999
 21
225.96035784585
 31
0.0
  0
LINE
  5
30C
330
F39
100
AcDbEntity
  8
0
  6
CONTINUOUS
 62
     7
100
AcDbLine
 10
590.3101067627999
 20
225.96035784585
 30
0.0
 11
590.39386339285
 21
225.96035784585
 31
0.0
  0
LINE
  5
30D
330
F39
100
AcDbEntity
  8
0
  6
CONTINUOUS
 62
     7
100
AcDbLine
 10
590.3101067627999
 20
226.2428445857499
 30
0.0
 11
590.3101067627999
 21
226.3266012158
 31
0.0
  0
LINE
  5
30E
330
F39
100
AcDbEntity
  8
0
  6
CONTINUOUS
 62
     7
100
AcDbLine
 10
590.16886339285
 20
226.1016012158
 30
0.0
 11
590.3101067627999
 21
225.96035784585
 31
0.0
  0
LINE
  5
30F
330
F39
100
AcDbEntity
  8
0
  6
CONTINUOUS
 62
     7
100
AcDbLine
 10
590.0276200229
 20
225.96035784585
 30
0.0
 11
590.16886339285
 21
226.1016012158
 31
0.0
  0
LINE
  5
310
330
F39
100
AcDbEntity
  8
0
  6
CONTINUOUS
 62
     7
100
AcDbLine
 10
590.16886339285
 20
226.1016012158
 30
0.0
 11
590.0276200229
 21
226.2428445857499
 31
0.0
  0
LINE
  5
311
330
F39
100
AcDbEntity
  8
0
  6
CONTINUOUS
 62
     7
100
AcDbLine
 10
590.3101067627999
 20
226.2428445857499
 30
0.0
 11
590.16886339285
 21
226.1016012158
 31
0.0
  0
LINE
  5
312
330
F39
100
AcDbEntity
  8
0
  6
CONTINUOUS
 62
     7
100
AcDbLine
 10
589.9438633928501
 20
-165.4983987842
 30
0.0
 11
590.39386339285
 21
-165.4983987842
 31
0.0
  0
LINE
  5
313
330
F39
100
AcDbEntity
  8
0
  6
CONTINUOUS
 62
     7
100
AcDbLine
 10
590.39386339285
 20
-164.8583987842
 30
0.0
 11
590.39386339285
 21
-165.4983987842
 31
0.0
  0
LINE
  5
314
330
F39
100
AcDbEntity
  8
0
  6
CONTINUOUS
 62
     7
100
AcDbLine
 10
590.52886339285
 20
-164.7233987842
 30
0.0
 11
590.39386339285
 21
-164.8583987842
 31
0.0
  0
LINE
  5
315
330
F39
100
AcDbEntity
  8
0
  6
CONTINUOUS
 62
     7
100
AcDbLine
 10
590.52886339285
 20
-164.7233987842
 30
0.0
 11
591.16886339285
 21
-164.7233987842
 31
0.0
  0
LINE
  5
316
330
F39
100
AcDbEntity
  8
0
  6
CONTINUOUS
 62
     7
100
AcDbLine
 10
591.16886339285
 20
-164.7233987842
 30
0.0
 11
591.16886339285
 21
-164.2733987842
 31
0.0
  0
LINE
  5
317
330
F39
100
AcDbEntity
  8
0
  6
CONTINUOUS
 62
     7
100
AcDbLine
 10
590.52886339285
 20
-164.2733987842
 30
0.0
 11
591.16886339285
 21
-164.2733987842
 31
0.0
  0
LINE
  5
318
330
F39
100
AcDbEntity
  8
0
  6
CONTINUOUS
 62
     7
100
AcDbLine
 10
590.39386339285
 20
-164.1383987842
 30
0.0
 11
590.52886339285
 21
-164.2733987842
 31
0.0
  0
LINE
  5
319
330
F39
100
AcDbEntity
  8
0
  6
CONTINUOUS
 62
     7
100
AcDbLine
 10
590.39386339285
 20
-163.4983987842
 30
0.0
 11
590.39386339285
 21
-164.1383987842
 31
0.0
  0
LINE
  5
31A
330
F39
100
AcDbEntity
  8
0
  6
CONTINUOUS
 62
     7
100
AcDbLine
 10
589.9438633928501
 20
-163.4983987842
 30
0.0
 11
590.39386339285
 21
-163.4983987842
 31
0.0
  0
LINE
  5
31B
330
F39
100
AcDbEntity
  8
0
  6
CONTINUOUS
 62
     7
100
AcDbLine
 10
589.9438633928501
 20
-163.4983987842
 30
0.0
 11
589.9438633928501
 21
-164.1383987842
 31
0.0
  0
LINE
  5
31C
330
F39
100
AcDbEntity
  8
0
  6
CONTINUOUS
 62
     7
100
AcDbLine
 10
589.8088633928501
 20
-164.2733987842
 30
0.0
 11
589.9438633928501
 21
-164.1383987842
 31
0.0
  0
LINE
  5
31D
330
F39
100
AcDbEntity
  8
0
  6
CONTINUOUS
 62
     7
100
AcDbLine
 10
589.16886339285
 20
-164.2733987842
 30
0.0
 11
589.8088633928501
 21
-164.2733987842
 31
0.0
  0
LINE
  5
31E
330
F39
100
AcDbEntity
  8
0
  6
CONTINUOUS
 62
     7
100
AcDbLine
 10
589.16886339285
 20
-164.7233987842
 30
0.0
 11
589.16886339285
 21
-164.2733987842
 31
0.0
  0
LINE
  5
31F
330
F39
100
AcDbEntity
  8
0
  6
CONTINUOUS
 62
     7
100
AcDbLine
 10
589.16886339285
 20
-164.7233987842
 30
0.0
 11
589.8088633928501
 21
-164.7233987842
 31
0.0
  0
LINE
  5
320
330
F39
100
AcDbEntity
  8
0
  6
CONTINUOUS
 62
     7
100
AcDbLine
 10
589.9438633928501
 20
-164.8583987842
 30
0.0
 11
589.8088633928501
 21
-164.7233987842
 31
0.0
  0
LINE
  5
321
330
F39
100
AcDbEntity
  8
0
  6
CONTINUOUS
 62
     7
100
AcDbLine
 10
589.9438633928501
 20
-164.8583987842
 30
0.0
 11
589.9438633928501
 21
-165.4983987842
 31
0.0
  0
CIRCLE
  5
322
330
F39
100
AcDbEntity
  8
0
  6
CONTINUOUS
 62
     7
100
AcDbCircle
 10
590.16886339285
 20
-164.4983987842
 30
0.0
 40
1.874999999999943
  0
LINE
  5
323
330
F39
100
AcDbEntity
  8
0
  6
CONTINUOUS
 62
     7
100
AcDbLine
 10
589.9438633928501
 20
-164.7233987842
 30
0.0
 11
589.87636339285
 21
-164.7908987842
 31
0.0
  0
LINE
  5
324
330
F39
100
AcDbEntity
  8
0
  6
CONTINUOUS
 62
     7
100
AcDbLine
 10
589.9438633928501
 20
-164.2733987842
 30
0.0
 11
589.87636339285
 21
-164.2058987842
 31
0.0
  0
LINE
  5
325
330
F39
100
AcDbEntity
  8
0
  6
CONTINUOUS
 62
     7
100
AcDbLine
 10
589.9438633928501
 20
-164.2733987842
 30
0.0
 11
589.9438633928501
 21
-164.7233987842
 31
0.0
  0
LINE
  5
326
330
F39
100
AcDbEntity
  8
0
  6
CONTINUOUS
 62
     7
100
AcDbLine
 10
590.39386339285
 20
-164.2733987842
 30
0.0
 11
590.46136339285
 21
-164.2058987842
 31
0.0
  0
LINE
  5
327
330
F39
100
AcDbEntity
  8
0
  6
CONTINUOUS
 62
     7
100
AcDbLine
 10
590.39386339285
 20
-164.2733987842
 30
0.0
 11
589.9438633928501
 21
-164.2733987842
 31
0.0
  0
LINE
  5
328
330
F39
100
AcDbEntity
  8
0
  6
CONTINUOUS
 62
     7
100
AcDbLine
 10
590.39386339285
 20
-164.7233987842
 30
0.0
 11
589.9438633928501
 21
-164.7233987842
 31
0.0
  0
LINE
  5
329
330
F39
100
AcDbEntity
  8
0
  6
CONTINUOUS
 62
     7
100
AcDbLine
 10
590.39386339285
 20
-164.7233987842
 30
0.0
 11
590.46136339285
 21
-164.7908987842
 31
0.0
  0
LINE
  5
32A
330
F39
100
AcDbEntity
  8
0
  6
CONTINUOUS
 62
     7
100
AcDbLine
 10
590.39386339285
 20
-164.2733987842
 30
0.0
 11
590.39386339285
 21
-164.7233987842
 31
0.0
  0
LINE
  5
32B
330
F39
100
AcDbEntity
  8
0
  6
CONTINUOUS
 62
     7
100
AcDbLine
 10
589.9438633928501
 20
-164.63964215415
 30
0.0
 11
590.0276200229
 21
-164.63964215415
 31
0.0
  0
LINE
  5
32C
330
F39
100
AcDbEntity
  8
0
  6
CONTINUOUS
 62
     7
100
AcDbLine
 10
589.9438633928501
 20
-164.7233987842
 30
0.0
 11
590.0276200229
 21
-164.63964215415
 31
0.0
  0
LINE
  5
32D
330
F39
100
AcDbEntity
  8
0
  6
CONTINUOUS
 62
     7
100
AcDbLine
 10
590.0276200229
 20
-164.7233987842
 30
0.0
 11
590.0276200229
 21
-164.63964215415
 31
0.0
  0
LINE
  5
32E
330
F39
100
AcDbEntity
  8
0
  6
CONTINUOUS
 62
     7
100
AcDbLine
 10
590.0276200229
 20
-164.35715541425
 30
0.0
 11
589.9438633928501
 21
-164.2733987842
 31
0.0
  0
LINE
  5
32F
330
F39
100
AcDbEntity
  8
0
  6
CONTINUOUS
 62
     7
100
AcDbLine
 10
590.0276200229
 20
-164.35715541425
 30
0.0
 11
590.0276200229
 21
-164.2733987842
 31
0.0
  0
LINE
  5
330
330
F39
100
AcDbEntity
  8
0
  6
CONTINUOUS
 62
     7
100
AcDbLine
 10
589.9438633928501
 20
-164.35715541425
 30
0.0
 11
590.0276200229
 21
-164.35715541425
 31
0.0
  0
LINE
  5
331
330
F39
100
AcDbEntity
  8
0
  6
CONTINUOUS
 62
     7
100
AcDbLine
 10
590.3101067627999
 20
-164.63964215415
 30
0.0
 11
590.39386339285
 21
-164.7233987842
 31
0.0
  0
LINE
  5
332
330
F39
100
AcDbEntity
  8
0
  6
CONTINUOUS
 62
     7
100
AcDbLine
 10
590.3101067627999
 20
-164.7233987842
 30
0.0
 11
590.3101067627999
 21
-164.63964215415
 31
0.0
  0
LINE
  5
333
330
F39
100
AcDbEntity
  8
0
  6
CONTINUOUS
 62
     7
100
AcDbLine
 10
590.3101067627999
 20
-164.35715541425
 30
0.0
 11
590.39386339285
 21
-164.35715541425
 31
0.0
  0
LINE
  5
334
330
F39
100
AcDbEntity
  8
0
  6
CONTINUOUS
 62
     7
100
AcDbLine
 10
590.39386339285
 20
-164.2733987842
 30
0.0
 11
590.3101067627999
 21
-164.35715541425
 31
0.0
  0
LINE
  5
335
330
F39
100
AcDbEntity
  8
0
  6
CONTINUOUS
 62
     7
100
AcDbLine
 10
590.3101067627999
 20
-164.63964215415
 30
0.0
 11
590.39386339285
 21
-164.63964215415
 31
0.0
  0
LINE
  5
336
330
F39
100
AcDbEntity
  8
0
  6
CONTINUOUS
 62
     7
100
AcDbLine
 10
590.3101067627999
 20
-164.35715541425
 30
0.0
 11
590.3101067627999
 21
-164.2733987842
 31
0.0
  0
LINE
  5
337
330
F39
100
AcDbEntity
  8
0
  6
CONTINUOUS
 62
     7
100
AcDbLine
 10
590.16886339285
 20
-164.4983987842
 30
0.0
 11
590.0276200229
 21
-164.35715541425
 31
0.0
  0
LINE
  5
338
330
F39
100
AcDbEntity
  8
0
  6
CONTINUOUS
 62
     7
100
AcDbLine
 10
590.3101067627999
 20
-164.35715541425
 30
0.0
 11
590.16886339285
 21
-164.4983987842
 31
0.0
  0
LINE
  5
339
330
F39
100
AcDbEntity
  8
0
  6
CONTINUOUS
 62
     7
100
AcDbLine
 10
590.16886339285
 20
-164.4983987842
 30
0.0
 11
590.3101067627999
 21
-164.63964215415
 31
0.0
  0
LINE
  5
33A
330
F39
100
AcDbEntity
  8
0
  6
CONTINUOUS
 62
     7
100
AcDbLine
 10
590.0276200229
 20
-164.63964215415
 30
0.0
 11
590.16886339285
 21
-164.4983987842
 31
0.0
  0
LINE
  5
33B
330
F39
100
AcDbEntity
  8
0
  6
CONTINUOUS
 62
     7
100
AcDbLine
 10
589.37350680025
 20
-525.1483987842
 30
0.0
 11
589.37350680025
 21
-528.6483987842
 31
0.0
  0
LINE
  5
33C
330
F39
100
AcDbEntity
  8
0
  6
CONTINUOUS
 62
     7
100
AcDbLine
 10
589.37350680025
 20
-528.6483987842
 30
0.0
 11
588.94879546675
 21
-529.0731101177
 31
0.0
  0
LINE
  5
33D
330
F39
100
AcDbEntity
  8
0
  6
CONTINUOUS
 62
     7
100
AcDbLine
 10
588.9303152072
 20
-529.0887932406
 30
0.0
 11
588.94879546675
 21
-529.0731101177
 31
0.0
  0
LWPOLYLINE
  5
33E
330
F39
100
AcDbEntity
  8
0
  6
CONTINUOUS
 62
     7
100
AcDbPolyline
 90
        3
 70
   128
 43
0.0
 10
588.87575906395
 20
-529.04105661525
 10
588.8938576104499
 20
-529.0569206842
 10
588.9303152072
 20
-529.0887932406
  0
LINE
  5
33F
330
F39
100
AcDbEntity
  8
0
  6
CONTINUOUS
 62
     7
100
AcDbLine
 10
588.87575906395
 20
-529.04105661525
 30
0.0
 11
588.87575906395
 21
-524.75574095315
 31
0.0
  0
LWPOLYLINE
  5
340
330
F39
100
AcDbEntity
  8
0
  6
CONTINUOUS
 62
     7
100
AcDbPolyline
 90
        3
 70
   128
 43
0.0
 10
588.9303152072
 20
-524.70800432775
 10
588.8938576104499
 20
-524.7398768842
 10
588.87575906395
 20
-524.75574095315
  0
LINE
  5
341
330
F39
100
AcDbEntity
  8
0
  6
CONTINUOUS
 62
     7
100
AcDbLine
 10
588.94879546675
 20
-524.7236874507
 30
0.0
 11
588.9303152072
 21
-524.70800432775
 31
0.0
  0
LINE
  5
342
330
F39
100
AcDbEntity
  8
0
  6
CONTINUOUS
 62
     7
100
AcDbLine
 10
588.94879546675
 20
-524.7236874507
 30
0.0
 11
589.37350680025
 21
-525.1483987842
 31
0.0
  0
LWPOLYLINE
  5
343
330
F39
100
AcDbEntity
  8
0
  6
CONTINUOUS
 62
     7
100
AcDbPolyline
 90
        3
 70
   128
 43
0.0
 10
591.38893131895
 20
-524.7236874507
 10
591.35731007905
 20
-524.66708582175
 10
591.34676966575
 20
-524.6483987842
  0
LINE
  5
344
330
F39
100
AcDbEntity
  8
0
  6
CONTINUOUS
 62
     7
100
AcDbLine
 10
591.38893131895
 20
-524.7236874507
 30
0.0
 11
590.9642199855
 21
-525.1483987842
 31
0.0
  0
LINE
  5
345
330
F39
100
AcDbEntity
  8
0
  6
CONTINUOUS
 62
     7
100
AcDbLine
 10
590.9642199855
 20
-525.1483987842
 30
0.0
 11
589.37350680025
 21
-525.1483987842
 31
0.0
  0
LWPOLYLINE
  5
346
330
F39
100
AcDbEntity
  8
0
  6
CONTINUOUS
 62
     7
100
AcDbPolyline
 90
        3
 70
   128
 43
0.0
 10
588.9909571200001
 20
-524.6483987842
 10
588.98041670665
 20
-524.66708582175
 10
588.94879546675
 20
-524.7236874507
  0
LINE
  5
347
330
F39
100
AcDbEntity
  8
0
  6
CONTINUOUS
 62
     7
100
AcDbLine
 10
588.9909571200001
 20
-524.6483987842
 30
0.0
 11
591.34676966575
 21
-524.6483987842
 31
0.0
  0
LWPOLYLINE
  5
348
330
F39
100
AcDbEntity
  8
0
  6
CONTINUOUS
 62
     7
100
AcDbPolyline
 90
        3
 70
   128
 43
0.0
 10
588.94879546675
 20
-529.0731101177
 10
588.98041670665
 20
-529.1297117466
 10
588.9909571200001
 20
-529.1483987842
  0
LINE
  5
349
330
F39
100
AcDbEntity
  8
0
  6
CONTINUOUS
 62
     7
100
AcDbLine
 10
589.37350680025
 20
-528.6483987842
 30
0.0
 11
590.9642199855
 21
-528.6483987842
 31
0.0
  0
LINE
  5
34A
330
F39
100
AcDbEntity
  8
0
  6
CONTINUOUS
 62
     7
100
AcDbLine
 10
590.9642199855
 20
-528.6483987842
 30
0.0
 11
591.38893131895
 21
-529.0731101177
 31
0.0
  0
LWPOLYLINE
  5
34B
330
F39
100
AcDbEntity
  8
0
  6
CONTINUOUS
 62
     7
100
AcDbPolyline
 90
        3
 70
   128
 43
0.0
 10
591.34676966575
 20
-529.1483987842
 10
591.35731007905
 20
-529.1297117466
 10
591.38893131895
 20
-529.0731101177
  0
LINE
  5
34C
330
F39
100
AcDbEntity
  8
0
  6
CONTINUOUS
 62
     7
100
AcDbLine
 10
591.34676966575
 20
-529.1483987842
 30
0.0
 11
588.9909571200001
 21
-529.1483987842
 31
0.0
  0
LINE
  5
34D
330
F39
100
AcDbEntity
  8
0
  6
CONTINUOUS
 62
     7
100
AcDbLine
 10
591.4619677217499
 20
-524.75574095315
 30
0.0
 11
591.4619677217499
 21
-529.04105661525
 31
0.0
  0
LWPOLYLINE
  5
34E
330
F39
100
AcDbEntity
  8
0
  6
CONTINUOUS
 62
     7
100
AcDbPolyline
 90
        3
 70
   128
 43
0.0
 10
591.4074115784999
 20
-529.0887932406
 10
591.44386917525
 20
-529.0569206842
 10
591.4619677217499
 20
-529.04105661525
  0
LINE
  5
34F
330
F39
100
AcDbEntity
  8
0
  6
CONTINUOUS
 62
     7
100
AcDbLine
 10
591.38893131895
 20
-529.0731101177
 30
0.0
 11
591.4074115784999
 21
-529.0887932406
 31
0.0
  0
LINE
  5
350
330
F39
100
AcDbEntity
  8
0
  6
CONTINUOUS
 62
     7
100
AcDbLine
 10
590.9642199855
 20
-528.6483987842
 30
0.0
 11
590.9642199855
 21
-525.1483987842
 31
0.0
  0
LINE
  5
351
330
F39
100
AcDbEntity
  8
0
  6
CONTINUOUS
 62
     7
100
AcDbLine
 10
591.4074115784999
 20
-524.70800432775
 30
0.0
 11
591.38893131895
 21
-524.7236874507
 31
0.0
  0
LWPOLYLINE
  5
352
330
F39
100
AcDbEntity
  8
0
  6
CONTINUOUS
 62
     7
100
AcDbPolyline
 90
        3
 70
   128
 43
0.0
 10
591.4619677217499
 20
-524.75574095315
 10
591.44386917525
 20
-524.7398768842
 10
591.4074115784999
 20
-524.70800432775
  0
LINE
  5
353
330
F39
100
AcDbEntity
  8
0
  6
CONTINUOUS
 62
     7
100
AcDbLine
 10
588.892418589
 20
-524.6858738401
 30
0.0
 11
588.8908122703
 21
-524.6867251119
 31
0.0
  0
ARC
  5
354
330
F39
100
AcDbEntity
  8
0
  6
CONTINUOUS
 62
     7
100
AcDbCircle
 10
588.9909571200001
 20
-524.7983987842
 30
0.0
 40
0.1500000000000284
100
AcDbArc
 50
90.0
 51
131.8845889416423
  0
LWPOLYLINE
  5
355
330
F39
100
AcDbEntity
  8
0
  6
CONTINUOUS
 62
     7
100
AcDbPolyline
 90
        3
 70
   128
 43
0.0
 10
588.930315216
 20
-524.70800432005
 10
588.9011449623999
 20
-524.6894189842001
 10
588.892418589
 20
-524.6858738401
  0
LINE
  5
356
330
F39
100
AcDbEntity
  8
0
  6
CONTINUOUS
 62
     7
100
AcDbLine
 10
591.4453081967
 20
-529.1109237283
 30
0.0
 11
591.4469145154001
 21
-529.1100724565
 31
0.0
  0
ARC
  5
357
330
F39
100
AcDbEntity
  8
0
  6
CONTINUOUS
 62
     7
100
AcDbCircle
 10
591.34676966575
 20
-528.9983987842
 30
0.0
 40
0.1500000000000453
100
AcDbArc
 50
270.0
 51
311.8845889417325
  0
LWPOLYLINE
  5
358
330
F39
100
AcDbEntity
  8
0
  6
CONTINUOUS
 62
     7
100
AcDbPolyline
 90
        3
 70
   128
 43
0.0
 10
591.4074115697
 20
-529.0887932483
 10
591.43658182335
 20
-529.1073785842
 10
591.4453081967
 20
-529.1109237283
  0
LINE
  5
359
330
F39
100
AcDbEntity
  8
0
  6
CONTINUOUS
 62
     7
100
AcDbLine
 10
591.4469145154001
 20
-524.6867251119
 30
0.0
 11
591.4453081967
 21
-524.6858738401
 31
0.0
  0
LWPOLYLINE
  5
35A
330
F39
100
AcDbEntity
  8
0
  6
CONTINUOUS
 62
     7
100
AcDbPolyline
 90
        3
 70
   128
 43
0.0
 10
591.4074096259001
 20
-524.7080144713
 10
591.4365605805999
 20
-524.68946347835
 10
591.4453035402
 20
-524.685879312
  0
ARC
  5
35B
330
F39
100
AcDbEntity
  8
0
  6
CONTINUOUS
 62
     7
100
AcDbCircle
 10
591.34676966575
 20
-524.7983987842
 30
0.0
 40
0.1500000000000664
100
AcDbArc
 50
48.11541105829644
 51
90.0
  0
LINE
  5
35C
330
F39
100
AcDbEntity
  8
0
  6
CONTINUOUS
 62
     7
100
AcDbLine
 10
588.8908122703
 20
-529.1100724565
 30
0.0
 11
588.892418589
 21
-529.1109237283
 31
0.0
  0
LWPOLYLINE
  5
35D
330
F39
100
AcDbEntity
  8
0
  6
CONTINUOUS
 62
     7
100
AcDbPolyline
 90
        3
 70
   128
 43
0.0
 10
588.9303171598
 20
-529.0887830971001
 10
588.9011662051
 20
-529.10733409005
 10
588.8924232454999
 20
-529.1109182564
  0
ARC
  5
35E
330
F39
100
AcDbEntity
  8
0
  6
CONTINUOUS
 62
     7
100
AcDbCircle
 10
588.9909571200001
 20
-528.9983987842
 30
0.0
 40
0.1500000000000073
100
AcDbArc
 50
228.1154110583901
 51
270.0
  0
ARC
  5
35F
330
F39
100
AcDbEntity
  8
0
  6
CONTINUOUS
 62
     7
100
AcDbCircle
 10
589.0232925122
 20
-529.0427976268
 30
0.0
 40
0.1475437205872772
100
AcDbArc
 50
179.3238958092077
 51
207.4991214096916
  0
ARC
  5
360
330
F39
100
AcDbEntity
  8
0
  6
CONTINUOUS
 62
     7
100
AcDbCircle
 10
589.0232925122
 20
-524.7539999416
 30
0.0
 40
0.1475437205861326
100
AcDbArc
 50
152.5008785903207
 51
180.6761041909741
  0
ARC
  5
361
330
F39
100
AcDbEntity
  8
0
  6
CONTINUOUS
 62
     7
100
AcDbCircle
 10
591.3144342735
 20
-524.7539999416
 30
0.0
 40
0.147543720587733
100
AcDbArc
 50
359.3238958092098
 51
27.49912140968844
  0
ARC
  5
362
330
F39
100
AcDbEntity
  8
0
  6
CONTINUOUS
 62
     7
100
AcDbCircle
 10
591.3144342735
 20
-529.0427976268
 30
0.0
 40
0.1475437205858592
100
AcDbArc
 50
332.5008785901217
 51
0.67610419101927
  0
LWPOLYLINE
  5
363
330
F39
100
AcDbEntity
  8
0
  6
CONTINUOUS
 62
     7
100
AcDbPolyline
 90
        3
 70
   128
 43
0.0
 10
588.87382679855
 20
-529.09210304135
 10
588.88297482415
 20
-529.10251325865
 10
588.8908122703
 20
-529.1100724565
  0
LINE
  5
364
330
F39
100
AcDbEntity
  8
0
  6
CONTINUOUS
 62
     7
100
AcDbLine
 10
588.87382679855
 20
-529.09210304135
 30
0.0
 11
587.9521835242
 21
-527.9400489483501
 31
0.0
  0
ARC
  5
365
330
F39
100
AcDbEntity
  8
0
  6
CONTINUOUS
 62
     7
100
AcDbCircle
 10
588.0672282601499
 20
-527.8481404147001
 30
0.0
 40
0.1472496853463973
100
AcDbArc
 50
179.3012553783016
 51
218.6211429406032
  0
LINE
  5
366
330
F39
100
AcDbEntity
  8
0
  6
CONTINUOUS
 62
     7
100
AcDbLine
 10
587.9199895247
 20
-527.8463446912
 30
0.0
 11
588.87575906395
 21
-529.04105661525
 31
0.0
  0
LWPOLYLINE
  5
367
330
F39
100
AcDbEntity
  8
0
  6
CONTINUOUS
 62
     7
100
AcDbPolyline
 90
        3
 70
   128
 43
0.0
 10
588.8908122703
 20
-524.6867251119
 10
588.8809331442001
 20
-524.69644426125
 10
588.87382679855
 20
-524.70469452705
  0
LINE
  5
368
330
F39
100
AcDbEntity
  8
0
  6
CONTINUOUS
 62
     7
100
AcDbLine
 10
588.87575906395
 20
-524.75574095315
 30
0.0
 11
587.9199895247
 21
-525.95045287715
 31
0.0
  0
ARC
  5
369
330
F39
100
AcDbEntity
  8
0
  6
CONTINUOUS
 62
     7
100
AcDbCircle
 10
588.0672282601499
 20
-525.9486571537
 30
0.0
 40
0.1472496853462824
100
AcDbArc
 50
141.3788570593968
 51
180.6987446216995
  0
LINE
  5
36A
330
F39
100
AcDbEntity
  8
0
  6
CONTINUOUS
 62
     7
100
AcDbLine
 10
587.9521835242
 20
-525.85674862005
 30
0.0
 11
588.87382679855
 21
-524.70469452705
 31
0.0
  0
LINE
  5
36B
330
F39
100
AcDbEntity
  8
0
  6
CONTINUOUS
 62
     7
100
AcDbLine
 10
587.9199895247
 20
-525.95045287715
 30
0.0
 11
587.9199895247
 21
-527.8463446912
 31
0.0
  0
LINE
  5
36C
330
F39
100
AcDbEntity
  8
0
  6
CONTINUOUS
 62
     7
100
AcDbLine
 10
592.417737261
 20
-525.95045287715
 30
0.0
 11
591.4619677217499
 21
-524.75574095315
 31
0.0
  0
LINE
  5
36D
330
F39
100
AcDbEntity
  8
0
  6
CONTINUOUS
 62
     7
100
AcDbLine
 10
592.417737261
 20
-527.8463446912
 30
0.0
 11
592.417737261
 21
-525.95045287715
 31
0.0
  0
LINE
  5
36E
330
F39
100
AcDbEntity
  8
0
  6
CONTINUOUS
 62
     7
100
AcDbLine
 10
591.4619677217499
 20
-529.04105661525
 30
0.0
 11
592.417737261
 21
-527.8463446912
 31
0.0
  0
LWPOLYLINE
  5
36F
330
F39
100
AcDbEntity
  8
0
  6
CONTINUOUS
 62
     7
100
AcDbPolyline
 90
        3
 70
   128
 43
0.0
 10
591.4469145154001
 20
-529.1100724565
 10
591.45679364155
 20
-529.10035330715
 10
591.46389998715
 20
-529.09210304135
  0
ARC
  5
370
330
F39
100
AcDbEntity
  8
0
  6
CONTINUOUS
 62
     7
100
AcDbCircle
 10
592.27049852555
 20
-527.8481404147001
 30
0.0
 40
0.1472496853453774
100
AcDbArc
 50
321.3788570593142
 51
0.698744621924404
  0
LINE
  5
371
330
F39
100
AcDbEntity
  8
0
  6
CONTINUOUS
 62
     7
100
AcDbLine
 10
592.38554326155
 20
-527.9400489483501
 30
0.0
 11
591.46389998715
 21
-529.09210304135
 31
0.0
  0
LWPOLYLINE
  5
372
330
F39
100
AcDbEntity
  8
0
  6
CONTINUOUS
 62
     7
100
AcDbPolyline
 90
        3
 70
   128
 43
0.0
 10
591.46389998715
 20
-524.70469452705
 10
591.4547519615501
 20
-524.69428430975
 10
591.4469145154001
 20
-524.6867251119
  0
LINE
  5
373
330
F39
100
AcDbEntity
  8
0
  6
CONTINUOUS
 62
     7
100
AcDbLine
 10
591.46389998715
 20
-524.70469452705
 30
0.0
 11
592.38554326155
 21
-525.85674862005
 31
0.0
  0
ARC
  5
374
330
F39
100
AcDbEntity
  8
0
  6
CONTINUOUS
 62
     7
100
AcDbCircle
 10
592.27049852555
 20
-525.9486571537
 30
0.0
 40
0.1472496853453199
100
AcDbArc
 50
359.301255378075
 51
38.62114294068584
  0
ARC
  5
375
330
F39
100
AcDbEntity
  8
0
  6
CONTINUOUS
 62
     7
100
AcDbCircle
 10
592.26886339285
 20
-525.9510159431
 30
0.0
 40
0.1500000000000341
100
AcDbArc
 50
0.0
 51
38.65980825406297
  0
LINE
  5
376
330
F39
100
AcDbEntity
  8
0
  6
CONTINUOUS
 62
     7
100
AcDbLine
 10
592.417737261
 20
-525.95045287715
 30
0.0
 11
592.41886339285
 21
-525.9510159431
 31
0.0
  0
ARC
  5
377
330
F39
100
AcDbEntity
  8
0
  6
CONTINUOUS
 62
     7
100
AcDbCircle
 10
588.0688633928501
 20
-527.8457816253
 30
0.0
 40
0.1500000000000341
100
AcDbArc
 50
180.0
 51
218.6598082540969
  0
LINE
  5
378
330
F39
100
AcDbEntity
  8
0
  6
CONTINUOUS
 62
     7
100
AcDbLine
 10
587.91886339285
 20
-527.8457816253
 30
0.0
 11
587.9199895247
 21
-527.8463446912
 31
0.0
  0
LINE
  5
379
330
F39
100
AcDbEntity
  8
0
  6
CONTINUOUS
 62
     7
100
AcDbLine
 10
587.91886339285
 20
-525.9510159431
 30
0.0
 11
587.9199895247
 21
-525.95045287715
 31
0.0
  0
ARC
  5
37A
330
F39
100
AcDbEntity
  8
0
  6
CONTINUOUS
 62
     7
100
AcDbCircle
 10
588.0688633928501
 20
-525.9510159431
 30
0.0
 40
0.1500000000000341
100
AcDbArc
 50
141.3401917459371
 51
180.0
  0
LINE
  5
37B
330
F39
100
AcDbEntity
  8
0
  6
CONTINUOUS
 62
     7
100
AcDbLine
 10
592.417737261
 20
-527.8463446912
 30
0.0
 11
592.41886339285
 21
-527.8457816253
 31
0.0
  0
ARC
  5
37C
330
F39
100
AcDbEntity
  8
0
  6
CONTINUOUS
 62
     7
100
AcDbCircle
 10
592.26886339285
 20
-527.8457816253
 30
0.0
 40
0.1500000000000341
100
AcDbArc
 50
321.3401917459031
 51
0.0
  0
LINE
  5
37D
330
F39
100
AcDbEntity
  8
0
  6
CONTINUOUS
 62
     7
100
AcDbLine
 10
587.91886339285
 20
-527.8457816253
 30
0.0
 11
587.91886339285
 21
-525.9510159431
 31
0.0
  0
LINE
  5
37E
330
F39
100
AcDbEntity
  8
0
  6
CONTINUOUS
 62
     7
100
AcDbLine
 10
592.41886339285
 20
-525.9510159431
 30
0.0
 11
592.41886339285
 21
-527.8457816253
 31
0.0
  0
LWPOLYLINE
  5
37F
330
F39
100
AcDbEntity
  8
0
  6
CONTINUOUS
 62
     7
100
AcDbPolyline
 90
        3
 70
   128
 43
0.0
 10
591.38893131895
 20
242.2763125493
 10
591.35731007905
 20
242.33291417825
 10
591.34676966575
 20
242.3516012158
  0
LINE
  5
380
330
F39
100
AcDbEntity
  8
0
  6
CONTINUOUS
 62
     7
100
AcDbLine
 10
591.38893131895
 20
242.2763125493
 30
0.0
 11
590.9642199855
 21
241.8516012158
 31
0.0
  0
LINE
  5
381
330
F39
100
AcDbEntity
  8
0
  6
CONTINUOUS
 62
     7
100
AcDbLine
 10
590.9642199855
 20
241.8516012158
 30
0.0
 11
589.37350680025
 21
241.8516012158
 31
0.0
  0
LINE
  5
382
330
F39
100
AcDbEntity
  8
0
  6
CONTINUOUS
 62
     7
100
AcDbLine
 10
588.94879546675
 20
242.2763125493
 30
0.0
 11
589.37350680025
 21
241.8516012158
 31
0.0
  0
LWPOLYLINE
  5
383
330
F39
100
AcDbEntity
  8
0
  6
CONTINUOUS
 62
     7
100
AcDbPolyline
 90
        3
 70
   128
 43
0.0
 10
588.9909571200001
 20
242.3516012158
 10
588.98041670665
 20
242.33291417825
 10
588.94879546675
 20
242.2763125493
  0
LINE
  5
384
330
F39
100
AcDbEntity
  8
0
  6
CONTINUOUS
 62
     7
100
AcDbLine
 10
588.9909571200001
 20
242.3516012158
 30
0.0
 11
591.34676966575
 21
242.3516012158
 31
0.0
  0
LWPOLYLINE
  5
385
330
F39
100
AcDbEntity
  8
0
  6
CONTINUOUS
 62
     7
100
AcDbPolyline
 90
        3
 70
   128
 43
0.0
 10
588.94879546675
 20
237.9268898823
 10
588.98041670665
 20
237.8702882534
 10
588.9909571200001
 20
237.8516012158
  0
LINE
  5
386
330
F39
100
AcDbEntity
  8
0
  6
CONTINUOUS
 62
     7
100
AcDbLine
 10
589.37350680025
 20
238.3516012158
 30
0.0
 11
588.94879546675
 21
237.9268898823
 31
0.0
  0
LINE
  5
387
330
F39
100
AcDbEntity
  8
0
  6
CONTINUOUS
 62
     7
100
AcDbLine
 10
589.37350680025
 20
238.3516012158
 30
0.0
 11
590.9642199855
 21
238.3516012158
 31
0.0
  0
LINE
  5
388
330
F39
100
AcDbEntity
  8
0
  6
CONTINUOUS
 62
     7
100
AcDbLine
 10
590.9642199855
 20
238.3516012158
 30
0.0
 11
591.38893131895
 21
237.9268898823
 31
0.0
  0
LWPOLYLINE
  5
389
330
F39
100
AcDbEntity
  8
0
  6
CONTINUOUS
 62
     7
100
AcDbPolyline
 90
        3
 70
   128
 43
0.0
 10
591.34676966575
 20
237.8516012158
 10
591.35731007905
 20
237.8702882534
 10
591.38893131895
 20
237.9268898823
  0
LINE
  5
38A
330
F39
100
AcDbEntity
  8
0
  6
CONTINUOUS
 62
     7
100
AcDbLine
 10
591.34676966575
 20
237.8516012158
 30
0.0
 11
588.9909571200001
 21
237.8516012158
 31
0.0
  0
LINE
  5
38B
330
F39
100
AcDbEntity
  8
0
  6
CONTINUOUS
 62
     7
100
AcDbLine
 10
589.37350680025
 20
241.8516012158
 30
0.0
 11
589.37350680025
 21
238.3516012158
 31
0.0
  0
LINE
  5
38C
330
F39
100
AcDbEntity
  8
0
  6
CONTINUOUS
 62
     7
100
AcDbLine
 10
588.9303152072
 20
237.9112067594
 30
0.0
 11
588.94879546675
 21
237.9268898823
 31
0.0
  0
LWPOLYLINE
  5
38D
330
F39
100
AcDbEntity
  8
0
  6
CONTINUOUS
 62
     7
100
AcDbPolyline
 90
        3
 70
   128
 43
0.0
 10
588.87575906395
 20
237.95894338475
 10
588.8938576104499
 20
237.9430793158
 10
588.9303152072
 20
237.9112067594
  0
LINE
  5
38E
330
F39
100
AcDbEntity
  8
0
  6
CONTINUOUS
 62
     7
100
AcDbLine
 10
588.87575906395
 20
237.95894338475
 30
0.0
 11
588.87575906395
 21
242.2442590468499
 31
0.0
  0
LWPOLYLINE
  5
38F
330
F39
100
AcDbEntity
  8
0
  6
CONTINUOUS
 62
     7
100
AcDbPolyline
 90
        3
 70
   128
 43
0.0
 10
588.9303152072
 20
242.29199567225
 10
588.8938576104499
 20
242.2601231158
 10
588.87575906395
 20
242.2442590468499
  0
LINE
  5
390
330
F39
100
AcDbEntity
  8
0
  6
CONTINUOUS
 62
     7
100
AcDbLine
 10
588.94879546675
 20
242.2763125493
 30
0.0
 11
588.9303152072
 21
242.29199567225
 31
0.0
  0
LINE
  5
391
330
F39
100
AcDbEntity
  8
0
  6
CONTINUOUS
 62
     7
100
AcDbLine
 10
591.4619677218
 20
242.2442590468499
 30
0.0
 11
591.4619677218
 21
237.95894338475
 31
0.0
  0
LWPOLYLINE
  5
392
330
F39
100
AcDbEntity
  8
0
  6
CONTINUOUS
 62
     7
100
AcDbPolyline
 90
        3
 70
   128
 43
0.0
 10
591.4074115784999
 20
237.9112067594
 10
591.44386917525
 20
237.9430793158
 10
591.4619677218
 20
237.95894338475
  0
LINE
  5
393
330
F39
100
AcDbEntity
  8
0
  6
CONTINUOUS
 62
     7
100
AcDbLine
 10
591.38893131895
 20
237.9268898823
 30
0.0
 11
591.4074115784999
 21
237.9112067594
 31
0.0
  0
LINE
  5
394
330
F39
100
AcDbEntity
  8
0
  6
CONTINUOUS
 62
     7
100
AcDbLine
 10
590.9642199855
 20
238.3516012158
 30
0.0
 11
590.9642199855
 21
241.8516012158
 31
0.0
  0
LINE
  5
395
330
F39
100
AcDbEntity
  8
0
  6
CONTINUOUS
 62
     7
100
AcDbLine
 10
591.4074115784999
 20
242.29199567225
 30
0.0
 11
591.38893131895
 21
242.2763125493
 31
0.0
  0
LWPOLYLINE
  5
396
330
F39
100
AcDbEntity
  8
0
  6
CONTINUOUS
 62
     7
100
AcDbPolyline
 90
        3
 70
   128
 43
0.0
 10
591.4619677218
 20
242.2442590468499
 10
591.44386917525
 20
242.2601231158
 10
591.4074115784999
 20
242.29199567225
  0
LINE
  5
397
330
F39
100
AcDbEntity
  8
0
  6
CONTINUOUS
 62
     7
100
AcDbLine
 10
588.892418589
 20
242.3141261599
 30
0.0
 11
588.8908122703
 21
242.3132748881
 31
0.0
  0
ARC
  5
398
330
F39
100
AcDbEntity
  8
0
  6
CONTINUOUS
 62
     7
100
AcDbCircle
 10
588.9909571200001
 20
242.2016012158
 30
0.0
 40
0.1500000000000708
100
AcDbArc
 50
90.0
 51
131.8845889416423
  0
LWPOLYLINE
  5
399
330
F39
100
AcDbEntity
  8
0
  6
CONTINUOUS
 62
     7
100
AcDbPolyline
 90
        3
 70
   128
 43
0.0
 10
588.930315216
 20
242.29199567995
 10
588.9011449623999
 20
242.3105810158
 10
588.892418589
 20
242.3141261599
  0
LINE
  5
39A
330
F39
100
AcDbEntity
  8
0
  6
CONTINUOUS
 62
     7
100
AcDbLine
 10
591.4453081967
 20
237.8890762717
 30
0.0
 11
591.4469145154001
 21
237.8899275435
 31
0.0
  0
ARC
  5
39B
330
F39
100
AcDbEntity
  8
0
  6
CONTINUOUS
 62
     7
100
AcDbCircle
 10
591.34676966575
 20
238.0016012158
 30
0.0
 40
0.1500000000001087
100
AcDbArc
 50
270.0
 51
311.8845889415809
  0
LWPOLYLINE
  5
39C
330
F39
100
AcDbEntity
  8
0
  6
CONTINUOUS
 62
     7
100
AcDbPolyline
 90
        3
 70
   128
 43
0.0
 10
591.4074115697
 20
237.9112067517
 10
591.43658182335
 20
237.8926214158
 10
591.4453081967
 20
237.8890762717
  0
LINE
  5
39D
330
F39
100
AcDbEntity
  8
0
  6
CONTINUOUS
 62
     7
100
AcDbLine
 10
591.4469145154001
 20
242.3132748881
 30
0.0
 11
591.4453081967
 21
242.3141261599
 31
0.0
  0
LWPOLYLINE
  5
39E
330
F39
100
AcDbEntity
  8
0
  6
CONTINUOUS
 62
     7
100
AcDbPolyline
 90
        3
 70
   128
 43
0.0
 10
591.4074096259001
 20
242.2919855287
 10
591.4365605805999
 20
242.31053652165
 10
591.4453035402
 20
242.314120688
  0
ARC
  5
39F
330
F39
100
AcDbEntity
  8
0
  6
CONTINUOUS
 62
     7
100
AcDbCircle
 10
591.34676966575
 20
242.2016012158
 30
0.0
 40
0.1500000000001087
100
AcDbArc
 50
48.11541105841908
 51
90.0
  0
LINE
  5
3A0
330
F39
100
AcDbEntity
  8
0
  6
CONTINUOUS
 62
     7
100
AcDbLine
 10
588.8908122703
 20
237.8899275435
 30
0.0
 11
588.892418589
 21
237.8890762717
 31
0.0
  0
LWPOLYLINE
  5
3A1
330
F39
100
AcDbEntity
  8
0
  6
CONTINUOUS
 62
     7
100
AcDbPolyline
 90
        3
 70
   128
 43
0.0
 10
588.9303171598
 20
237.9112169029
 10
588.9011662051
 20
237.89266590995
 10
588.8924232454999
 20
237.8890817435999
  0
ARC
  5
3A2
330
F39
100
AcDbEntity
  8
0
  6
CONTINUOUS
 62
     7
100
AcDbCircle
 10
588.9909571200001
 20
238.0016012158
 30
0.0
 40
0.1500000000000708
100
AcDbArc
 50
228.1154110583577
 51
270.0
  0
ARC
  5
3A3
330
F39
100
AcDbEntity
  8
0
  6
CONTINUOUS
 62
     7
100
AcDbCircle
 10
589.0232925122
 20
237.9572023731999
 30
0.0
 40
0.1475437205877482
100
AcDbArc
 50
179.3238958092981
 51
207.4991214097088
  0
ARC
  5
3A4
330
F39
100
AcDbEntity
  8
0
  6
CONTINUOUS
 62
     7
100
AcDbCircle
 10
589.0232925122
 20
242.2460000584
 30
0.0
 40
0.1475437205866454
100
AcDbArc
 50
152.5008785903835
 51
180.6761041910162
  0
ARC
  5
3A5
330
F39
100
AcDbEntity
  8
0
  6
CONTINUOUS
 62
     7
100
AcDbCircle
 10
591.3144342735
 20
237.9572023731999
 30
0.0
 40
0.1475437205862273
100
AcDbArc
 50
332.5008785901045
 51
0.6761041908852721
  0
ARC
  5
3A6
330
F39
100
AcDbEntity
  8
0
  6
CONTINUOUS
 62
     7
100
AcDbCircle
 10
591.3144342735
 20
242.2460000584
 30
0.0
 40
0.1475437205874416
100
AcDbArc
 50
359.3238958092088
 51
27.49912140971044
  0
LINE
  5
3A7
330
F39
100
AcDbEntity
  8
0
  6
CONTINUOUS
 62
     7
100
AcDbLine
 10
587.9199895247
 20
239.1536553088
 30
0.0
 11
588.87575906395
 21
237.95894338475
 31
0.0
  0
LINE
  5
3A8
330
F39
100
AcDbEntity
  8
0
  6
CONTINUOUS
 62
     7
100
AcDbLine
 10
587.9199895247
 20
241.04954712285
 30
0.0
 11
587.9199895247
 21
239.1536553088
 31
0.0
  0
LINE
  5
3A9
330
F39
100
AcDbEntity
  8
0
  6
CONTINUOUS
 62
     7
100
AcDbLine
 10
588.87575906395
 20
242.2442590468499
 30
0.0
 11
587.9199895247
 21
241.04954712285
 31
0.0
  0
LWPOLYLINE
  5
3AA
330
F39
100
AcDbEntity
  8
0
  6
CONTINUOUS
 62
     7
100
AcDbPolyline
 90
        3
 70
   128
 43
0.0
 10
588.8908122703
 20
242.3132748881
 10
588.8809331442001
 20
242.30355573875
 10
588.87382679855
 20
242.29530547295
  0
ARC
  5
3AB
330
F39
100
AcDbEntity
  8
0
  6
CONTINUOUS
 62
     7
100
AcDbCircle
 10
588.0672282601499
 20
241.0513428463
 30
0.0
 40
0.147249685346169
100
AcDbArc
 50
141.3788570594037
 51
180.6987446216995
  0
LINE
  5
3AC
330
F39
100
AcDbEntity
  8
0
  6
CONTINUOUS
 62
     7
100
AcDbLine
 10
587.9521835242
 20
241.14325137995
 30
0.0
 11
588.87382679855
 21
242.29530547295
 31
0.0
  0
LWPOLYLINE
  5
3AD
330
F39
100
AcDbEntity
  8
0
  6
CONTINUOUS
 62
     7
100
AcDbPolyline
 90
        3
 70
   128
 43
0.0
 10
588.87382679855
 20
237.90789695865
 10
588.88297482415
 20
237.89748674135
 10
588.8908122703
 20
237.8899275435
  0
LINE
  5
3AE
330
F39
100
AcDbEntity
  8
0
  6
CONTINUOUS
 62
     7
100
AcDbLine
 10
588.87382679855
 20
237.90789695865
 30
0.0
 11
587.9521835242
 21
239.0599510516499
 31
0.0
  0
ARC
  5
3AF
330
F39
100
AcDbEntity
  8
0
  6
CONTINUOUS
 62
     7
100
AcDbCircle
 10
588.0672282601499
 20
239.1518595853
 30
0.0
 40
0.1472496853464238
100
AcDbArc
 50
179.3012553783016
 51
218.6211429406378
  0
LINE
  5
3B0
330
F39
100
AcDbEntity
  8
0
  6
CONTINUOUS
 62
     7
100
AcDbLine
 10
592.417737261
 20
241.04954712285
 30
0.0
 11
591.4619677218
 21
242.2442590468499
 31
0.0
  0
LINE
  5
3B1
330
F39
100
AcDbEntity
  8
0
  6
CONTINUOUS
 62
     7
100
AcDbLine
 10
592.417737261
 20
239.1536553088
 30
0.0
 11
592.417737261
 21
241.04954712285
 31
0.0
  0
LINE
  5
3B2
330
F39
100
AcDbEntity
  8
0
  6
CONTINUOUS
 62
     7
100
AcDbLine
 10
591.4619677218
 20
237.95894338475
 30
0.0
 11
592.417737261
 21
239.1536553088
 31
0.0
  0
LWPOLYLINE
  5
3B3
330
F39
100
AcDbEntity
  8
0
  6
CONTINUOUS
 62
     7
100
AcDbPolyline
 90
        3
 70
   128
 43
0.0
 10
591.4469145154001
 20
237.8899275435
 10
591.45679364155
 20
237.89964669285
 10
591.46389998715
 20
237.90789695865
  0
ARC
  5
3B4
330
F39
100
AcDbEntity
  8
0
  6
CONTINUOUS
 62
     7
100
AcDbCircle
 10
592.27049852555
 20
239.1518595853
 30
0.0
 40
0.1472496853452074
100
AcDbArc
 50
321.3788570591898
 51
0.6987446217922445
  0
LINE
  5
3B5
330
F39
100
AcDbEntity
  8
0
  6
CONTINUOUS
 62
     7
100
AcDbLine
 10
592.38554326155
 20
239.0599510516499
 30
0.0
 11
591.46389998715
 21
237.90789695865
 31
0.0
  0
LWPOLYLINE
  5
3B6
330
F39
100
AcDbEntity
  8
0
  6
CONTINUOUS
 62
     7
100
AcDbPolyline
 90
        3
 70
   128
 43
0.0
 10
591.46389998715
 20
242.29530547295
 10
591.4547519615501
 20
242.3057156902499
 10
591.4469145154001
 20
242.3132748881
  0
LINE
  5
3B7
330
F39
100
AcDbEntity
  8
0
  6
CONTINUOUS
 62
     7
100
AcDbLine
 10
591.46389998715
 20
242.29530547295
 30
0.0
 11
592.38554326155
 21
241.14325137995
 31
0.0
  0
ARC
  5
3B8
330
F39
100
AcDbEntity
  8
0
  6
CONTINUOUS
 62
     7
100
AcDbCircle
 10
592.27049852555
 20
241.0513428463
 30
0.0
 40
0.14724968534515
100
AcDbArc
 50
359.3012553781188
 51
38.62114294071345
  0
ARC
  5
3B9
330
F39
100
AcDbEntity
  8
0
  6
CONTINUOUS
 62
     7
100
AcDbCircle
 10
592.26886339285
 20
241.0489840568999
 30
0.0
 40
0.1500000000000341
100
AcDbArc
 50
0.0
 51
38.65980825409687
  0
LINE
  5
3BA
330
F39
100
AcDbEntity
  8
0
  6
CONTINUOUS
 62
     7
100
AcDbLine
 10
592.417737261
 20
241.04954712285
 30
0.0
 11
592.41886339285
 21
241.0489840568999
 31
0.0
  0
ARC
  5
3BB
330
F39
100
AcDbEntity
  8
0
  6
CONTINUOUS
 62
     7
100
AcDbCircle
 10
588.0688633928501
 20
239.1542183747
 30
0.0
 40
0.1500000000000341
100
AcDbArc
 50
180.0
 51
218.6598082540969
  0
LINE
  5
3BC
330
F39
100
AcDbEntity
  8
0
  6
CONTINUOUS
 62
     7
100
AcDbLine
 10
587.91886339285
 20
239.1542183747
 30
0.0
 11
587.9199895247
 21
239.1536553088
 31
0.0
  0
LINE
  5
3BD
330
F39
100
AcDbEntity
  8
0
  6
CONTINUOUS
 62
     7
100
AcDbLine
 10
587.91886339285
 20
241.0489840568999
 30
0.0
 11
587.9199895247
 21
241.04954712285
 31
0.0
  0
ARC
  5
3BE
330
F39
100
AcDbEntity
  8
0
  6
CONTINUOUS
 62
     7
100
AcDbCircle
 10
588.0688633928501
 20
241.0489840568999
 30
0.0
 40
0.1500000000000341
100
AcDbArc
 50
141.3401917459031
 51
180.0
  0
LINE
  5
3BF
330
F39
100
AcDbEntity
  8
0
  6
CONTINUOUS
 62
     7
100
AcDbLine
 10
592.417737261
 20
239.1536553088
 30
0.0
 11
592.41886339285
 21
239.1542183747
 31
0.0
  0
ARC
  5
3C0
330
F39
100
AcDbEntity
  8
0
  6
CONTINUOUS
 62
     7
100
AcDbCircle
 10
592.26886339285
 20
239.1542183747
 30
0.0
 40
0.1500000000000341
100
AcDbArc
 50
321.3401917459031
 51
0.0
  0
LINE
  5
3C1
330
F39
100
AcDbEntity
  8
0
  6
CONTINUOUS
 62
     7
100
AcDbLine
 10
587.91886339285
 20
239.1542183747
 30
0.0
 11
587.91886339285
 21
241.0489840568999
 31
0.0
  0
LINE
  5
3C2
330
F39
100
AcDbEntity
  8
0
  6
CONTINUOUS
 62
     7
100
AcDbLine
 10
592.41886339285
 20
241.0489840568999
 30
0.0
 11
592.41886339285
 21
239.1542183747
 31
0.0
  0
CIRCLE
  5
3C3
330
F39
100
AcDbEntity
  8
0
  6
CONTINUOUS
 62
     7
100
AcDbCircle
 10
590.16886339285
 20
60.60160121579997
 30
0.0
 40
0.750000000000057
  0
CIRCLE
  5
3C4
330
F39
100
AcDbEntity
  8
0
  6
CONTINUOUS
 62
     7
100
AcDbCircle
 10
590.16886339285
 20
-338.3983987842
 30
0.0
 40
0.749999999999943
  0
LINE
  5
3C5
330
F39
100
AcDbEntity
  8
0
  6
CONTINUOUS
 62
     7
100
AcDbLine
 10
591.66886339285
 20
-468.48017522045
 30
0.0
 11
591.66886339285
 21
-465.00456582855
 31
0.0
  0
ARC
  5
3C6
330
F39
100
AcDbEntity
  8
0
  6
CONTINUOUS
 62
     7
100
AcDbCircle
 10
590.16886339285
 20
-465.00456582855
 30
0.0
 40
1.500000000000057
100
AcDbArc
 50
0.0
 51
180.0
  0
LINE
  5
3C7
330
F39
100
AcDbEntity
  8
0
  6
CONTINUOUS
 62
     7
100
AcDbLine
 10
588.66886339285
 20
-465.00456582855
 30
0.0
 11
588.66886339285
 21
-468.4801752205
 31
0.0
  0
ARC
  5
3C8
330
F39
100
AcDbEntity
  8
0
  6
CONTINUOUS
 62
     7
100
AcDbCircle
 10
588.3188633928501
 20
-158.8483987842
 30
0.0
 40
0.1500000000000341
100
AcDbArc
 50
180.0
 51
270.0
  0
LINE
  5
3C9
330
F39
100
AcDbEntity
  8
0
  6
CONTINUOUS
 62
     7
100
AcDbLine
 10
588.3188633928501
 20
-158.8483987842
 30
0.0
 11
588.16886339285
 21
-158.8483987842
 31
0.0
  0
LINE
  5
3CA
330
F39
100
AcDbEntity
  8
0
  6
CONTINUOUS
 62
     7
100
AcDbLine
 10
588.3188633928501
 20
-158.8483987842
 30
0.0
 11
588.3188633928501
 21
-158.9983987842
 31
0.0
  0
LINE
  5
3CB
330
F39
100
AcDbEntity
  8
0
  6
CONTINUOUS
 62
     7
100
AcDbLine
 10
588.16886339285
 20
-158.8483987842
 30
0.0
 11
588.16886339285
 21
-144.1483987842
 31
0.0
  0
LINE
  5
3CC
330
F39
100
AcDbEntity
  8
0
  6
CONTINUOUS
 62
     7
100
AcDbLine
 10
588.16886339285
 20
-144.1483987842
 30
0.0
 11
588.3188633928501
 21
-144.1483987842
 31
0.0
  0
LINE
  5
3CD
330
F39
100
AcDbEntity
  8
0
  6
CONTINUOUS
 62
     7
100
AcDbLine
 10
588.3188633928501
 20
-144.1483987842
 30
0.0
 11
588.3188633928501
 21
-158.8483987842
 31
0.0
  0
LINE
  5
3CE
330
F39
100
AcDbEntity
  8
0
  6
CONTINUOUS
 62
     7
100
AcDbLine
 10
592.01886339285
 20
-144.1483987842
 30
0.0
 11
588.3188633928501
 21
-144.1483987842
 31
0.0
  0
LINE
  5
3CF
330
F39
100
AcDbEntity
  8
0
  6
CONTINUOUS
 62
     7
100
AcDbLine
 10
592.01886339285
 20
-158.8483987842
 30
0.0
 11
592.01886339285
 21
-144.1483987842
 31
0.0
  0
LINE
  5
3D0
330
F39
100
AcDbEntity
  8
0
  6
CONTINUOUS
 62
     7
100
AcDbLine
 10
588.3188633928501
 20
-158.8483987842
 30
0.0
 11
592.01886339285
 21
-158.8483987842
 31
0.0
  0
LINE
  5
3D1
330
F39
100
AcDbEntity
  8
0
  6
CONTINUOUS
 62
     7
100
AcDbLine
 10
592.01886339285
 20
-158.8483987842
 30
0.0
 11
592.01886339285
 21
-158.9983987842
 31
0.0
  0
LINE
  5
3D2
330
F39
100
AcDbEntity
  8
0
  6
CONTINUOUS
 62
     7
100
AcDbLine
 10
592.01886339285
 20
-158.9983987842
 30
0.0
 11
588.3188633928501
 21
-158.9983987842
 31
0.0
  0
LINE
  5
3D3
330
F39
100
AcDbEntity
  8
0
  6
CONTINUOUS
 62
     7
100
AcDbLine
 10
588.3188633928501
 20
-143.9983987842
 30
0.0
 11
592.01886339285
 21
-143.9983987842
 31
0.0
  0
LINE
  5
3D4
330
F39
100
AcDbEntity
  8
0
  6
CONTINUOUS
 62
     7
100
AcDbLine
 10
592.01886339285
 20
-143.9983987842
 30
0.0
 11
592.01886339285
 21
-144.1483987842
 31
0.0
  0
LINE
  5
3D5
330
F39
100
AcDbEntity
  8
0
  6
CONTINUOUS
 62
     7
100
AcDbLine
 10
588.3188633928501
 20
-143.9983987842
 30
0.0
 11
588.3188633928501
 21
-144.1483987842
 31
0.0
  0
ARC
  5
3D6
330
F39
100
AcDbEntity
  8
0
  6
CONTINUOUS
 62
     7
100
AcDbCircle
 10
588.3188633928501
 20
-144.1483987842
 30
0.0
 40
0.1499999999999773
100
AcDbArc
 50
90.0
 51
180.0
  0
ARC
  5
3D7
330
F39
100
AcDbEntity
  8
0
  6
CONTINUOUS
 62
     7
100
AcDbCircle
 10
592.01886339285
 20
-158.8483987842
 30
0.0
 40
0.1499999999999773
100
AcDbArc
 50
270.0
 51
0.0
  0
LINE
  5
3D8
330
F39
100
AcDbEntity
  8
0
  6
CONTINUOUS
 62
     7
100
AcDbLine
 10
592.16886339285
 20
-158.8483987842
 30
0.0
 11
592.01886339285
 21
-158.8483987842
 31
0.0
  0
LINE
  5
3D9
330
F39
100
AcDbEntity
  8
0
  6
CONTINUOUS
 62
     7
100
AcDbLine
 10
592.16886339285
 20
-144.1483987842
 30
0.0
 11
592.16886339285
 21
-158.8483987842
 31
0.0
  0
LINE
  5
3DA
330
F39
100
AcDbEntity
  8
0
  6
CONTINUOUS
 62
     7
100
AcDbLine
 10
592.01886339285
 20
-144.1483987842
 30
0.0
 11
592.16886339285
 21
-144.1483987842
 31
0.0
  0
ARC
  5
3DB
330
F39
100
AcDbEntity
  8
0
  6
CONTINUOUS
 62
     7
100
AcDbCircle
 10
592.01886339285
 20
-144.1483987842
 30
0.0
 40
0.1499999999999773
100
AcDbArc
 50
0.0
 51
90.0
  0
LINE
  5
3DC
330
F39
100
AcDbEntity
  8
0
  6
CONTINUOUS
 62
     7
100
AcDbLine
 10
588.1176688726
 20
-105.8483987842
 30
0.0
 11
588.1176688726
 21
-121.8483987842
 31
0.0
  0
LINE
  5
3DD
330
F39
100
AcDbEntity
  8
0
  6
CONTINUOUS
 62
     7
100
AcDbLine
 10
587.70047790915
 20
-105.8483987842
 30
0.0
 11
587.70047790915
 21
-121.8483987842
 31
0.0
  0
LINE
  5
3DE
330
F39
100
AcDbEntity
  8
0
  6
CONTINUOUS
 62
     7
100
AcDbLine
 10
588.1176688726
 20
-121.8483987842
 30
0.0
 11
587.70047790915
 21
-121.8483987842
 31
0.0
  0
LINE
  5
3DF
330
F39
100
AcDbEntity
  8
0
  6
CONTINUOUS
 62
     7
100
AcDbLine
 10
588.1176688726
 20
-105.8483987842
 30
0.0
 11
587.70047790915
 21
-105.8483987842
 31
0.0
  0
LINE
  5
3E0
330
F39
100
AcDbEntity
  8
0
  6
CONTINUOUS
 62
     7
100
AcDbLine
 10
591.72017361965
 20
-119.85753406825
 30
0.0
 11
589.16886339285
 21
-119.85753406825
 31
0.0
  0
LINE
  5
3E1
330
F39
100
AcDbEntity
  8
0
  6
CONTINUOUS
 62
     7
100
AcDbLine
 10
589.16886339285
 20
-119.85753406825
 30
0.0
 11
588.49886339285
 21
-121.8483987842
 31
0.0
  0
LINE
  5
3E2
330
F39
100
AcDbEntity
  8
0
  6
CONTINUOUS
 62
     7
100
AcDbLine
 10
589.16886339285
 20
-107.83926350015
 30
0.0
 11
588.49886339285
 21
-105.8483987842
 31
0.0
  0
LINE
  5
3E3
330
F39
100
AcDbEntity
  8
0
  6
CONTINUOUS
 62
     7
100
AcDbLine
 10
591.72017361965
 20
-107.83926350015
 30
0.0
 11
589.16886339285
 21
-107.83926350015
 31
0.0
  0
LINE
  5
3E4
330
F39
100
AcDbEntity
  8
0
  6
CONTINUOUS
 62
     7
100
AcDbLine
 10
591.72017361965
 20
-107.83926350015
 30
0.0
 11
591.72017361965
 21
-112.7983987842
 31
0.0
  0
LINE
  5
3E5
330
F39
100
AcDbEntity
  8
0
  6
CONTINUOUS
 62
     7
100
AcDbLine
 10
591.72017361965
 20
-112.7983987842
 30
0.0
 11
591.5013902457499
 21
-112.7983987842
 31
0.0
  0
LINE
  5
3E6
330
F39
100
AcDbEntity
  8
0
  6
CONTINUOUS
 62
     7
100
AcDbLine
 10
591.5013902457499
 20
-110.4733987842
 30
0.0
 11
591.5013902457499
 21
-112.7983987842
 31
0.0
  0
LINE
  5
3E7
330
F39
100
AcDbEntity
  8
0
  6
CONTINUOUS
 62
     7
100
AcDbLine
 10
591.5013902457499
 20
-110.4733987842
 30
0.0
 11
590.01646600525
 21
-110.4733987842
 31
0.0
  0
LINE
  5
3E8
330
F39
100
AcDbEntity
  8
0
  6
CONTINUOUS
 62
     7
100
AcDbLine
 10
590.01646600525
 20
-110.4733987842
 30
0.0
 11
590.01646600525
 21
-112.7983987842
 31
0.0
  0
LINE
  5
3E9
330
F39
100
AcDbEntity
  8
0
  6
CONTINUOUS
 62
     7
100
AcDbLine
 10
590.01646600525
 20
-112.7983987842
 30
0.0
 11
588.34549434265
 21
-112.7983987842
 31
0.0
  0
LINE
  5
3EA
330
F39
100
AcDbEntity
  8
0
  6
CONTINUOUS
 62
     7
100
AcDbLine
 10
588.34549434265
 20
-112.7983987842
 30
0.0
 11
588.34549434265
 21
-114.8983987842
 31
0.0
  0
LINE
  5
3EB
330
F39
100
AcDbEntity
  8
0
  6
CONTINUOUS
 62
     7
100
AcDbLine
 10
590.01646600525
 20
-114.8983987842
 30
0.0
 11
588.34549434265
 21
-114.8983987842
 31
0.0
  0
LINE
  5
3EC
330
F39
100
AcDbEntity
  8
0
  6
CONTINUOUS
 62
     7
100
AcDbLine
 10
590.01646600525
 20
-114.8983987842
 30
0.0
 11
590.01646600525
 21
-117.2233987842
 31
0.0
  0
LINE
  5
3ED
330
F39
100
AcDbEntity
  8
0
  6
CONTINUOUS
 62
     7
100
AcDbLine
 10
591.5013902457499
 20
-117.2233987842
 30
0.0
 11
590.01646600525
 21
-117.2233987842
 31
0.0
  0
LINE
  5
3EE
330
F39
100
AcDbEntity
  8
0
  6
CONTINUOUS
 62
     7
100
AcDbLine
 10
591.5013902457499
 20
-114.8983987842
 30
0.0
 11
591.5013902457499
 21
-117.2233987842
 31
0.0
  0
LINE
  5
3EF
330
F39
100
AcDbEntity
  8
0
  6
CONTINUOUS
 62
     7
100
AcDbLine
 10
591.72017361965
 20
-114.8983987842
 30
0.0
 11
591.5013902457499
 21
-114.8983987842
 31
0.0
  0
LINE
  5
3F0
330
F39
100
AcDbEntity
  8
0
  6
CONTINUOUS
 62
     7
100
AcDbLine
 10
591.72017361965
 20
-114.8983987842
 30
0.0
 11
591.72017361965
 21
-119.85753406825
 31
0.0
  0
LINE
  5
3F1
330
F39
100
AcDbEntity
  8
0
  6
CONTINUOUS
 62
     7
100
AcDbLine
 10
588.49886339285
 20
-121.8483987842
 30
0.0
 11
588.1176688726
 21
-121.8483987842
 31
0.0
  0
LINE
  5
3F2
330
F39
100
AcDbEntity
  8
0
  6
CONTINUOUS
 62
     7
100
AcDbLine
 10
588.49886339285
 20
-105.8483987842
 30
0.0
 11
588.1176688726
 21
-105.8483987842
 31
0.0
  0
LINE
  5
3F3
330
F39
100
AcDbEntity
  8
0
  6
CONTINUOUS
 62
     7
100
AcDbLine
 10
587.16886339285
 20
-121.8483987842
 30
0.0
 11
587.16886339285
 21
-105.8483987842
 31
0.0
  0
LINE
  5
3F4
330
F39
100
AcDbEntity
  8
0
  6
CONTINUOUS
 62
     7
100
AcDbLine
 10
587.16886339285
 20
-121.8483987842
 30
0.0
 11
587.70047790915
 21
-121.8483987842
 31
0.0
  0
LINE
  5
3F5
330
F39
100
AcDbEntity
  8
0
  6
CONTINUOUS
 62
     7
100
AcDbLine
 10
587.16886339285
 20
-105.8483987842
 30
0.0
 11
587.70047790915
 21
-105.8483987842
 31
0.0
  0
LINE
  5
3F6
330
F39
100
AcDbEntity
  8
0
  6
CONTINUOUS
 62
     7
100
AcDbLine
 10
590.7942834645501
 20
-114.8983987842
 30
0.0
 11
590.7942834645501
 21
-117.2233987842
 31
0.0
  0
LINE
  5
3F7
330
F39
100
AcDbEntity
  8
0
  6
CONTINUOUS
 62
     7
100
AcDbLine
 10
590.7942834645501
 20
-110.4733987842
 30
0.0
 11
590.7942834645501
 21
-112.7983987842
 31
0.0
  0
LINE
  5
3F8
330
F39
100
AcDbEntity
  8
0
  6
CONTINUOUS
 62
     7
100
AcDbLine
 10
592.4113583344999
 20
-112.7983987842
 30
0.0
 11
592.4113583344999
 21
-114.8983987842
 31
0.0
  0
LINE
  5
3F9
330
F39
100
AcDbEntity
  8
0
  6
CONTINUOUS
 62
     7
100
AcDbLine
 10
590.7942834645501
 20
-114.8983987842
 30
0.0
 11
591.5013902457499
 21
-114.8983987842
 31
0.0
  0
LINE
  5
3FA
330
F39
100
AcDbEntity
  8
0
  6
CONTINUOUS
 62
     7
100
AcDbLine
 10
590.7942834645501
 20
-112.7983987842
 30
0.0
 11
591.5013902457499
 21
-112.7983987842
 31
0.0
  0
LINE
  5
3FB
330
F39
100
AcDbEntity
  8
0
  6
CONTINUOUS
 62
     7
100
AcDbLine
 10
591.9026736196499
 20
-114.8983987842
 30
0.0
 11
591.9026736196499
 21
-119.85753406825
 31
0.0
  0
LINE
  5
3FC
330
F39
100
AcDbEntity
  8
0
  6
CONTINUOUS
 62
     7
100
AcDbLine
 10
591.9026736196499
 20
-114.8983987842
 30
0.0
 11
591.72285311155
 21
-114.8983987842
 31
0.0
  0
LINE
  5
3FD
330
F39
100
AcDbEntity
  8
0
  6
CONTINUOUS
 62
     7
100
AcDbLine
 10
591.72285311155
 20
-114.8983987842
 30
0.0
 11
591.72017361965
 21
-114.8983987842
 31
0.0
  0
LINE
  5
3FE
330
F39
100
AcDbEntity
  8
0
  6
CONTINUOUS
 62
     7
100
AcDbLine
 10
591.9026736196499
 20
-119.85753406825
 30
0.0
 11
591.72017361965
 21
-119.85753406825
 31
0.0
  0
LINE
  5
3FF
330
F39
100
AcDbEntity
  8
0
  6
CONTINUOUS
 62
     7
100
AcDbLine
 10
591.9026736196499
 20
-107.83926350015
 30
0.0
 11
591.9026736196499
 21
-112.7983987842
 31
0.0
  0
LINE
  5
400
330
F39
100
AcDbEntity
  8
0
  6
CONTINUOUS
 62
     7
100
AcDbLine
 10
591.72285311155
 20
-112.7983987842
 30
0.0
 11
591.72017361965
 21
-112.7983987842
 31
0.0
  0
LINE
  5
401
330
F39
100
AcDbEntity
  8
0
  6
CONTINUOUS
 62
     7
100
AcDbLine
 10
591.9026736196499
 20
-112.7983987842
 30
0.0
 11
591.72285311155
 21
-112.7983987842
 31
0.0
  0
LINE
  5
402
330
F39
100
AcDbEntity
  8
0
  6
CONTINUOUS
 62
     7
100
AcDbLine
 10
591.9026736196499
 20
-107.83926350015
 30
0.0
 11
591.72017361965
 21
-107.83926350015
 31
0.0
  0
LINE
  5
403
330
F39
100
AcDbEntity
  8
0
  6
CONTINUOUS
 62
     7
100
AcDbLine
 10
593.1518633928499
 20
-107.83926350015
 30
0.0
 11
593.1518633928499
 21
-119.85753406825
 31
0.0
  0
LINE
  5
404
330
F39
100
AcDbEntity
  8
0
  6
CONTINUOUS
 62
     7
100
AcDbLine
 10
592.8670338196
 20
-112.7983987842
 30
0.0
 11
592.8670338196
 21
-114.8983987842
 31
0.0
  0
LINE
  5
405
330
F39
100
AcDbEntity
  8
0
  6
CONTINUOUS
 62
     7
100
AcDbLine
 10
592.8670338196
 20
-114.8983987842
 30
0.0
 11
591.9026736196499
 21
-114.8983987842
 31
0.0
  0
LINE
  5
406
330
F39
100
AcDbEntity
  8
0
  6
CONTINUOUS
 62
     7
100
AcDbLine
 10
592.8670338196
 20
-112.7983987842
 30
0.0
 11
591.9026736196499
 21
-112.7983987842
 31
0.0
  0
LINE
  5
407
330
F39
100
AcDbEntity
  8
0
  6
CONTINUOUS
 62
     7
100
AcDbLine
 10
593.1518633928499
 20
-107.83926350015
 30
0.0
 11
591.9026736196499
 21
-107.83926350015
 31
0.0
  0
LINE
  5
408
330
F39
100
AcDbEntity
  8
0
  6
CONTINUOUS
 62
     7
100
AcDbLine
 10
593.1518633928499
 20
-119.85753406825
 30
0.0
 11
591.9026736196499
 21
-119.85753406825
 31
0.0
  0
LINE
  5
409
330
F39
100
AcDbEntity
  8
0
  6
CONTINUOUS
 62
     7
100
AcDbLine
 10
593.16886339285
 20
-107.83926350015
 30
0.0
 11
593.16886339285
 21
-119.85753406825
 31
0.0
  0
LINE
  5
40A
330
F39
100
AcDbEntity
  8
0
  6
CONTINUOUS
 62
     7
100
AcDbLine
 10
593.16886339285
 20
-107.83926350015
 30
0.0
 11
593.1518633928499
 21
-107.83926350015
 31
0.0
  0
LINE
  5
40B
330
F39
100
AcDbEntity
  8
0
  6
CONTINUOUS
 62
     7
100
AcDbLine
 10
593.16886339285
 20
-119.85753406825
 30
0.0
 11
593.1518633928499
 21
-119.85753406825
 31
0.0
  0
LINE
  5
40C
330
F39
100
AcDbEntity
  8
0
  6
CONTINUOUS
 62
     7
100
AcDbLine
 10
588.16886339285
 20
-158.8483987842
 30
0.0
 11
588.14386339285
 21
-158.8483987842
 31
0.0
  0
LINE
  5
40D
330
F39
100
AcDbEntity
  8
0
  6
CONTINUOUS
 62
     7
100
AcDbLine
 10
588.14386339285
 20
-144.1483987842
 30
0.0
 11
588.16886339285
 21
-144.1483987842
 31
0.0
  0
LINE
  5
40E
330
F39
100
AcDbEntity
  8
0
  6
CONTINUOUS
 62
     7
100
AcDbLine
 10
588.3188633928501
 20
-158.9983987842
 30
0.0
 11
588.3188633928501
 21
-159.0233987842
 31
0.0
  0
LINE
  5
40F
330
F39
100
AcDbEntity
  8
0
  6
CONTINUOUS
 62
     7
100
AcDbLine
 10
592.01886339285
 20
-158.9983987842
 30
0.0
 11
592.01886339285
 21
-159.0233987842
 31
0.0
  0
LINE
  5
410
330
F39
100
AcDbEntity
  8
0
  6
CONTINUOUS
 62
     7
100
AcDbLine
 10
588.3188633928501
 20
-143.9733987842
 30
0.0
 11
588.3188633928501
 21
-143.9983987842
 31
0.0
  0
LINE
  5
411
330
F39
100
AcDbEntity
  8
0
  6
CONTINUOUS
 62
     7
100
AcDbLine
 10
592.01886339285
 20
-143.9733987842
 30
0.0
 11
592.01886339285
 21
-143.9983987842
 31
0.0
  0
LINE
  5
412
330
F39
100
AcDbEntity
  8
0
  6
CONTINUOUS
 62
     7
100
AcDbLine
 10
592.16886339285
 20
-158.8483987842
 30
0.0
 11
592.1938633928501
 21
-158.8483987842
 31
0.0
  0
LINE
  5
413
330
F39
100
AcDbEntity
  8
0
  6
CONTINUOUS
 62
     7
100
AcDbLine
 10
592.1938633928501
 20
-144.1483987842
 30
0.0
 11
592.16886339285
 21
-144.1483987842
 31
0.0
  0
INSERT
  5
7E5
330
F39
100
AcDbEntity
  8
0
  6
CONTINUOUS
 62
     7
100
AcDbBlockReference
  2
SW_BROKEN_VIEW_1
 10
0.0
 20
0.0
 30
0.0
  0
ENDSEC
  0
SECTION
  2
OBJECTS
  0
DICTIONARY
  5
F29
330
0
100
AcDbDictionary
  3
ACAD_DETAILVIEWSTYLE
350
103A
  3
ACAD_GROUP
350
F2A
  3
ACAD_MLINESTYLE
350
F33
  3
ACAD_SCALELIST
350
FF0
  3
ACAD_SECTIONVIEWSTYLE
350
103B
  3
ACDBVARIABLEDICTIONARY
350
1032
  3
APPDATA
350
102F
  3
DWGPROPS
350
105A
  0
DICTIONARY
  5
1030
330
F39
100
AcDbDictionary
280
     1
  3
DIM_BOUNDING_BOXES_V1
360
1031
  0
DICTIONARY
  5
103A
102
{ACAD_REACTORS
330
F29
102
}
330
F29
100
AcDbDictionary
  0
DICTIONARY
  5
F2A
102
{ACAD_REACTORS
330
F29
102
}
330
F29
100
AcDbDictionary
  0
DICTIONARY
  5
F33
102
{ACAD_REACTORS
330
F29
102
}
330
F29
100
AcDbDictionary
  3
STANDARD
350
F34
  0
DICTIONARY
  5
FF0
102
{ACAD_REACTORS
330
F29
102
}
330
F29
100
AcDbDictionary
  0
DICTIONARY
  5
103B
102
{ACAD_REACTORS
330
F29
102
}
330
F29
100
AcDbDictionary
  0
DICTIONARY
  5
1032
102
{ACAD_REACTORS
330
F29
102
}
330
F29
100
AcDbDictionary
  0
DICTIONARY
  5
102F
102
{ACAD_REACTORS
330
F29
102
}
330
F29
100
AcDbDictionary
  0
XRECORD
  5
105A
102
{ACAD_REACTORS
330
F29
102
}
330
F29
100
AcDbXrecord
  1
DWGPROPS COOKIE
  2

  3

  4

  6

  7

  8
chrwyd
  9

300
=
301
=
302
=
303
=
304
=
305
=
306
=
307
=
308
=
309
=
 40
0.0
 41
2460249.706639421
 42
2460255.641983727
  1

 90
        0
  0
DICTIONARY
  5
1031
102
{ACAD_REACTORS
330
1030
102
}
330
1030
100
AcDbDictionary
  0
MLINESTYLE
  5
F34
102
{ACAD_REACTORS
330
F33
102
}
330
F33
100
AcDbMlineStyle
  2
Standard
 70
     0
  3

 62
   256
 51
90.0
 52
90.0
 71
     2
 49
0.5
 62
   256
  6
BYLAYER
 49
-0.5
 62
   256
  6
BYLAYER
  0
ENDSEC
  0
EOF
