  0
SECTION
  2
HEADER
  9
$ACADVER
  1
AC1014
999
I-DEAS 11 NX Not Encoded
  9
$EXTMIN
 10
0.0
 20
0.0
  9
$EXTMAX
 10
2.1E+002
 20
2.97E+002
  9
$TEXTSIZE
 40
1.25E-001
  9
$LTSCALE
 40
1.0
  9
$CLAYER
  8
100
  9
$CECOLOR
 62
1
  9
$DIMASZ
 40
1.25E-001
  9
$DIMEXO
 40
6.25E-002
  9
$DIMDLI
 40
2.5E-001
  9
$DIMEXE
 40
1.25E-001
  9
$DIMTP
 40
5.0E-003
  9
$DIMTM
 40
-5.0E-003
  9
$DIMTXT
 40
3.0
  9
$DIMLIM
 70
0
  9
$DIMTIH
 70
1
  9
$DIMTOH
 70
1
  9
$DIMSE1
 70
0
  9
$DIMSE2
 70
0
  9
$DIMTAD
 70
0
  9
$DIMASO
 70
1
  9
$DIMALT
 70
0
  9
$DIMALTD
 70
0
  9
$DIMTOFL
 70
1
  9
$DIMTIX
 70
0
  9
$DIMSAH
 70
0
  9
$DIMTFAC
 40
1.0
  9
$DIMGAP
 40
6.25E-002
  9
$LUNITS
 70
2
  9
$LUPREC
 70
3
  9
$FILLETRAD
 40
1.0E+001
  9
$AUNITS
 70
0
  9
$AUPREC
 70
1
  9
$CHAMFERA
 40
6.0
  9
$CHAMFERB
 40
6.0
  9
$ANGBASE
 50
0.0
  9
$ANGDIR
 70
0
  9
$PEXTMIN
 10
0.0
 20
0.0
 30
0.0
  9
$PEXTMAX
 10
2.1E+002
 20
2.97E+002
 30
0.0
  9
$PLIMMIN
 10
0.0
 20
0.0
  9
$PLIMMAX
 10
2.1E+002
 20
2.97E+002
  9
$PDMODE
 70
2
  9
$PDSIZE
 40
-1.0E-002
  9
$SPLINETYPE
 70
6
  9
$TILEMODE
 70
0
  9
$HANDLING
 70
1
  9
$HANDSEED
  5
f4240
  0
ENDSEC
  0
SECTION
  2
TABLES
  0
TABLE
  2
VPORT
  5
64
100
AcDbSymbolTable
 70
2
  0
VPORT
  5
65
100
AcDbSymbolTableRecord
100
AcDbViewportTableRecord
  2
*Active
 70
0
 10
0.0
 20
0.0
 11
2.1E+002
 21
2.97E+002
 12
1.05E+002
 22
1.485E+002
 13
0.0
 23
0.0
 14
1.0
 24
1.0
 15
0.0
 25
0.0
 16
0.0
 26
0.0
 36
1.0
 17
0.0
 27
0.0
 37
0.0
 40
2.97E+002
 41
7.0707071E-001
 42
5.0E+001
 43
0.0
 44
0.0
 50
0.0
 51
0.0
 71
0
 72
1000
 73
1
 74
3
 75
0
 76
0
 77
0
 78
0
  0
ENDTAB
  0
TABLE
  2
LTYPE
  5
66
100
AcDbSymbolTable
 70
7
  0
LTYPE
  5
67
100
AcDbSymbolTableRecord
100
AcDbLinetypeTableRecord
  2
BYBLOCK
 70
0
  3

 72
65
 73
0
 40
0.0
  0
LTYPE
  5
68
100
AcDbSymbolTableRecord
100
AcDbLinetypeTableRecord
  2
BYLAYER
 70
0
  3

 72
65
 73
0
 40
0.0
  0
LTYPE
  5
69
100
AcDbSymbolTableRecord
100
AcDbLinetypeTableRecord
  2
CONTINUOUS
 70
0
  3

 72
65
 73
0
 40
0.0
  0
LTYPE
  5
6a
100
AcDbSymbolTableRecord
100
AcDbLinetypeTableRecord
  2
HIDDENNEW0
  3
_ 
 70
64
 72
65
 73
3
 40
4.5
 49
1.5
 74
0
 49
-1.5
 74
0
 49
1.5
 74
0
  0
LTYPE
  5
6b
100
AcDbSymbolTableRecord
100
AcDbLinetypeTableRecord
  2
HIDDENNEW1
  3
_ 
 70
64
 72
65
 73
3
 40
4.5
 49
1.5
 74
0
 49
-1.5
 74
0
 49
1.5
 74
0
  0
LTYPE
  5
6c
100
AcDbSymbolTableRecord
100
AcDbLinetypeTableRecord
  2
HIDDEN
  3
_ 
 70
64
 72
65
 73
3
 40
4.5
 49
1.5
 74
0
 49
-1.5
 74
0
 49
1.5
 74
0
  0
LTYPE
  5
6d
100
AcDbSymbolTableRecord
100
AcDbLinetypeTableRecord
  2
CENTERLINE
  3
_ 
 70
64
 72
65
 73
5
 40
3.0E+001
 49
1.2E+001
 74
0
 49
-1.5
 74
0
 49
3.0
 74
0
 49
-1.5
 74
0
 49
1.2E+001
 74
0
  0
LTYPE
  5
6e
100
AcDbSymbolTableRecord
100
AcDbLinetypeTableRecord
  2
PHANTOM
  3
_ 
 70
64
 72
65
 73
7
 40
2.95E+001
 49
9.5
 74
0
 49
-1.5
 74
0
 49
3.0
 74
0
 49
-1.5
 74
0
 49
3.0
 74
0
 49
-1.5
 74
0
 49
9.5
 74
0
  0
LTYPE
  5
6f
100
AcDbSymbolTableRecord
100
AcDbLinetypeTableRecord
  2
SHORT_DASH
  3
_ 
 70
64
 72
65
 73
3
 40
3.0
 49
7.5E-001
 74
0
 49
-1.5
 74
0
 49
7.5E-001
 74
0
  0
LTYPE
  5
70
100
AcDbSymbolTableRecord
100
AcDbLinetypeTableRecord
  2
LONG_DASH
  3
_ 
 70
64
 72
65
 73
3
 40
9.0
 49
2.25
 74
0
 49
-4.5
 74
0
 49
2.25
 74
0
  0
ENDTAB
  0
TABLE
  2
LAYER
  5
71
100
AcDbSymbolTable
 70
258
  0
LAYER
  5
72
100
AcDbSymbolTableRecord
100
AcDbLayerTableRecord
  2
0
 70
0
 62
-7
  6
CONTINUOUS
  0
LAYER
  5
73
100
AcDbSymbolTableRecord
100
AcDbLayerTableRecord
  2
1
 70
0
 62
7
  6
CONTINUOUS
  0
LAYER
  5
74
100
AcDbSymbolTableRecord
100
AcDbLayerTableRecord
  2
2
 70
0
 62
7
  6
CONTINUOUS
  0
LAYER
  5
75
100
AcDbSymbolTableRecord
100
AcDbLayerTableRecord
  2
Drafting_Hidden_Entities
 70
1
 62
7
  6
CONTINUOUS
  0
ENDTAB
  0
TABLE
  2
STYLE
  5
76
100
AcDbSymbolTable
 70
1
  0
STYLE
  5
77
100
AcDbSymbolTableRecord
100
AcDbTextStyleTableRecord
  2
STANDARD
 70
64
 40
0.0
 41
1.0
 50
0.0
 71
0
 42
1.0
  3
monotxt.shx
  4

  0
ENDTAB
  0
TABLE
  2
VIEW
  5
78
100
AcDbSymbolTable
 70
0
  0
ENDTAB
  0
TABLE
  2
UCS
  5
79
100
AcDbSymbolTable
 70
0
  0
ENDTAB
  0
TABLE
  2
APPID
  5
7a
100
AcDbSymbolTable
 70
1
  0
APPID
  5
7b
100
AcDbSymbolTableRecord
100
AcDbRegAppTableRecord
  2
ACAD
 70
1
  0
ENDTAB
  0
TABLE
  2
DIMSTYLE
  5
7c
100
AcDbSymbolTable
 70
1
  0
DIMSTYLE
105
7d
100
AcDbSymbolTableRecord
100
AcDbDimStyleTableRecord
  2
DSTYLE1
 70
0
  3

  4

  5

  6

  7

 40
1.0
 41
3.0
 42
0.0
 43
3.8E-001
 44
3.0
 45
1.0E-002
 46
0.0
 47
0.0
 48
0.0
 71
0
 72
0
 73
0
 74
0
 75
0
 76
0
 77
1
 78
3
140
3.0
141
9.0E-002
142
0.0
143
1.0
144
1.0
145
0.0
146
1.0
147
1.5
170
0
171
2
172
0
173
0
174
0
175
0
176
0
177
0
178
0
270
2
271
2
272
4
273
2
274
2
275
0
280
0
281
0
282
0
283
1
284
0
285
0
286
0
287
3
288
0
  0
ENDTAB
  0
TABLE
  2
BLOCK_RECORD
  5
7e
100
AcDbSymbolTable
 70
0
  0
BLOCK_RECORD
  5
7f
100
AcDbSymbolTableRecord
100
AcDbBlockTableRecord
  2
*MODEL_SPACE
  0
BLOCK_RECORD
  5
80
100
AcDbSymbolTableRecord
100
AcDbBlockTableRecord
  2
*PAPER_SPACE
  0
BLOCK_RECORD
  5
81
100
AcDbSymbolTableRecord
100
AcDbBlockTableRecord
  2
*D127
  0
BLOCK_RECORD
  5
82
100
AcDbSymbolTableRecord
100
AcDbBlockTableRecord
  2
*D128
  0
BLOCK_RECORD
  5
83
100
AcDbSymbolTableRecord
100
AcDbBlockTableRecord
  2
*D129
  0
BLOCK_RECORD
  5
84
100
AcDbSymbolTableRecord
100
AcDbBlockTableRecord
  2
*D130
  0
BLOCK_RECORD
  5
85
100
AcDbSymbolTableRecord
100
AcDbBlockTableRecord
  2
*D131
  0
BLOCK_RECORD
  5
86
100
AcDbSymbolTableRecord
100
AcDbBlockTableRecord
  2
*D132
  0
BLOCK_RECORD
  5
87
100
AcDbSymbolTableRecord
100
AcDbBlockTableRecord
  2
*D133
  0
BLOCK_RECORD
  5
88
100
AcDbSymbolTableRecord
100
AcDbBlockTableRecord
  2
*D134
  0
BLOCK_RECORD
  5
89
100
AcDbSymbolTableRecord
100
AcDbBlockTableRecord
  2
*D135
  0
BLOCK_RECORD
  5
8a
100
AcDbSymbolTableRecord
100
AcDbBlockTableRecord
  2
*D136
  0
BLOCK_RECORD
  5
8b
100
AcDbSymbolTableRecord
100
AcDbBlockTableRecord
  2
*D137
  0
BLOCK_RECORD
  5
8c
100
AcDbSymbolTableRecord
100
AcDbBlockTableRecord
  2
*D138
  0
BLOCK_RECORD
  5
8d
100
AcDbSymbolTableRecord
100
AcDbBlockTableRecord
  2
*D139
  0
BLOCK_RECORD
  5
8e
100
AcDbSymbolTableRecord
100
AcDbBlockTableRecord
  2
*D140
  0
BLOCK_RECORD
  5
8f
100
AcDbSymbolTableRecord
100
AcDbBlockTableRecord
  2
_AH1
  0
BLOCK_RECORD
  5
90
100
AcDbSymbolTableRecord
100
AcDbBlockTableRecord
  2
_AH2
  0
BLOCK_RECORD
  5
91
100
AcDbSymbolTableRecord
100
AcDbBlockTableRecord
  2
_AH12
  3
_AH
  0
BLOCK_RECORD
  5
92
100
AcDbSymbolTableRecord
100
AcDbBlockTableRecord
  2
_AH13
  3
_AH
  0
BLOCK_RECORD
  5
93
100
AcDbSymbolTableRecord
100
AcDbBlockTableRecord
  2
_AH14
  3
_AH
  0
BLOCK_RECORD
  5
94
100
AcDbSymbolTableRecord
100
AcDbBlockTableRecord
  2
_AH15
  3
_AH
  0
BLOCK_RECORD
  5
95
100
AcDbSymbolTableRecord
100
AcDbBlockTableRecord
  2
_AH16
  3
_AH
  0
BLOCK_RECORD
  5
96
100
AcDbSymbolTableRecord
100
AcDbBlockTableRecord
  2
_AH17
  3
_AH
  0
BLOCK_RECORD
  5
97
100
AcDbSymbolTableRecord
100
AcDbBlockTableRecord
  2
_AH18
  3
_AH
  0
BLOCK_RECORD
  5
98
100
AcDbSymbolTableRecord
100
AcDbBlockTableRecord
  2
_AH19
  3
_AH
  0
BLOCK_RECORD
  5
99
100
AcDbSymbolTableRecord
100
AcDbBlockTableRecord
  2
_AH20
  3
_AH
  0
BLOCK_RECORD
  5
9a
100
AcDbSymbolTableRecord
100
AcDbBlockTableRecord
  2
_AH21
  3
_AH
  0
ENDTAB
  0
ENDSEC
  0
SECTION
  2
BLOCKS
  0
BLOCK
  5
9b
100
AcDbEntity
100
AcDbBlockBegin
  2
*MODEL_SPACE
 70
0
 10
0.0
 20
0.0
 30
0.0
  3
*MODEL_SPACE
  1

  0
ENDBLK
  5
9c
100
AcDbEntity
100
AcDbBlockEnd
  0
BLOCK
  5
9d
100
AcDbEntity
100
AcDbBlockBegin
  2
*PAPER_SPACE
 70
0
 10
0.0
 20
0.0
 30
0.0
  3
*PAPER_SPACE
  1

  0
ENDBLK
  5
9e
100
AcDbEntity
100
AcDbBlockEnd
  0
BLOCK
  5
9f
100
AcDbEntity
100
AcDbBlockBegin
  2
_AH12
  3
_AH
 10
0.0
 20
0.0
 70
64
  0
LINE
  5
a0
100
AcDbEntity
  8
0
100
AcDbLine
  6
CONTINUOUS
 62
0
 10
0.0
 20
0.0
 11
1.0
 21
0.0
  0
LINE
  5
a1
100
AcDbEntity
  8
0
100
AcDbLine
  6
CONTINUOUS
 62
0
 10
0.0
 20
0.0
 11
-1.0
 21
0.0
  0
ENDBLK
  5
a2
100
AcDbEntity
100
AcDbBlockEnd
  0
BLOCK
  5
a3
100
AcDbEntity
100
AcDbBlockBegin
  2
_AH13
  3
_AH
 10
0.0
 20
0.0
 70
64
  0
SOLID
  5
a4
100
AcDbEntity
  8
0
100
AcDbTrace
  6
CONTINUOUS
 62
0
 10
0.0
 20
0.0
 11
1.0
 21
-1.66667E-001
 12
1.0
 22
1.66667E-001
 13
0.0
 23
0.0
  0
ENDBLK
  5
a5
100
AcDbEntity
100
AcDbBlockEnd
  0
BLOCK
  5
a6
100
AcDbEntity
100
AcDbBlockBegin
  2
_AH14
  3
_AH
 10
0.0
 20
0.0
 70
64
  0
ENDBLK
  5
a7
100
AcDbEntity
100
AcDbBlockEnd
  0
BLOCK
  5
a8
100
AcDbEntity
100
AcDbBlockBegin
  2
_AH15
  3
_AH
 10
0.0
 20
0.0
 70
64
  0
CIRCLE
  5
a9
100
AcDbEntity
  8
0
100
AcDbCircle
  6
CONTINUOUS
 62
0
 10
0.0
 20
0.0
 40
1.66667E-001
  0
LINE
  5
aa
100
AcDbEntity
  8
0
100
AcDbLine
  6
CONTINUOUS
 62
0
 10
0.0
 20
0.0
 11
-1.0
 21
0.0
  0
ENDBLK
  5
ab
100
AcDbEntity
100
AcDbBlockEnd
  0
BLOCK
  5
ac
100
AcDbEntity
100
AcDbBlockBegin
  2
_AH16
  3
_AH
 10
0.0
 20
0.0
 70
64
  0
POLYLINE
  5
ad
100
AcDbEntity
  8
0
100
AcDb2dPolyline
  6
CONTINUOUS
 62
0
 66
1
 40
1.66667E-001
 41
1.66667E-001
 70
0
  0
VERTEX
  5
ae
100
AcDbEntity
  8
0
100
AcDbVertex
100
AcDb2dVertex
 42
1.0
 10
8.3335E-002
 20
0.0
 70
0
  0
VERTEX
  5
af
100
AcDbEntity
  8
0
100
AcDbVertex
100
AcDb2dVertex
 42
1.0
 10
-8.3335E-002
 20
0.0
 70
0
  0
VERTEX
  5
b0
100
AcDbEntity
  8
0
100
AcDbVertex
100
AcDb2dVertex
 42
0.0
 10
8.3335E-002
 20
0.0
 70
0
  0
SEQEND
  5
b1
100
AcDbEntity
  0
LINE
  5
b2
100
AcDbEntity
  8
0
100
AcDbLine
  6
CONTINUOUS
 62
0
 10
0.0
 20
0.0
 11
-1.0
 21
0.0
  0
ENDBLK
  5
b3
100
AcDbEntity
100
AcDbBlockEnd
  0
BLOCK
  5
b4
100
AcDbEntity
100
AcDbBlockBegin
  2
_AH17
  3
_AH
 10
0.0
 20
0.0
 70
64
  0
LINE
  5
b5
100
AcDbEntity
  8
0
100
AcDbLine
  6
CONTINUOUS
 62
0
 10
-1.66667E-001
 20
-1.66667E-001
 11
1.66667E-001
 21
-1.66667E-001
  0
LINE
  5
b6
100
AcDbEntity
  8
0
100
AcDbLine
  6
CONTINUOUS
 62
0
 10
1.66667E-001
 20
-1.66667E-001
 11
1.66667E-001
 21
1.66667E-001
  0
LINE
  5
b7
100
AcDbEntity
  8
0
100
AcDbLine
  6
CONTINUOUS
 62
0
 10
1.66667E-001
 20
1.66667E-001
 11
-1.66667E-001
 21
1.66667E-001
  0
LINE
  5
b8
100
AcDbEntity
  8
0
100
AcDbLine
  6
CONTINUOUS
 62
0
 10
-1.66667E-001
 20
1.66667E-001
 11
-1.66667E-001
 21
-1.66667E-001
  0
LINE
  5
b9
100
AcDbEntity
  8
0
100
AcDbLine
  6
CONTINUOUS
 62
0
 10
0.0
 20
0.0
 11
-1.0
 21
0.0
  0
ENDBLK
  5
ba
100
AcDbEntity
100
AcDbBlockEnd
  0
BLOCK
  5
bb
100
AcDbEntity
100
AcDbBlockBegin
  2
_AH18
  3
_AH
 10
0.0
 20
0.0
 70
64
  0
SOLID
  5
bc
100
AcDbEntity
  8
0
100
AcDbTrace
  6
CONTINUOUS
 62
0
 10
-1.66667E-001
 20
-1.66667E-001
 11
1.66667E-001
 21
-1.66667E-001
 12
-1.66667E-001
 22
1.66667E-001
 13
1.66667E-001
 23
1.66667E-001
  0
LINE
  5
bd
100
AcDbEntity
  8
0
100
AcDbLine
  6
CONTINUOUS
 62
0
 10
0.0
 20
0.0
 11
-1.0
 21
0.0
  0
ENDBLK
  5
be
100
AcDbEntity
100
AcDbBlockEnd
  0
BLOCK
  5
bf
100
AcDbEntity
100
AcDbBlockBegin
  2
_AH19
  3
_AH
 10
0.0
 20
0.0
 70
64
  0
LINE
  5
c0
100
AcDbEntity
  8
0
100
AcDbLine
  6
CONTINUOUS
 62
0
 10
-5.0E-001
 20
-5.0E-001
 11
5.0E-001
 21
5.0E-001
  0
LINE
  5
c1
100
AcDbEntity
  8
0
100
AcDbLine
  6
CONTINUOUS
 62
0
 10
0.0
 20
0.0
 11
-1.0
 21
0.0
  0
ENDBLK
  5
c2
100
AcDbEntity
100
AcDbBlockEnd
  0
BLOCK
  5
c3
100
AcDbEntity
100
AcDbBlockBegin
  2
_AH20
  3
_AH
 10
0.0
 20
0.0
 70
64
  0
POLYLINE
  5
c4
100
AcDbEntity
  8
0
100
AcDb2dPolyline
  6
CONTINUOUS
 62
0
 66
1
 40
5.0E-001
 41
5.0E-001
 70
0
  0
VERTEX
  5
c5
100
AcDbEntity
  8
0
100
AcDbVertex
100
AcDb2dVertex
 42
4.1421356E-001
 10
-1.66667E-001
 20
-1.66667E-001
 70
0
  0
VERTEX
  5
c6
100
AcDbEntity
  8
0
100
AcDbVertex
100
AcDb2dVertex
 42
0.0
 10
0.0
 20
0.0
 70
0
  0
SEQEND
  5
c7
100
AcDbEntity
  0
POLYLINE
  5
c8
100
AcDbEntity
  8
0
100
AcDb2dPolyline
  6
CONTINUOUS
 62
0
 66
1
 40
5.0E-001
 41
5.0E-001
 70
0
  0
VERTEX
  5
c9
100
AcDbEntity
  8
0
100
AcDbVertex
100
AcDb2dVertex
 42
4.1421356E-001
 10
1.66667E-001
 20
1.66667E-001
 70
0
  0
VERTEX
  5
ca
100
AcDbEntity
  8
0
100
AcDbVertex
100
AcDb2dVertex
 42
0.0
 10
0.0
 20
0.0
 70
0
  0
SEQEND
  5
cb
100
AcDbEntity
  0
LINE
  5
cc
100
AcDbEntity
  8
0
100
AcDbLine
  6
CONTINUOUS
 62
0
 10
0.0
 20
0.0
 11
-1.0
 21
0.0
  0
ENDBLK
  5
cd
100
AcDbEntity
100
AcDbBlockEnd
  0
BLOCK
  5
ce
100
AcDbEntity
100
AcDbBlockBegin
  2
_AH21
  3
_AH
 10
0.0
 20
0.0
 70
64
  0
LINE
  5
cf
100
AcDbEntity
  8
0
100
AcDbLine
  6
CONTINUOUS
 62
0
 10
0.0
 20
0.0
 11
-1.0
 21
-1.66667E-001
  0
LINE
  5
d0
100
AcDbEntity
  8
0
100
AcDbLine
  6
CONTINUOUS
 62
0
 10
-1.0
 20
-1.66667E-001
 11
-1.0
 21
1.66667E-001
  0
LINE
  5
d1
100
AcDbEntity
  8
0
100
AcDbLine
  6
CONTINUOUS
 62
0
 10
-1.0
 20
1.66667E-001
 11
0.0
 21
0.0
  0
ENDBLK
  5
d2
100
AcDbEntity
100
AcDbBlockEnd
  0
BLOCK
  5
d3
100
AcDbEntity
100
AcDbBlockBegin
  2
_AH1
 70
0
 10
0.0
 20
0.0
  3
_AH1
  0
LINE
  5
d4
100
AcDbEntity
  8
0
100
AcDbLine
  6
CONTINUOUS
 62
0
 10
-1.0
 20
1.66667E-001
 11
0.0
 21
0.0
  0
LINE
  5
d5
100
AcDbEntity
  8
0
100
AcDbLine
  6
CONTINUOUS
 62
0
 10
0.0
 20
0.0
 11
-1.0
 21
-1.66667E-001
  0
LINE
  5
d6
100
AcDbEntity
  8
0
100
AcDbLine
  6
CONTINUOUS
 62
0
 10
-1.0
 20
1.66667E-001
 11
-1.0
 21
-1.66667E-001
  0
LINE
  5
d7
100
AcDbEntity
  8
0
100
AcDbLine
  6
CONTINUOUS
 62
0
 10
0.0
 20
0.0
 11
-1.0
 21
0.0
  0
ENDBLK
  5
d8
100
AcDbEntity
100
AcDbBlockEnd
  0
BLOCK
  5
d9
100
AcDbEntity
100
AcDbBlockBegin
  2
_AH2
 70
0
 10
0.0
 20
0.0
  3
_AH2
  0
LINE
  5
da
100
AcDbEntity
  8
0
100
AcDbLine
  6
CONTINUOUS
 62
0
 10
-1.0
 20
1.66667E-001
 11
0.0
 21
0.0
  0
LINE
  5
db
100
AcDbEntity
  8
0
100
AcDbLine
  6
CONTINUOUS
 62
0
 10
0.0
 20
0.0
 11
-1.0
 21
-1.66667E-001
  0
LINE
  5
dc
100
AcDbEntity
  8
0
100
AcDbLine
  6
CONTINUOUS
 62
0
 10
0.0
 20
0.0
 11
-1.0
 21
0.0
  0
ENDBLK
  5
dd
100
AcDbEntity
100
AcDbBlockEnd
  0
BLOCK
  5
de
100
AcDbEntity
100
AcDbBlockBegin
  2
*D127
  3
*D
 10
0.0
 20
0.0
 70
65
  0
LINE
  5
df
100
AcDbEntity
  8
2
100
AcDbLine
  6
CONTINUOUS
 62
3
 10
1.1219221E+002
 20
2.3616164E+002
 11
1.1219221E+002
 21
2.4719075E+002
  0
LINE
  5
e0
100
AcDbEntity
  8
2
100
AcDbLine
  6
CONTINUOUS
 62
3
 10
1.137357E+002
 20
2.3761685E+002
 11
1.137357E+002
 21
2.4864596E+002
  0
LINE
  5
e1
100
AcDbEntity
  8
2
100
AcDbLine
  6
CONTINUOUS
 62
3
 10
1.0910524E+002
 20
2.4180645E+002
 11
1.137357E+002
 21
2.461721E+002
  0
LINE
  5
e2
100
AcDbEntity
  8
2
100
AcDbLine
  6
CONTINUOUS
 62
3
 10
1.137357E+002
 20
2.461721E+002
 11
1.1841545E+002
 21
2.5058421E+002
  0
INSERT
  5
e3
100
AcDbEntity
100
AcDbBlockReference
  2
_AH1
  8
2
 62
3
 10
9.2363837E+001
 20
2.4803739E+002
 41
3.0
 42
3.0
 43
3.0
 50
1.8E+002
  0
INSERT
  5
e4
100
AcDbEntity
100
AcDbBlockReference
  2
_AH1
  8
2
 62
3
 10
8.9363837E+001
 20
2.4803739E+002
 41
3.0
 42
3.0
 43
3.0
 50
0.0
  0
ENDBLK
  5
e5
100
AcDbEntity
100
AcDbBlockEnd
  0
BLOCK
  5
e6
100
AcDbEntity
100
AcDbBlockBegin
  2
*D128
  3
*D
 10
0.0
 20
0.0
 70
65
  0
LINE
  5
e7
100
AcDbEntity
  8
2
100
AcDbLine
  6
CONTINUOUS
 62
3
 10
1.1219221E+002
 20
2.3616164E+002
 11
1.1219221E+002
 21
2.5792563E+002
  0
LINE
  5
e8
100
AcDbEntity
  8
2
100
AcDbLine
  6
CONTINUOUS
 62
3
 10
8.3037451E+001
 20
2.4605709E+002
 11
8.3037451E+001
 21
2.6782108E+002
  0
LINE
  5
e9
100
AcDbEntity
  8
2
100
AcDbLine
  6
CONTINUOUS
 62
3
 10
1.1219221E+002
 20
2.5545176E+002
 11
9.9757809E+001
 21
2.5967214E+002
  0
LINE
  5
ea
100
AcDbEntity
  8
2
100
AcDbLine
  6
CONTINUOUS
 62
3
 10
8.3037451E+001
 20
2.6534722E+002
 11
9.9757809E+001
 21
2.5967214E+002
  0
INSERT
  5
eb
100
AcDbEntity
100
AcDbBlockReference
  2
_AH1
  8
2
 62
3
 10
6.9710911E+001
 20
2.5209532E+002
 41
3.0
 42
3.0
 43
3.0
 50
1.8E+002
  0
INSERT
  5
ec
100
AcDbEntity
100
AcDbBlockReference
  2
_AH1
  8
2
 62
3
 10
1.0371091E+002
 20
2.5209532E+002
 41
3.0
 42
3.0
 43
3.0
 50
0.0
  0
ENDBLK
  5
ed
100
AcDbEntity
100
AcDbBlockEnd
  0
BLOCK
  5
ee
100
AcDbEntity
100
AcDbBlockBegin
  2
*D129
  3
*D
 10
0.0
 20
0.0
 70
65
  0
LINE
  5
ef
100
AcDbEntity
  8
2
100
AcDbLine
  6
CONTINUOUS
 62
3
 10
8.3037451E+001
 20
2.4605709E+002
 11
5.3341215E+001
 21
2.5613633E+002
  0
LINE
  5
f0
100
AcDbEntity
  8
2
100
AcDbLine
  6
CONTINUOUS
 62
3
 10
8.3037451E+001
 20
3.9901816E+001
 11
5.3341215E+001
 21
4.9981053E+001
  0
LINE
  5
f1
100
AcDbEntity
  8
2
100
AcDbLine
  6
CONTINUOUS
 62
3
 10
5.5913694E+001
 20
2.552632E+002
 11
5.5913694E+001
 21
1.3945608E+002
  0
LINE
  5
f2
100
AcDbEntity
  8
2
100
AcDbLine
  6
CONTINUOUS
 62
3
 10
5.5913694E+001
 20
4.9107924E+001
 11
5.5913694E+001
 21
1.3945608E+002
  0
INSERT
  5
f3
100
AcDbEntity
100
AcDbBlockReference
  2
_AH1
  8
2
 62
3
 10
-4.0419025E+001
 20
2.5137745E+002
 41
3.0
 42
3.0
 43
3.0
 50
1.8E+002
  0
INSERT
  5
f4
100
AcDbEntity
100
AcDbBlockReference
  2
_AH1
  8
2
 62
3
 10
2.0958098E+002
 20
2.5137745E+002
 41
3.0
 42
3.0
 43
3.0
 50
0.0
  0
ENDBLK
  5
f5
100
AcDbEntity
100
AcDbBlockEnd
  0
BLOCK
  5
f6
100
AcDbEntity
100
AcDbBlockBegin
  2
*D130
  3
*D
 10
0.0
 20
0.0
 70
65
  0
LINE
  5
f7
100
AcDbEntity
  8
2
100
AcDbLine
  6
CONTINUOUS
 62
3
 10
9.0754888E+001
 20
1.2139378E+002
 11
7.1348368E+001
 21
1.2798057E+002
  0
LINE
  5
f8
100
AcDbEntity
  8
2
100
AcDbLine
  6
CONTINUOUS
 62
3
 10
9.0754888E+001
 20
6.0371822E+001
 11
7.1348368E+001
 21
6.6958613E+001
  0
LINE
  5
f9
100
AcDbEntity
  8
2
100
AcDbLine
  6
CONTINUOUS
 62
3
 10
7.3920847E+001
 20
1.2710745E+002
 11
7.3920847E+001
 21
9.5760829E+001
  0
LINE
  5
fa
100
AcDbEntity
  8
2
100
AcDbLine
  6
CONTINUOUS
 62
3
 10
7.3920847E+001
 20
6.6085485E+001
 11
7.3920847E+001
 21
9.5760829E+001
  0
INSERT
  5
fb
100
AcDbEntity
100
AcDbBlockReference
  2
_AH1
  8
2
 62
3
 10
4.7580934E+001
 20
2.4098695E+002
 41
3.0
 42
3.0
 43
3.0
 50
1.8E+002
  0
INSERT
  5
fc
100
AcDbEntity
100
AcDbBlockReference
  2
_AH1
  8
2
 62
3
 10
1.2158093E+002
 20
2.4098695E+002
 41
3.0
 42
3.0
 43
3.0
 50
0.0
  0
ENDBLK
  5
fd
100
AcDbEntity
100
AcDbBlockEnd
  0
BLOCK
  5
fe
100
AcDbEntity
100
AcDbBlockBegin
  2
*D131
  3
*D
 10
0.0
 20
0.0
 70
65
  0
LINE
  5
ff
100
AcDbEntity
  8
2
100
AcDbLine
  6
CONTINUOUS
 62
3
 10
8.9039902E+001
 20
6.260315E+001
 11
8.9039902E+001
 21
4.9519913E+001
  0
LINE
  5
100
100
AcDbEntity
  8
2
100
AcDbLine
  6
CONTINUOUS
 62
3
 10
1.010448E+002
 20
5.8528551E+001
 11
1.010448E+002
 21
4.5445314E+001
  0
LINE
  5
101
100
AcDbEntity
  8
2
100
AcDbLine
  6
CONTINUOUS
 62
3
 10
1.010448E+002
 20
4.7919177E+001
 11
8.9039902E+001
 21
5.1993776E+001
  0
LINE
  5
102
100
AcDbEntity
  8
2
100
AcDbLine
  6
CONTINUOUS
 62
3
 10
1.010448E+002
 20
4.7919177E+001
 11
1.2138319E+002
 21
4.1016101E+001
  0
INSERT
  5
103
100
AcDbEntity
100
AcDbBlockReference
  2
_AH1
  8
2
 62
3
 10
7.7580938E+001
 20
2.5310188E+002
 41
3.0
 42
3.0
 43
3.0
 50
1.8E+002
  0
INSERT
  5
104
100
AcDbEntity
100
AcDbBlockReference
  2
_AH1
  8
2
 62
3
 10
9.1580938E+001
 20
2.5310188E+002
 41
3.0
 42
3.0
 43
3.0
 50
0.0
  0
ENDBLK
  5
105
100
AcDbEntity
100
AcDbBlockEnd
  0
BLOCK
  5
106
100
AcDbEntity
100
AcDbBlockBegin
  2
*D132
  3
*D
 10
0.0
 20
0.0
 70
65
  0
LINE
  5
107
100
AcDbEntity
  8
2
100
AcDbLine
  6
CONTINUOUS
 62
3
 10
1.010448E+002
 20
1.1625203E+002
 11
1.010448E+002
 21
6.893678E+001
  0
LINE
  5
108
100
AcDbEntity
  8
2
100
AcDbLine
  6
CONTINUOUS
 62
3
 10
1.1219221E+002
 20
3.0006363E+001
 11
1.1219221E+002
 21
7.0100951E+001
  0
LINE
  5
109
100
AcDbEntity
  8
2
100
AcDbLine
  6
CONTINUOUS
 62
3
 10
1.1219221E+002
 20
6.7627088E+001
 11
1.010448E+002
 21
7.1410643E+001
  0
LINE
  5
10a
100
AcDbEntity
  8
2
100
AcDbLine
  6
CONTINUOUS
 62
3
 10
1.1219221E+002
 20
6.7627088E+001
 11
1.2214056E+002
 21
6.4250507E+001
  0
INSERT
  5
10b
100
AcDbEntity
100
AcDbBlockReference
  2
_AH1
  8
2
 62
3
 10
6.4889722E+001
 20
2.7251244E+002
 41
3.0
 42
3.0
 43
3.0
 50
1.8E+002
  0
INSERT
  5
10c
100
AcDbEntity
100
AcDbBlockReference
  2
_AH1
  8
2
 62
3
 10
7.7889722E+001
 20
2.7251244E+002
 41
3.0
 42
3.0
 43
3.0
 50
0.0
  0
ENDBLK
  5
10d
100
AcDbEntity
100
AcDbBlockEnd
  0
BLOCK
  5
10e
100
AcDbEntity
100
AcDbBlockBegin
  2
*D133
  3
*D
 10
0.0
 20
0.0
 70
65
  0
LINE
  5
10f
100
AcDbEntity
  8
2
100
AcDbLine
  6
CONTINUOUS
 62
3
 10
1.1219221E+002
 20
2.3616164E+002
 11
1.1219221E+002
 21
1.5273712E+002
  0
LINE
  5
110
100
AcDbEntity
  8
2
100
AcDbLine
  6
CONTINUOUS
 62
3
 10
9.7014586E+001
 20
1.5225402E+002
 11
9.7014586E+001
 21
1.6283631E+002
  0
LINE
  5
111
100
AcDbEntity
  8
2
100
AcDbLine
  6
CONTINUOUS
 62
3
 10
1.1219221E+002
 20
1.5521099E+002
 11
1.0796805E+002
 21
1.5664471E+002
  0
LINE
  5
112
100
AcDbEntity
  8
2
100
AcDbLine
  6
CONTINUOUS
 62
3
 10
9.7014586E+001
 20
1.6036244E+002
 11
1.0796805E+002
 21
1.5664471E+002
  0
INSERT
  5
113
100
AcDbEntity
100
AcDbBlockReference
  2
_AH1
  8
2
 62
3
 10
9.343094E+001
 20
2.6786128E+002
 41
3.0
 42
3.0
 43
3.0
 50
0.0
  0
INSERT
  5
114
100
AcDbEntity
100
AcDbBlockReference
  2
_AH1
  8
2
 62
3
 10
7.573094E+001
 20
2.6786128E+002
 41
3.0
 42
3.0
 43
3.0
 50
1.8E+002
  0
ENDBLK
  5
115
100
AcDbEntity
100
AcDbBlockEnd
  0
BLOCK
  5
116
100
AcDbEntity
100
AcDbBlockBegin
  2
*D134
  3
*D
 10
0.0
 20
0.0
 70
65
  0
LINE
  5
117
100
AcDbEntity
  8
2
100
AcDbLine
  6
CONTINUOUS
 62
3
 10
8.801091E+001
 20
1.5530996E+002
 11
7.1409855E+001
 21
1.6094455E+002
  0
LINE
  5
118
100
AcDbEntity
  8
2
100
AcDbLine
  6
CONTINUOUS
 62
3
 10
9.0754888E+001
 20
1.2139378E+002
 11
7.1409855E+001
 21
1.2795971E+002
  0
LINE
  5
119
100
AcDbEntity
  8
2
100
AcDbLine
  6
CONTINUOUS
 62
3
 10
7.3982334E+001
 20
1.6007142E+002
 11
7.3982334E+001
 21
1.4032164E+002
  0
LINE
  5
11a
100
AcDbEntity
  8
2
100
AcDbLine
  6
CONTINUOUS
 62
3
 10
7.3982334E+001
 20
1.2708658E+002
 11
7.3982334E+001
 21
1.4032164E+002
  0
INSERT
  5
11b
100
AcDbEntity
100
AcDbBlockReference
  2
_AH1
  8
2
 62
3
 10
6.4580937E+001
 20
2.5489673E+002
 41
3.0
 42
3.0
 43
3.0
 50
1.8E+002
  0
INSERT
  5
11c
100
AcDbEntity
100
AcDbBlockReference
  2
_AH1
  8
2
 62
3
 10
1.0458094E+002
 20
2.5489673E+002
 41
3.0
 42
3.0
 43
3.0
 50
0.0
  0
ENDBLK
  5
11d
100
AcDbEntity
100
AcDbBlockEnd
  0
BLOCK
  5
11e
100
AcDbEntity
100
AcDbBlockBegin
  2
*D135
  3
*D
 10
0.0
 20
0.0
 70
65
  0
LINE
  5
11f
100
AcDbEntity
  8
2
100
AcDbLine
  6
CONTINUOUS
 62
3
 10
8.3037451E+001
 20
2.4605709E+002
 11
1.2524276E+002
 21
2.3173213E+002
  0
LINE
  5
120
100
AcDbEntity
  8
2
100
AcDbLine
  6
CONTINUOUS
 62
3
 10
1.0387453E+002
 20
1.6806734E+002
 11
1.2524276E+002
 21
1.6081472E+002
  0
LINE
  5
121
100
AcDbEntity
  8
2
100
AcDbLine
  6
CONTINUOUS
 62
3
 10
1.2267029E+002
 20
2.3260526E+002
 11
1.2267029E+002
 21
1.9074072E+002
  0
LINE
  5
122
100
AcDbEntity
  8
2
100
AcDbLine
  6
CONTINUOUS
 62
3
 10
1.2267029E+002
 20
1.6168785E+002
 11
1.2267029E+002
 21
1.9074072E+002
  0
INSERT
  5
123
100
AcDbEntity
100
AcDbBlockReference
  2
_AH1
  8
2
 62
3
 10
4.1580903E+001
 20
2.5616613E+002
 41
3.0
 42
3.0
 43
3.0
 50
1.8E+002
  0
INSERT
  5
124
100
AcDbEntity
100
AcDbBlockReference
  2
_AH1
  8
2
 62
3
 10
1.275809E+002
 20
2.5616613E+002
 41
3.0
 42
3.0
 43
3.0
 50
0.0
  0
ENDBLK
  5
125
100
AcDbEntity
100
AcDbBlockEnd
  0
BLOCK
  5
126
100
AcDbEntity
100
AcDbBlockBegin
  2
*D136
  3
*D
 10
0.0
 20
0.0
 70
65
  0
LINE
  5
127
100
AcDbEntity
  8
2
100
AcDbLine
  6
CONTINUOUS
 62
3
 10
1.0387453E+002
 20
1.6806734E+002
 11
1.2528947E+002
 21
1.6079886E+002
  0
LINE
  5
128
100
AcDbEntity
  8
2
100
AcDbLine
  6
CONTINUOUS
 62
3
 10
1.010448E+002
 20
8.739029E+001
 11
1.2528947E+002
 21
7.9161376E+001
  0
LINE
  5
129
100
AcDbEntity
  8
2
100
AcDbLine
  6
CONTINUOUS
 62
3
 10
1.2271699E+002
 20
1.6167199E+002
 11
1.2271699E+002
 21
1.1675075E+002
  0
LINE
  5
12a
100
AcDbEntity
  8
2
100
AcDbLine
  6
CONTINUOUS
 62
3
 10
1.2271699E+002
 20
8.0034504E+001
 11
1.2271699E+002
 21
1.1675075E+002
  0
INSERT
  5
12b
100
AcDbEntity
100
AcDbBlockReference
  2
_AH1
  8
2
 62
3
 10
3.5080954E+001
 20
2.4694461E+002
 41
3.0
 42
3.0
 43
3.0
 50
1.8E+002
  0
INSERT
  5
12c
100
AcDbEntity
100
AcDbBlockReference
  2
_AH1
  8
2
 62
3
 10
1.3408095E+002
 20
2.4694461E+002
 41
3.0
 42
3.0
 43
3.0
 50
0.0
  0
ENDBLK
  5
12d
100
AcDbEntity
100
AcDbBlockEnd
  0
BLOCK
  5
12e
100
AcDbEntity
100
AcDbBlockBegin
  2
*D137
  3
*D
 10
0.0
 20
0.0
 70
65
  0
LINE
  5
12f
100
AcDbEntity
  8
2
100
AcDbLine
  6
CONTINUOUS
 62
3
 10
8.3037451E+001
 20
2.4605709E+002
 11
7.1474121E+001
 21
2.4998182E+002
  0
LINE
  5
130
100
AcDbEntity
  8
2
100
AcDbLine
  6
CONTINUOUS
 62
3
 10
9.7614831E+001
 20
2.3533702E+002
 11
7.1474121E+001
 21
2.4420947E+002
  0
LINE
  5
131
100
AcDbEntity
  8
2
100
AcDbLine
  6
CONTINUOUS
 62
3
 10
7.40466E+001
 20
2.5405641E+002
 11
7.40466E+001
 21
2.4910869E+002
  0
LINE
  5
132
100
AcDbEntity
  8
2
100
AcDbLine
  6
CONTINUOUS
 62
3
 10
7.40466E+001
 20
2.3838861E+002
 11
7.40466E+001
 21
2.4910869E+002
  0
INSERT
  5
133
100
AcDbEntity
100
AcDbBlockReference
  2
_AH1
  8
2
 62
3
 10
7.3022633E+001
 20
2.4777527E+002
 41
3.0
 42
3.0
 43
3.0
 50
0.0
  0
INSERT
  5
134
100
AcDbEntity
100
AcDbBlockReference
  2
_AH1
  8
2
 62
3
 10
8.0022633E+001
 20
2.4777527E+002
 41
3.0
 42
3.0
 43
3.0
 50
1.8E+002
  0
ENDBLK
  5
135
100
AcDbEntity
100
AcDbBlockEnd
  0
BLOCK
  5
136
100
AcDbEntity
100
AcDbBlockBegin
  2
*D138
  3
*D
 10
0.0
 20
0.0
 70
65
  0
LINE
  5
137
100
AcDbEntity
  8
2
100
AcDbLine
  6
CONTINUOUS
 62
3
 10
9.7614831E+001
 20
2.3533702E+002
 11
6.2476341E+001
 21
2.4726341E+002
  0
LINE
  5
138
100
AcDbEntity
  8
2
100
AcDbLine
  6
CONTINUOUS
 62
3
 10
9.7614831E+001
 20
4.0726437E+001
 11
6.2476341E+001
 21
5.2652836E+001
  0
LINE
  5
139
100
AcDbEntity
  8
2
100
AcDbLine
  6
CONTINUOUS
 62
3
 10
6.504882E+001
 20
2.4639029E+002
 11
6.504882E+001
 21
1.4044555E+002
  0
LINE
  5
13a
100
AcDbEntity
  8
2
100
AcDbLine
  6
CONTINUOUS
 62
3
 10
6.504882E+001
 20
5.1779707E+001
 11
6.504882E+001
 21
1.4044555E+002
  0
INSERT
  5
13b
100
AcDbEntity
100
AcDbBlockReference
  2
_AH1
  8
2
 62
3
 10
-4.1715298E+001
 20
2.3818356E+002
 41
3.0
 42
3.0
 43
3.0
 50
1.8E+002
  0
INSERT
  5
13c
100
AcDbEntity
100
AcDbBlockReference
  2
_AH1
  8
2
 62
3
 10
1.942847E+002
 20
2.3818356E+002
 41
3.0
 42
3.0
 43
3.0
 50
0.0
  0
ENDBLK
  5
13d
100
AcDbEntity
100
AcDbBlockEnd
  0
BLOCK
  5
13e
100
AcDbEntity
100
AcDbBlockBegin
  2
*D139
  3
*D
 10
0.0
 20
0.0
 70
65
  0
LINE
  5
13f
100
AcDbEntity
  8
2
100
AcDbLine
  6
CONTINUOUS
 62
3
 10
1.1219221E+002
 20
2.3616164E+002
 11
1.1219221E+002
 21
1.9615272E+002
  0
LINE
  5
140
100
AcDbEntity
  8
2
100
AcDbLine
  6
CONTINUOUS
 62
3
 10
9.3584614E+001
 20
1.9320615E+002
 11
9.3584614E+001
 21
2.0741607E+002
  0
LINE
  5
141
100
AcDbEntity
  8
2
100
AcDbLine
  6
CONTINUOUS
 62
3
 10
1.1219221E+002
 20
1.9862658E+002
 11
1.0484139E+002
 21
2.0112153E+002
  0
LINE
  5
142
100
AcDbEntity
  8
2
100
AcDbLine
  6
CONTINUOUS
 62
3
 10
9.3584614E+001
 20
2.0494221E+002
 11
1.0484139E+002
 21
2.0112153E+002
  0
INSERT
  5
143
100
AcDbEntity
100
AcDbBlockReference
  2
_AH1
  8
2
 62
3
 10
9.5430944E+001
 20
2.489903E+002
 41
3.0
 42
3.0
 43
3.0
 50
0.0
  0
INSERT
  5
144
100
AcDbEntity
100
AcDbBlockReference
  2
_AH1
  8
2
 62
3
 10
7.3730944E+001
 20
2.489903E+002
 41
3.0
 42
3.0
 43
3.0
 50
1.8E+002
  0
ENDBLK
  5
145
100
AcDbEntity
100
AcDbBlockEnd
  0
BLOCK
  5
146
100
AcDbEntity
100
AcDbBlockBegin
  2
*D140
  3
*D
 10
0.0
 20
0.0
 70
65
  0
LINE
  5
147
100
AcDbEntity
  8
2
100
AcDbLine
  6
CONTINUOUS
 62
3
 10
1.1219221E+002
 20
2.3616164E+002
 11
1.1219221E+002
 21
1.8055345E+001
  0
LINE
  5
148
100
AcDbEntity
  8
2
100
AcDbLine
  6
CONTINUOUS
 62
3
 10
9.7614831E+001
 20
4.0726437E+001
 11
9.7614831E+001
 21
2.3003071E+001
  0
LINE
  5
149
100
AcDbEntity
  8
2
100
AcDbLine
  6
CONTINUOUS
 62
3
 10
1.1219221E+002
 20
2.0529208E+001
 11
1.046539E+002
 21
2.3087795E+001
  0
LINE
  5
14a
100
AcDbEntity
  8
2
100
AcDbLine
  6
CONTINUOUS
 62
3
 10
9.7614831E+001
 20
2.5476935E+001
 11
1.046539E+002
 21
2.3087795E+001
  0
INSERT
  5
14b
100
AcDbEntity
100
AcDbBlockReference
  2
_AH1
  8
2
 62
3
 10
9.6917123E+001
 20
2.3972333E+002
 41
3.0
 42
3.0
 43
3.0
 50
0.0
  0
INSERT
  5
14c
100
AcDbEntity
100
AcDbBlockReference
  2
_AH1
  8
2
 62
3
 10
7.9917123E+001
 20
2.3972333E+002
 41
3.0
 42
3.0
 43
3.0
 50
1.8E+002
  0
ENDBLK
  5
14d
100
AcDbEntity
100
AcDbBlockEnd
  0
ENDSEC
  0
SECTION
  2
ENTITIES
  0
ELLIPSE
  5
14e
100
AcDbEntity
  8
2
100
AcDbEllipse
  6
CONTINUOUS
 10
9.7614831E+001
 20
4.0726437E+001
 11
2.7439776
 21
-2.9104273
 40
7.0710678E-001
 41
0.0
 42
6.2831853
 62
1
  0
POLYLINE
  5
14f
100
AcDbEntity
  8
2
100
AcDb2dPolyline
  6
CONTINUOUS
 62
1
 66
1
 40
0.0
 41
0.0
 70
2
  0
VERTEX
  5
150
100
AcDbEntity
  8
2
100
AcDbVertex
100
AcDb2dVertex
 42
0.0
 10
9.7769199E+001
 20
3.7573454E+001
 70
0
  0
VERTEX
  5
151
100
AcDbEntity
  8
2
100
AcDbVertex
100
AcDb2dVertex
 42
5.7854503E-003
 10
9.7855332E+001
 20
3.7545245E+001
 70
1
  0
VERTEX
  5
152
100
AcDbEntity
  8
2
100
AcDbVertex
100
AcDb2dVertex
 42
5.617407E-003
 10
9.7942561E+001
 20
3.751883E+001
 70
0
  0
VERTEX
  5
153
100
AcDbEntity
  8
2
100
AcDbVertex
100
AcDb2dVertex
 42
5.6495889E-003
 10
9.8030943E+001
 20
3.7494268E+001
 70
1
  0
VERTEX
  5
154
100
AcDbEntity
  8
2
100
AcDbVertex
100
AcDb2dVertex
 42
5.932717E-003
 10
9.8120359E+001
 20
3.7471602E+001
 70
0
  0
VERTEX
  5
155
100
AcDbEntity
  8
2
100
AcDbVertex
100
AcDb2dVertex
 42
6.1321543E-003
 10
9.8210756E+001
 20
3.7451057E+001
 70
1
  0
VERTEX
  5
156
100
AcDbEntity
  8
2
100
AcDbVertex
100
AcDb2dVertex
 42
6.3161869E-003
 10
9.8302015E+001
 20
3.7432656E+001
 70
0
  0
VERTEX
  5
157
100
AcDbEntity
  8
2
100
AcDbVertex
100
AcDb2dVertex
 42
6.4907852E-003
 10
9.8394087E+001
 20
3.7416594E+001
 70
1
  0
VERTEX
  5
158
100
AcDbEntity
  8
2
100
AcDbVertex
100
AcDb2dVertex
 42
6.7202333E-003
 10
9.8486842E+001
 20
3.740289E+001
 70
0
  0
VERTEX
  5
159
100
AcDbEntity
  8
2
100
AcDbVertex
100
AcDb2dVertex
 42
6.9215852E-003
 10
9.8580204E+001
 20
3.7391755E+001
 70
1
  0
VERTEX
  5
15a
100
AcDbEntity
  8
2
100
AcDbVertex
100
AcDb2dVertex
 42
7.1602631E-003
 10
9.8674041E+001
 20
3.7383194E+001
 70
0
  0
VERTEX
  5
15b
100
AcDbEntity
  8
2
100
AcDbVertex
100
AcDb2dVertex
 42
7.3719751E-003
 10
9.8768253E+001
 20
3.7377425E+001
 70
1
  0
VERTEX
  5
15c
100
AcDbEntity
  8
2
100
AcDbVertex
100
AcDb2dVertex
 42
7.6213577E-003
 10
9.8862703E+001
 20
3.7374435E+001
 70
0
  0
VERTEX
  5
15d
100
AcDbEntity
  8
2
100
AcDbVertex
100
AcDb2dVertex
 42
7.8558268E-003
 10
9.8957268E+001
 20
3.7374445E+001
 70
1
  0
VERTEX
  5
15e
100
AcDbEntity
  8
2
100
AcDbVertex
100
AcDb2dVertex
 42
8.138397E-003
 10
9.9051814E+001
 20
3.7377434E+001
 70
0
  0
VERTEX
  5
15f
100
AcDbEntity
  8
2
100
AcDbVertex
100
AcDb2dVertex
 42
8.3549967E-003
 10
9.9146201E+001
 20
3.7383621E+001
 70
1
  0
VERTEX
  5
160
100
AcDbEntity
  8
2
100
AcDbVertex
100
AcDb2dVertex
 42
8.570404E-003
 10
9.9240262E+001
 20
3.7392943E+001
 70
0
  0
VERTEX
  5
161
100
AcDbEntity
  8
2
100
AcDbVertex
100
AcDb2dVertex
 42
8.8997381E-003
 10
9.9333822E+001
 20
3.7405607E+001
 70
1
  0
VERTEX
  5
162
100
AcDbEntity
  8
2
100
AcDbVertex
100
AcDb2dVertex
 42
9.3834292E-003
 10
9.9426847E+001
 20
3.7421629E+001
 70
0
  0
VERTEX
  5
163
100
AcDbEntity
  8
2
100
AcDbVertex
100
AcDb2dVertex
 42
9.3434169E-003
 10
9.9519187E+001
 20
3.7441241E+001
 70
1
  0
VERTEX
  5
164
100
AcDbEntity
  8
2
100
AcDbVertex
100
AcDb2dVertex
 42
8.9281943E-003
 10
9.96103E+001
 20
3.7464041E+001
 70
0
  0
VERTEX
  5
165
100
AcDbEntity
  8
2
100
AcDbVertex
100
AcDb2dVertex
 42
1.016122E-002
 10
9.9699838E+001
 20
3.7490113E+001
 70
1
  0
VERTEX
  5
166
100
AcDbEntity
  8
2
100
AcDbVertex
100
AcDb2dVertex
 42
1.2554456E-002
 10
9.9789301E+001
 20
3.7520597E+001
 70
0
  0
VERTEX
  5
167
100
AcDbEntity
  8
2
100
AcDbVertex
100
AcDb2dVertex
 42
9.638532E-003
 10
9.9879022E+001
 20
3.7556101E+001
 70
1
  0
VERTEX
  5
168
100
AcDbEntity
  8
2
100
AcDbVertex
100
AcDb2dVertex
 42
3.1216704E-003
 10
9.9962503E+001
 20
3.7591558E+001
 70
0
  0
VERTEX
  5
169
100
AcDbEntity
  8
2
100
AcDbVertex
100
AcDb2dVertex
 42
1.4151484E-002
 10
1.000373E+002
 20
3.7625424E+001
 70
1
  0
VERTEX
  5
16a
100
AcDbEntity
  8
2
100
AcDbVertex
100
AcDb2dVertex
 42
2.5221219E-002
 10
1.0012856E+002
 20
3.7677012E+001
 70
0
  0
VERTEX
  5
16b
100
AcDbEntity
  8
2
100
AcDbVertex
100
AcDb2dVertex
 42
1.2402711E-002
 10
1.0026253E+002
 20
3.7766878E+001
 70
1
  0
VERTEX
  5
16c
100
AcDbEntity
  8
2
100
AcDbVertex
100
AcDb2dVertex
 42
6.5049164E-003
 10
1.0043405E+002
 20
3.7890817E+001
 70
0
  0
SEQEND
  5
16d
100
AcDbEntity
  0
POLYLINE
  5
16e
100
AcDbEntity
  8
2
100
AcDb2dPolyline
  6
CONTINUOUS
 62
1
 66
1
 40
0.0
 41
0.0
 70
2
  0
VERTEX
  5
16f
100
AcDbEntity
  8
2
100
AcDbVertex
100
AcDb2dVertex
 42
0.0
 10
9.4949958E+001
 20
4.3707578E+001
 70
0
  0
VERTEX
  5
170
100
AcDbEntity
  8
2
100
AcDbVertex
100
AcDb2dVertex
 42
1.2816438E-002
 10
9.4879113E+001
 20
4.3629117E+001
 70
1
  0
VERTEX
  5
171
100
AcDbEntity
  8
2
100
AcDbVertex
100
AcDb2dVertex
 42
1.2692835E-002
 10
9.481262E+001
 20
4.3547602E+001
 70
0
  0
VERTEX
  5
172
100
AcDbEntity
  8
2
100
AcDbVertex
100
AcDb2dVertex
 42
1.2948691E-002
 10
9.4750781E+001
 20
4.3463101E+001
 70
1
  0
VERTEX
  5
173
100
AcDbEntity
  8
2
100
AcDbVertex
100
AcDb2dVertex
 42
1.2884947E-002
 10
9.469258E+001
 20
4.3374387E+001
 70
0
  0
VERTEX
  5
174
100
AcDbEntity
  8
2
100
AcDbVertex
100
AcDb2dVertex
 42
1.2570049E-002
 10
9.4637363E+001
 20
4.327985E+001
 70
1
  0
VERTEX
  5
175
100
AcDbEntity
  8
2
100
AcDbVertex
100
AcDb2dVertex
 42
1.2874951E-002
 10
9.4585434E+001
 20
4.3179752E+001
 70
0
  0
VERTEX
  5
176
100
AcDbEntity
  8
2
100
AcDbVertex
100
AcDb2dVertex
 42
1.2940862E-002
 10
9.4537578E+001
 20
4.3074148E+001
 70
1
  0
VERTEX
  5
177
100
AcDbEntity
  8
2
100
AcDbVertex
100
AcDb2dVertex
 42
1.2892972E-002
 10
9.4493971E+001
 20
4.2963232E+001
 70
0
  0
VERTEX
  5
178
100
AcDbEntity
  8
2
100
AcDbVertex
100
AcDb2dVertex
 42
1.2728805E-002
 10
9.4455096E+001
 20
4.2846723E+001
 70
1
  0
VERTEX
  5
179
100
AcDbEntity
  8
2
100
AcDbVertex
100
AcDb2dVertex
 42
1.2709429E-002
 10
9.4421129E+001
 20
4.2724917E+001
 70
0
  0
VERTEX
  5
17a
100
AcDbEntity
  8
2
100
AcDbVertex
100
AcDb2dVertex
 42
1.2531521E-002
 10
9.4392664E+001
 20
4.2597709E+001
 70
1
  0
VERTEX
  5
17b
100
AcDbEntity
  8
2
100
AcDbVertex
100
AcDb2dVertex
 42
1.2415311E-002
 10
9.4369824E+001
 20
4.2465458E+001
 70
0
  0
VERTEX
  5
17c
100
AcDbEntity
  8
2
100
AcDbVertex
100
AcDb2dVertex
 42
1.2177243E-002
 10
9.4353187E+001
 20
4.2328125E+001
 70
1
  0
VERTEX
  5
17d
100
AcDbEntity
  8
2
100
AcDbVertex
100
AcDb2dVertex
 42
1.2022869E-002
 10
9.4342817E+001
 20
4.2186142E+001
 70
0
  0
VERTEX
  5
17e
100
AcDbEntity
  8
2
100
AcDbVertex
100
AcDb2dVertex
 42
1.1760212E-002
 10
9.4339284E+001
 20
4.2039582E+001
 70
1
  0
VERTEX
  5
17f
100
AcDbEntity
  8
2
100
AcDbVertex
100
AcDb2dVertex
 42
1.1570764E-002
 10
9.4342574E+001
 20
4.1888942E+001
 70
0
  0
VERTEX
  5
180
100
AcDbEntity
  8
2
100
AcDbVertex
100
AcDb2dVertex
 42
1.1295512E-002
 10
9.4353216E+001
 20
4.1734407E+001
 70
1
  0
VERTEX
  5
181
100
AcDbEntity
  8
2
100
AcDbVertex
100
AcDb2dVertex
 42
1.1089435E-002
 10
9.4371105E+001
 20
4.157653E+001
 70
0
  0
VERTEX
  5
182
100
AcDbEntity
  8
2
100
AcDbVertex
100
AcDb2dVertex
 42
1.0817384E-002
 10
9.4396708E+001
 20
4.141561E+001
 70
1
  0
VERTEX
  5
183
100
AcDbEntity
  8
2
100
AcDbVertex
100
AcDb2dVertex
 42
1.060611E-002
 10
9.4429816E+001
 20
4.125224E+001
 70
0
  0
VERTEX
  5
184
100
AcDbEntity
  8
2
100
AcDbVertex
100
AcDb2dVertex
 42
1.0348138E-002
 10
9.4470813E+001
 20
4.1086829E+001
 70
1
  0
VERTEX
  5
185
100
AcDbEntity
  8
2
100
AcDbVertex
100
AcDb2dVertex
 42
1.0141436E-002
 10
9.4519383E+001
 20
4.0919987E+001
 70
0
  0
VERTEX
  5
186
100
AcDbEntity
  8
2
100
AcDbVertex
100
AcDb2dVertex
 42
9.9055032E-003
 10
9.4575804E+001
 20
4.0752221E+001
 70
1
  0
VERTEX
  5
187
100
AcDbEntity
  8
2
100
AcDbVertex
100
AcDb2dVertex
 42
9.7099339E-003
 10
9.4639655E+001
 20
4.0584133E+001
 70
0
  0
VERTEX
  5
188
100
AcDbEntity
  8
2
100
AcDbVertex
100
AcDb2dVertex
 42
9.5009587E-003
 10
9.4711098E+001
 20
4.0416306E+001
 70
1
  0
VERTEX
  5
189
100
AcDbEntity
  8
2
100
AcDbVertex
100
AcDb2dVertex
 42
9.3208434E-003
 10
9.4789616E+001
 20
4.0249307E+001
 70
0
  0
VERTEX
  5
18a
100
AcDbEntity
  8
2
100
AcDbVertex
100
AcDb2dVertex
 42
9.1411896E-003
 10
9.4875248E+001
 20
4.0083771E+001
 70
1
  0
VERTEX
  5
18b
100
AcDbEntity
  8
2
100
AcDbVertex
100
AcDb2dVertex
 42
8.9784276E-003
 10
9.4967398E+001
 20
3.9920201E+001
 70
0
  0
VERTEX
  5
18c
100
AcDbEntity
  8
2
100
AcDbVertex
100
AcDb2dVertex
 42
8.829264E-003
 10
9.5065986E+001
 20
3.9759256E+001
 70
1
  0
VERTEX
  5
18d
100
AcDbEntity
  8
2
100
AcDbVertex
100
AcDb2dVertex
 42
8.68594E-003
 10
9.517036E+001
 20
3.9601352E+001
 70
0
  0
VERTEX
  5
18e
100
AcDbEntity
  8
2
100
AcDbVertex
100
AcDb2dVertex
 42
8.5649081E-003
 10
9.528033E+001
 20
3.9447141E+001
 70
1
  0
VERTEX
  5
18f
100
AcDbEntity
  8
2
100
AcDbVertex
100
AcDb2dVertex
 42
8.4362699E-003
 10
9.5395213E+001
 20
3.9296937E+001
 70
0
  0
VERTEX
  5
190
100
AcDbEntity
  8
2
100
AcDbVertex
100
AcDb2dVertex
 42
8.348132E-003
 10
9.5514723E+001
 20
3.9151359E+001
 70
1
  0
VERTEX
  5
191
100
AcDbEntity
  8
2
100
AcDbVertex
100
AcDb2dVertex
 42
8.2493542E-003
 10
9.5638192E+001
 20
3.9010597E+001
 70
0
  0
VERTEX
  5
192
100
AcDbEntity
  8
2
100
AcDbVertex
100
AcDb2dVertex
 42
8.1698153E-003
 10
9.5765265E+001
 20
3.8875215E+001
 70
1
  0
VERTEX
  5
193
100
AcDbEntity
  8
2
100
AcDbVertex
100
AcDb2dVertex
 42
8.0428236E-003
 10
9.5895246E+001
 20
3.8745303E+001
 70
0
  0
VERTEX
  5
194
100
AcDbEntity
  8
2
100
AcDbVertex
100
AcDb2dVertex
 42
8.04818E-003
 10
9.6027712E+001
 20
3.8621362E+001
 70
1
  0
VERTEX
  5
195
100
AcDbEntity
  8
2
100
AcDbVertex
100
AcDb2dVertex
 42
8.0879333E-003
 10
9.6162238E+001
 20
3.8503279E+001
 70
0
  0
VERTEX
  5
196
100
AcDbEntity
  8
2
100
AcDbVertex
100
AcDb2dVertex
 42
7.9001137E-003
 10
9.6298454E+001
 20
3.8391447E+001
 70
1
  0
VERTEX
  5
197
100
AcDbEntity
  8
2
100
AcDbVertex
100
AcDb2dVertex
 42
7.4356988E-003
 10
9.6435122E+001
 20
3.8285978E+001
 70
0
  0
VERTEX
  5
198
100
AcDbEntity
  8
2
100
AcDbVertex
100
AcDb2dVertex
 42
8.0024684E-003
 10
9.6571561E+001
 20
3.8187296E+001
 70
1
  0
VERTEX
  5
199
100
AcDbEntity
  8
2
100
AcDbVertex
100
AcDb2dVertex
 42
9.1981674E-003
 10
9.67101E+001
 20
3.8094108E+001
 70
0
  0
VERTEX
  5
19a
100
AcDbEntity
  8
2
100
AcDbVertex
100
AcDb2dVertex
 42
7.376469E-003
 10
9.6851269E+001
 20
3.8006305E+001
 70
1
  0
VERTEX
  5
19b
100
AcDbEntity
  8
2
100
AcDbVertex
100
AcDb2dVertex
 42
3.3282874E-003
 10
9.6983741E+001
 20
3.79277E+001
 70
0
  0
VERTEX
  5
19c
100
AcDbEntity
  8
2
100
AcDbVertex
100
AcDb2dVertex
 42
9.6800987E-003
 10
9.7103336E+001
 20
3.785989E+001
 70
1
  0
VERTEX
  5
19d
100
AcDbEntity
  8
2
100
AcDbVertex
100
AcDb2dVertex
 42
1.65601E-002
 10
9.7253058E+001
 20
3.7786199E+001
 70
0
  0
VERTEX
  5
19e
100
AcDbEntity
  8
2
100
AcDbVertex
100
AcDb2dVertex
 42
8.8174171E-003
 10
9.7477986E+001
 20
3.7689663E+001
 70
1
  0
VERTEX
  5
19f
100
AcDbEntity
  8
2
100
AcDbVertex
100
AcDb2dVertex
 42
4.9927217E-003
 10
9.7769199E+001
 20
3.7573454E+001
 70
0
  0
SEQEND
  5
1a0
100
AcDbEntity
  0
POLYLINE
  5
1a1
100
AcDbEntity
  8
2
100
AcDb2dPolyline
  6
CONTINUOUS
 62
1
 66
1
 40
0.0
 41
0.0
 70
2
  0
VERTEX
  5
1a2
100
AcDbEntity
  8
2
100
AcDbVertex
100
AcDb2dVertex
 42
0.0
 10
9.6945675E+001
 20
4.0096186E+001
 70
0
  0
VERTEX
  5
1a3
100
AcDbEntity
  8
2
100
AcDbVertex
100
AcDb2dVertex
 42
1.975728E-004
 10
9.6945694E+001
 20
4.0096165E+001
 70
1
  0
VERTEX
  5
1a4
100
AcDbEntity
  8
2
100
AcDbVertex
100
AcDb2dVertex
 42
1.926992E-004
 10
9.6945713E+001
 20
4.0096144E+001
 70
0
  0
VERTEX
  5
1a5
100
AcDbEntity
  8
2
100
AcDbVertex
100
AcDb2dVertex
 42
1.878131E-004
 10
9.6945733E+001
 20
4.0096122E+001
 70
1
  0
VERTEX
  5
1a6
100
AcDbEntity
  8
2
100
AcDbVertex
100
AcDb2dVertex
 42
1.832918E-004
 10
9.6945752E+001
 20
4.0096101E+001
 70
0
  0
VERTEX
  5
1a7
100
AcDbEntity
  8
2
100
AcDbVertex
100
AcDb2dVertex
 42
1.787546E-004
 10
9.6945773E+001
 20
4.0096079E+001
 70
1
  0
VERTEX
  5
1a8
100
AcDbEntity
  8
2
100
AcDbVertex
100
AcDb2dVertex
 42
1.745587E-004
 10
9.6945793E+001
 20
4.0096057E+001
 70
0
  0
VERTEX
  5
1a9
100
AcDbEntity
  8
2
100
AcDbVertex
100
AcDb2dVertex
 42
1.703373E-004
 10
9.6945813E+001
 20
4.0096034E+001
 70
1
  0
VERTEX
  5
1aa
100
AcDbEntity
  8
2
100
AcDbVertex
100
AcDb2dVertex
 42
1.66422E-004
 10
9.6945834E+001
 20
4.0096012E+001
 70
0
  0
VERTEX
  5
1ab
100
AcDbEntity
  8
2
100
AcDbVertex
100
AcDb2dVertex
 42
1.625034E-004
 10
9.6945855E+001
 20
4.0095989E+001
 70
1
  0
VERTEX
  5
1ac
100
AcDbEntity
  8
2
100
AcDbVertex
100
AcDb2dVertex
 42
1.58882E-004
 10
9.6945877E+001
 20
4.0095966E+001
 70
0
  0
VERTEX
  5
1ad
100
AcDbEntity
  8
2
100
AcDbVertex
100
AcDb2dVertex
 42
1.551833E-004
 10
9.6945898E+001
 20
4.0095942E+001
 70
1
  0
VERTEX
  5
1ae
100
AcDbEntity
  8
2
100
AcDbVertex
100
AcDb2dVertex
 42
1.517044E-004
 10
9.694592E+001
 20
4.0095919E+001
 70
0
  0
VERTEX
  5
1af
100
AcDbEntity
  8
2
100
AcDbVertex
100
AcDb2dVertex
 42
1.483877E-004
 10
9.6945942E+001
 20
4.0095895E+001
 70
1
  0
VERTEX
  5
1b0
100
AcDbEntity
  8
2
100
AcDbVertex
100
AcDb2dVertex
 42
1.454614E-004
 10
9.6945965E+001
 20
4.0095871E+001
 70
0
  0
VERTEX
  5
1b1
100
AcDbEntity
  8
2
100
AcDbVertex
100
AcDb2dVertex
 42
1.418914E-004
 10
9.6945987E+001
 20
4.0095846E+001
 70
1
  0
VERTEX
  5
1b2
100
AcDbEntity
  8
2
100
AcDbVertex
100
AcDb2dVertex
 42
1.38078E-004
 10
9.694601E+001
 20
4.0095822E+001
 70
0
  0
VERTEX
  5
1b3
100
AcDbEntity
  8
2
100
AcDbVertex
100
AcDb2dVertex
 42
1.362779E-004
 10
9.6946033E+001
 20
4.0095797E+001
 70
1
  0
VERTEX
  5
1b4
100
AcDbEntity
  8
2
100
AcDbVertex
100
AcDb2dVertex
 42
1.36146E-004
 10
9.6946057E+001
 20
4.0095772E+001
 70
0
  0
VERTEX
  5
1b5
100
AcDbEntity
  8
2
100
AcDbVertex
100
AcDb2dVertex
 42
1.294371E-004
 10
9.694608E+001
 20
4.0095746E+001
 70
1
  0
VERTEX
  5
1b6
100
AcDbEntity
  8
2
100
AcDbVertex
100
AcDb2dVertex
 42
1.185293E-004
 10
9.6946104E+001
 20
4.0095721E+001
 70
0
  0
VERTEX
  5
1b7
100
AcDbEntity
  8
2
100
AcDbVertex
100
AcDb2dVertex
 42
1.28235E-004
 10
9.6946128E+001
 20
4.0095695E+001
 70
1
  0
VERTEX
  5
1b8
100
AcDbEntity
  8
2
100
AcDbVertex
100
AcDb2dVertex
 42
1.494517E-004
 10
9.6946153E+001
 20
4.0095669E+001
 70
0
  0
VERTEX
  5
1b9
100
AcDbEntity
  8
2
100
AcDbVertex
100
AcDb2dVertex
 42
1.108319E-004
 10
9.6946179E+001
 20
4.0095641E+001
 70
1
  0
VERTEX
  5
1ba
100
AcDbEntity
  8
2
100
AcDbVertex
100
AcDb2dVertex
 42
3.7608E-005
 10
9.6946203E+001
 20
4.0095616E+001
 70
0
  0
VERTEX
  5
1bb
100
AcDbEntity
  8
2
100
AcDbVertex
100
AcDb2dVertex
 42
1.52754E-004
 10
9.6946225E+001
 20
4.0095592E+001
 70
1
  0
VERTEX
  5
1bc
100
AcDbEntity
  8
2
100
AcDbVertex
100
AcDb2dVertex
 42
2.53003E-004
 10
9.6946254E+001
 20
4.0095562E+001
 70
0
  0
VERTEX
  5
1bd
100
AcDbEntity
  8
2
100
AcDbVertex
100
AcDb2dVertex
 42
1.196869E-004
 10
9.6946299E+001
 20
4.0095514E+001
 70
1
  0
VERTEX
  5
1be
100
AcDbEntity
  8
2
100
AcDbVertex
100
AcDb2dVertex
 42
6.24857E-005
 10
9.6946358E+001
 20
4.009545E+001
 70
0
  0
SEQEND
  5
1bf
100
AcDbEntity
  0
POLYLINE
  5
1c0
100
AcDbEntity
  8
2
100
AcDb2dPolyline
  6
CONTINUOUS
 62
1
 66
1
 40
0.0
 41
0.0
 70
2
  0
VERTEX
  5
1c1
100
AcDbEntity
  8
2
100
AcDbVertex
100
AcDb2dVertex
 42
0.0
 10
9.5931247E+001
 20
4.2159305E+001
 70
0
  0
VERTEX
  5
1c2
100
AcDbEntity
  8
2
100
AcDbVertex
100
AcDb2dVertex
 42
8.5462929E-003
 10
9.5982313E+001
 20
4.2014137E+001
 70
1
  0
VERTEX
  5
1c3
100
AcDbEntity
  8
2
100
AcDbVertex
100
AcDb2dVertex
 42
8.359441E-003
 10
9.6038803E+001
 20
4.1869163E+001
 70
0
  0
VERTEX
  5
1c4
100
AcDbEntity
  8
2
100
AcDbVertex
100
AcDb2dVertex
 42
8.1602774E-003
 10
9.6100966E+001
 20
4.1724332E+001
 70
1
  0
VERTEX
  5
1c5
100
AcDbEntity
  8
2
100
AcDbVertex
100
AcDb2dVertex
 42
8.0525278E-003
 10
9.6168425E+001
 20
4.1580043E+001
 70
0
  0
VERTEX
  5
1c6
100
AcDbEntity
  8
2
100
AcDbVertex
100
AcDb2dVertex
 42
7.9333338E-003
 10
9.6241206E+001
 20
4.1436818E+001
 70
1
  0
VERTEX
  5
1c7
100
AcDbEntity
  8
2
100
AcDbVertex
100
AcDb2dVertex
 42
7.8000059E-003
 10
9.6318905E+001
 20
4.1294971E+001
 70
0
  0
VERTEX
  5
1c8
100
AcDbEntity
  8
2
100
AcDbVertex
100
AcDb2dVertex
 42
7.6788089E-003
 10
9.6401516E+001
 20
4.1154903E+001
 70
1
  0
VERTEX
  5
1c9
100
AcDbEntity
  8
2
100
AcDbVertex
100
AcDb2dVertex
 42
7.5710757E-003
 10
9.6488602E+001
 20
4.1016891E+001
 70
0
  0
VERTEX
  5
1ca
100
AcDbEntity
  8
2
100
AcDbVertex
100
AcDb2dVertex
 42
7.4760876E-003
 10
9.658008E+001
 20
4.0881376E+001
 70
1
  0
VERTEX
  5
1cb
100
AcDbEntity
  8
2
100
AcDbVertex
100
AcDb2dVertex
 42
7.376553E-003
 10
9.6675498E+001
 20
4.074857E+001
 70
0
  0
VERTEX
  5
1cc
100
AcDbEntity
  8
2
100
AcDbVertex
100
AcDb2dVertex
 42
7.296668E-003
 10
9.6774716E+001
 20
4.0618898E+001
 70
1
  0
VERTEX
  5
1cd
100
AcDbEntity
  8
2
100
AcDbVertex
100
AcDb2dVertex
 42
7.2068393E-003
 10
9.6877275E+001
 20
4.0492508E+001
 70
0
  0
VERTEX
  5
1ce
100
AcDbEntity
  8
2
100
AcDbVertex
100
AcDb2dVertex
 42
7.1494602E-003
 10
9.6982984E+001
 20
4.0369804E+001
 70
1
  0
VERTEX
  5
1cf
100
AcDbEntity
  8
2
100
AcDbVertex
100
AcDb2dVertex
 42
7.081601E-003
 10
9.7091406E+001
 20
4.0250859E+001
 70
0
  0
VERTEX
  5
1d0
100
AcDbEntity
  8
2
100
AcDbVertex
100
AcDb2dVertex
 42
7.024273E-003
 10
9.7202316E+001
 20
4.0136045E+001
 70
1
  0
VERTEX
  5
1d1
100
AcDbEntity
  8
2
100
AcDbVertex
100
AcDb2dVertex
 42
6.9261422E-003
 10
9.7315248E+001
 20
4.0025387E+001
 70
0
  0
VERTEX
  5
1d2
100
AcDbEntity
  8
2
100
AcDbVertex
100
AcDb2dVertex
 42
6.9399756E-003
 10
9.7429933E+001
 20
3.9919224E+001
 70
1
  0
VERTEX
  5
1d3
100
AcDbEntity
  8
2
100
AcDbVertex
100
AcDb2dVertex
 42
6.9898439E-003
 10
9.7546137E+001
 20
3.981743E+001
 70
0
  0
VERTEX
  5
1d4
100
AcDbEntity
  8
2
100
AcDbVertex
100
AcDb2dVertex
 42
6.8214098E-003
 10
9.7663641E+001
 20
3.9720273E+001
 70
1
  0
VERTEX
  5
1d5
100
AcDbEntity
  8
2
100
AcDbVertex
100
AcDb2dVertex
 42
6.4116864E-003
 10
9.7781471E+001
 20
3.9627901E+001
 70
0
  0
VERTEX
  5
1d6
100
AcDbEntity
  8
2
100
AcDbVertex
100
AcDb2dVertex
 42
6.9241272E-003
 10
9.7899131E+001
 20
3.9540654E+001
 70
1
  0
VERTEX
  5
1d7
100
AcDbEntity
  8
2
100
AcDbVertex
100
AcDb2dVertex
 42
8.0019737E-003
 10
9.8018786E+001
 20
3.9457293E+001
 70
0
  0
VERTEX
  5
1d8
100
AcDbEntity
  8
2
100
AcDbVertex
100
AcDb2dVertex
 42
6.3591066E-003
 10
9.8141008E+001
 20
3.9377651E+001
 70
1
  0
VERTEX
  5
1d9
100
AcDbEntity
  8
2
100
AcDbVertex
100
AcDb2dVertex
 42
2.7625067E-003
 10
9.8255814E+001
 20
3.9305718E+001
 70
0
  0
VERTEX
  5
1da
100
AcDbEntity
  8
2
100
AcDbVertex
100
AcDb2dVertex
 42
8.4345603E-003
 10
9.8359583E+001
 20
3.9243098E+001
 70
1
  0
VERTEX
  5
1db
100
AcDbEntity
  8
2
100
AcDbVertex
100
AcDb2dVertex
 42
1.4441111E-002
 10
9.8490522E+001
 20
3.9172944E+001
 70
0
  0
VERTEX
  5
1dc
100
AcDbEntity
  8
2
100
AcDbVertex
100
AcDb2dVertex
 42
7.5756272E-003
 10
9.8688704E+001
 20
3.9077978E+001
 70
1
  0
VERTEX
  5
1dd
100
AcDbEntity
  8
2
100
AcDbVertex
100
AcDb2dVertex
 42
4.2406271E-003
 10
9.8946184E+001
 20
3.8961482E+001
 70
0
  0
SEQEND
  5
1de
100
AcDbEntity
  0
POLYLINE
  5
1df
100
AcDbEntity
  8
2
100
AcDb2dPolyline
  6
CONTINUOUS
 62
1
 66
1
 40
0.0
 41
0.0
 70
2
  0
VERTEX
  5
1e0
100
AcDbEntity
  8
2
100
AcDbVertex
100
AcDb2dVertex
 42
0.0
 10
9.8283698E+001
 20
3.888319E+001
 70
0
  0
VERTEX
  5
1e1
100
AcDbEntity
  8
2
100
AcDbVertex
100
AcDb2dVertex
 42
1.1109067E-002
 10
9.8401424E+001
 20
3.8845711E+001
 70
1
  0
VERTEX
  5
1e2
100
AcDbEntity
  8
2
100
AcDbVertex
100
AcDb2dVertex
 42
1.0601089E-002
 10
9.8521588E+001
 20
3.8813046E+001
 70
0
  0
VERTEX
  5
1e3
100
AcDbEntity
  8
2
100
AcDbVertex
100
AcDb2dVertex
 42
1.0726333E-002
 10
9.8644349E+001
 20
3.8785316E+001
 70
1
  0
VERTEX
  5
1e4
100
AcDbEntity
  8
2
100
AcDbVertex
100
AcDb2dVertex
 42
1.1725533E-002
 10
9.8769204E+001
 20
3.8762857E+001
 70
0
  0
VERTEX
  5
1e5
100
AcDbEntity
  8
2
100
AcDbVertex
100
AcDb2dVertex
 42
1.2466731E-002
 10
9.8895727E+001
 20
3.8746545E+001
 70
1
  0
VERTEX
  5
1e6
100
AcDbEntity
  8
2
100
AcDbVertex
100
AcDb2dVertex
 42
1.3172389E-002
 10
9.9023376E+001
 20
3.87366E+001
 70
0
  0
VERTEX
  5
1e7
100
AcDbEntity
  8
2
100
AcDbVertex
100
AcDb2dVertex
 42
1.3859735E-002
 10
9.9151689E+001
 20
3.8733734E+001
 70
1
  0
VERTEX
  5
1e8
100
AcDbEntity
  8
2
100
AcDbVertex
100
AcDb2dVertex
 42
1.4751339E-002
 10
9.9280052E+001
 20
3.8738097E+001
 70
0
  0
VERTEX
  5
1e9
100
AcDbEntity
  8
2
100
AcDbVertex
100
AcDb2dVertex
 42
1.5548449E-002
 10
9.9407824E+001
 20
3.8750423E+001
 70
1
  0
VERTEX
  5
1ea
100
AcDbEntity
  8
2
100
AcDbVertex
100
AcDb2dVertex
 42
1.6458496E-002
 10
9.9534359E+001
 20
3.8770735E+001
 70
0
  0
VERTEX
  5
1eb
100
AcDbEntity
  8
2
100
AcDbVertex
100
AcDb2dVertex
 42
1.7262855E-002
 10
9.9658889E+001
 20
3.8799681E+001
 70
1
  0
VERTEX
  5
1ec
100
AcDbEntity
  8
2
100
AcDbVertex
100
AcDb2dVertex
 42
1.8143963E-002
 10
9.978077E+001
 20
3.8837128E+001
 70
0
  0
VERTEX
  5
1ed
100
AcDbEntity
  8
2
100
AcDbVertex
100
AcDb2dVertex
 42
1.8899687E-002
 10
9.9899129E+001
 20
3.8883599E+001
 70
1
  0
VERTEX
  5
1ee
100
AcDbEntity
  8
2
100
AcDbVertex
100
AcDb2dVertex
 42
1.9681052E-002
 10
1.0001337E+002
 20
3.8938798E+001
 70
0
  0
VERTEX
  5
1ef
100
AcDbEntity
  8
2
100
AcDbVertex
100
AcDb2dVertex
 42
2.0204693E-002
 10
1.0012257E+002
 20
3.9003084E+001
 70
1
  0
VERTEX
  5
1f0
100
AcDbEntity
  8
2
100
AcDbVertex
100
AcDb2dVertex
 42
2.0591128E-002
 10
1.0022624E+002
 20
3.9075909E+001
 70
0
  0
VERTEX
  5
1f1
100
AcDbEntity
  8
2
100
AcDbVertex
100
AcDb2dVertex
 42
2.1005732E-002
 10
1.0032345E+002
 20
3.9157407E+001
 70
1
  0
VERTEX
  5
1f2
100
AcDbEntity
  8
2
100
AcDbVertex
100
AcDb2dVertex
 42
2.149621E-002
 10
1.0041385E+002
 20
3.9247095E+001
 70
0
  0
VERTEX
  5
1f3
100
AcDbEntity
  8
2
100
AcDbVertex
100
AcDb2dVertex
 42
2.0895504E-002
 10
1.0049659E+002
 20
3.9344975E+001
 70
1
  0
VERTEX
  5
1f4
100
AcDbEntity
  8
2
100
AcDbVertex
100
AcDb2dVertex
 42
1.9496534E-002
 10
1.0057155E+002
 20
3.944945E+001
 70
0
  0
VERTEX
  5
1f5
100
AcDbEntity
  8
2
100
AcDbVertex
100
AcDb2dVertex
 42
2.0758492E-002
 10
1.0063799E+002
 20
3.9559978E+001
 70
1
  0
VERTEX
  5
1f6
100
AcDbEntity
  8
2
100
AcDbVertex
100
AcDb2dVertex
 42
2.3488478E-002
 10
1.0069585E+002
 20
3.9678673E+001
 70
0
  0
VERTEX
  5
1f7
100
AcDbEntity
  8
2
100
AcDbVertex
100
AcDb2dVertex
 42
1.7773649E-002
 10
1.0074448E+002
 20
3.980612E+001
 70
1
  0
VERTEX
  5
1f8
100
AcDbEntity
  8
2
100
AcDbVertex
100
AcDb2dVertex
 42
7.3538881E-003
 10
1.0078476E+002
 20
3.9929369E+001
 70
0
  0
VERTEX
  5
1f9
100
AcDbEntity
  8
2
100
AcDbVertex
100
AcDb2dVertex
 42
2.2610838E-002
 10
1.0081651E+002
 20
4.0043688E+001
 70
1
  0
VERTEX
  5
1fa
100
AcDbEntity
  8
2
100
AcDbVertex
100
AcDb2dVertex
 42
3.5501929E-002
 10
1.0083784E+002
 20
4.0195458E+001
 70
0
  0
VERTEX
  5
1fb
100
AcDbEntity
  8
2
100
AcDbVertex
100
AcDb2dVertex
 42
1.6868826E-002
 10
1.0084603E+002
 20
4.0433782E+001
 70
1
  0
VERTEX
  5
1fc
100
AcDbEntity
  8
2
100
AcDbVertex
100
AcDb2dVertex
 42
8.8690516E-003
 10
1.008419E+002
 20
4.0748783E+001
 70
0
  0
SEQEND
  5
1fd
100
AcDbEntity
  0
POLYLINE
  5
1fe
100
AcDbEntity
  8
2
100
AcDb2dPolyline
  6
CONTINUOUS
 62
1
 66
1
 40
0.0
 41
0.0
 70
2
  0
VERTEX
  5
1ff
100
AcDbEntity
  8
2
100
AcDbVertex
100
AcDb2dVertex
 42
0.0
 10
9.7826966E+001
 20
4.3946606E+001
 70
0
  0
VERTEX
  5
200
100
AcDbEntity
  8
2
100
AcDbVertex
100
AcDb2dVertex
 42
1.5146571E-002
 10
9.766324E+001
 20
4.3968203E+001
 70
1
  0
VERTEX
  5
201
100
AcDbEntity
  8
2
100
AcDbVertex
100
AcDb2dVertex
 42
1.6535787E-002
 10
9.7504045E+001
 20
4.3979162E+001
 70
0
  0
VERTEX
  5
202
100
AcDbEntity
  8
2
100
AcDbVertex
100
AcDb2dVertex
 42
1.7353712E-002
 10
9.7349445E+001
 20
4.3978985E+001
 70
1
  0
VERTEX
  5
203
100
AcDbEntity
  8
2
100
AcDbVertex
100
AcDb2dVertex
 42
1.7695352E-002
 10
9.72001E+001
 20
4.39685E+001
 70
0
  0
VERTEX
  5
204
100
AcDbEntity
  8
2
100
AcDbVertex
100
AcDb2dVertex
 42
1.8278218E-002
 10
9.7057229E+001
 20
4.3947797E+001
 70
1
  0
VERTEX
  5
205
100
AcDbEntity
  8
2
100
AcDbVertex
100
AcDb2dVertex
 42
1.8657262E-002
 10
9.6921105E+001
 20
4.3917838E+001
 70
0
  0
VERTEX
  5
206
100
AcDbEntity
  8
2
100
AcDbVertex
100
AcDb2dVertex
 42
1.9104839E-002
 10
9.6792441E+001
 20
4.3878857E+001
 70
1
  0
VERTEX
  5
207
100
AcDbEntity
  8
2
100
AcDbVertex
100
AcDb2dVertex
 42
1.9247712E-002
 10
9.6671269E+001
 20
4.3831902E+001
 70
0
  0
VERTEX
  5
208
100
AcDbEntity
  8
2
100
AcDbVertex
100
AcDb2dVertex
 42
1.9466302E-002
 10
9.6558184E+001
 20
4.3777387E+001
 70
1
  0
VERTEX
  5
209
100
AcDbEntity
  8
2
100
AcDbVertex
100
AcDb2dVertex
 42
1.9304772E-002
 10
9.6452974E+001
 20
4.3716367E+001
 70
0
  0
VERTEX
  5
20a
100
AcDbEntity
  8
2
100
AcDbVertex
100
AcDb2dVertex
 42
1.9279251E-002
 10
9.6356016E+001
 20
4.3649355E+001
 70
1
  0
VERTEX
  5
20b
100
AcDbEntity
  8
2
100
AcDbVertex
100
AcDb2dVertex
 42
1.8942724E-002
 10
9.6266922E+001
 20
4.3577301E+001
 70
0
  0
VERTEX
  5
20c
100
AcDbEntity
  8
2
100
AcDbVertex
100
AcDb2dVertex
 42
1.852272E-002
 10
9.6185907E+001
 20
4.3500747E+001
 70
1
  0
VERTEX
  5
20d
100
AcDbEntity
  8
2
100
AcDbVertex
100
AcDb2dVertex
 42
1.7556915E-002
 10
9.6112413E+001
 20
4.3420683E+001
 70
0
  0
VERTEX
  5
20e
100
AcDbEntity
  8
2
100
AcDbVertex
100
AcDb2dVertex
 42
1.7738287E-002
 10
9.6046239E+001
 20
4.3337292E+001
 70
1
  0
VERTEX
  5
20f
100
AcDbEntity
  8
2
100
AcDbVertex
100
AcDb2dVertex
 42
1.7606191E-002
 10
9.5985546E+001
 20
4.3248689E+001
 70
0
  0
VERTEX
  5
210
100
AcDbEntity
  8
2
100
AcDbVertex
100
AcDb2dVertex
 42
1.7002791E-002
 10
9.5929151E+001
 20
4.3152454E+001
 70
1
  0
VERTEX
  5
211
100
AcDbEntity
  8
2
100
AcDbVertex
100
AcDb2dVertex
 42
1.7531738E-002
 10
9.5877458E+001
 20
4.3048666E+001
 70
0
  0
VERTEX
  5
212
100
AcDbEntity
  8
2
100
AcDbVertex
100
AcDb2dVertex
 42
1.7554254E-002
 10
9.5831642E+001
 20
4.2937178E+001
 70
1
  0
VERTEX
  5
213
100
AcDbEntity
  8
2
100
AcDbVertex
100
AcDb2dVertex
 42
1.7440826E-002
 10
9.5792126E+001
 20
4.2818327E+001
 70
0
  0
VERTEX
  5
214
100
AcDbEntity
  8
2
100
AcDbVertex
100
AcDb2dVertex
 42
1.7083184E-002
 10
9.575981E+001
 20
4.2691852E+001
 70
1
  0
VERTEX
  5
215
100
AcDbEntity
  8
2
100
AcDbVertex
100
AcDb2dVertex
 42
1.694279E-002
 10
9.573507E+001
 20
4.2558296E+001
 70
0
  0
VERTEX
  5
216
100
AcDbEntity
  8
2
100
AcDbVertex
100
AcDb2dVertex
 42
1.6518919E-002
 10
9.5718904E+001
 20
4.2417685E+001
 70
1
  0
VERTEX
  5
217
100
AcDbEntity
  8
2
100
AcDbVertex
100
AcDb2dVertex
 42
1.6213918E-002
 10
9.5711547E+001
 20
4.2270747E+001
 70
0
  0
VERTEX
  5
218
100
AcDbEntity
  8
2
100
AcDbVertex
100
AcDb2dVertex
 42
1.5709696E-002
 10
9.5713919E+001
 20
4.2117748E+001
 70
1
  0
VERTEX
  5
219
100
AcDbEntity
  8
2
100
AcDbVertex
100
AcDb2dVertex
 42
1.5347657E-002
 10
9.572606E+001
 20
4.1959595E+001
 70
0
  0
VERTEX
  5
21a
100
AcDbEntity
  8
2
100
AcDbVertex
100
AcDb2dVertex
 42
1.4838125E-002
 10
9.5748763E+001
 20
4.1796833E+001
 70
1
  0
VERTEX
  5
21b
100
AcDbEntity
  8
2
100
AcDbVertex
100
AcDb2dVertex
 42
1.4450049E-002
 10
9.5781823E+001
 20
4.1630509E+001
 70
0
  0
VERTEX
  5
21c
100
AcDbEntity
  8
2
100
AcDbVertex
100
AcDb2dVertex
 42
1.3972902E-002
 10
9.582582E+001
 20
4.1461428E+001
 70
1
  0
VERTEX
  5
21d
100
AcDbEntity
  8
2
100
AcDbVertex
100
AcDb2dVertex
 42
1.3598088E-002
 10
9.588028E+001
 20
4.1290708E+001
 70
0
  0
VERTEX
  5
21e
100
AcDbEntity
  8
2
100
AcDbVertex
100
AcDb2dVertex
 42
1.3178683E-002
 10
9.5945513E+001
 20
4.1119368E+001
 70
1
  0
VERTEX
  5
21f
100
AcDbEntity
  8
2
100
AcDbVertex
100
AcDb2dVertex
 42
1.283052E-002
 10
9.6020776E+001
 20
4.0948516E+001
 70
0
  0
VERTEX
  5
220
100
AcDbEntity
  8
2
100
AcDbVertex
100
AcDb2dVertex
 42
1.2490735E-002
 10
9.6106075E+001
 20
4.0779304E+001
 70
1
  0
VERTEX
  5
221
100
AcDbEntity
  8
2
100
AcDbVertex
100
AcDb2dVertex
 42
1.220164E-002
 10
9.6200455E+001
 20
4.0612728E+001
 70
0
  0
VERTEX
  5
222
100
AcDbEntity
  8
2
100
AcDbVertex
100
AcDb2dVertex
 42
1.1914718E-002
 10
9.6303633E+001
 20
4.0449978E+001
 70
1
  0
VERTEX
  5
223
100
AcDbEntity
  8
2
100
AcDbVertex
100
AcDb2dVertex
 42
1.1613088E-002
 10
9.6414439E+001
 20
4.0291876E+001
 70
0
  0
VERTEX
  5
224
100
AcDbEntity
  8
2
100
AcDbVertex
100
AcDb2dVertex
 42
1.1481432E-002
 10
9.6532317E+001
 20
4.0139565E+001
 70
1
  0
VERTEX
  5
225
100
AcDbEntity
  8
2
100
AcDbVertex
100
AcDb2dVertex
 42
1.1420981E-002
 10
9.6656259E+001
 20
3.9993519E+001
 70
0
  0
VERTEX
  5
226
100
AcDbEntity
  8
2
100
AcDbVertex
100
AcDb2dVertex
 42
1.1078563E-002
 10
9.6785603E+001
 20
3.9854711E+001
 70
1
  0
VERTEX
  5
227
100
AcDbEntity
  8
2
100
AcDbVertex
100
AcDb2dVertex
 42
1.0395744E-002
 10
9.6918463E+001
 20
3.9723679E+001
 70
0
  0
VERTEX
  5
228
100
AcDbEntity
  8
2
100
AcDbVertex
100
AcDb2dVertex
 42
1.105964E-002
 10
9.7053763E+001
 20
3.9601326E+001
 70
1
  0
VERTEX
  5
229
100
AcDbEntity
  8
2
100
AcDbVertex
100
AcDb2dVertex
 42
1.2530395E-002
 10
9.7193292E+001
 20
3.9486507E+001
 70
0
  0
VERTEX
  5
22a
100
AcDbEntity
  8
2
100
AcDbVertex
100
AcDb2dVertex
 42
1.015898E-002
 10
9.7337178E+001
 20
3.9379427E+001
 70
1
  0
VERTEX
  5
22b
100
AcDbEntity
  8
2
100
AcDbVertex
100
AcDb2dVertex
 42
4.8866253E-003
 10
9.7473303E+001
 20
3.9284201E+001
 70
0
  0
VERTEX
  5
22c
100
AcDbEntity
  8
2
100
AcDbVertex
100
AcDb2dVertex
 42
1.3027783E-002
 10
9.7596983E+001
 20
3.9202713E+001
 70
1
  0
VERTEX
  5
22d
100
AcDbEntity
  8
2
100
AcDbVertex
100
AcDb2dVertex
 42
2.2147616E-002
 10
9.7751853E+001
 20
3.9117148E+001
 70
0
  0
VERTEX
  5
22e
100
AcDbEntity
  8
2
100
AcDbVertex
100
AcDb2dVertex
 42
1.2103451E-002
 10
9.7983791E+001
 20
3.9009545E+001
 70
1
  0
VERTEX
  5
22f
100
AcDbEntity
  8
2
100
AcDbVertex
100
AcDb2dVertex
 42
6.9780756E-003
 10
9.8283698E+001
 20
3.888319E+001
 70
0
  0
SEQEND
  5
230
100
AcDbEntity
  0
POLYLINE
  5
231
100
AcDbEntity
  8
2
100
AcDb2dPolyline
  6
CONTINUOUS
 62
1
 66
1
 40
0.0
 41
0.0
 70
2
  0
VERTEX
  5
232
100
AcDbEntity
  8
2
100
AcDbVertex
100
AcDb2dVertex
 42
0.0
 10
9.8489497E+001
 20
3.9077217E+001
 70
0
  0
VERTEX
  5
233
100
AcDbEntity
  8
2
100
AcDbVertex
100
AcDb2dVertex
 42
5.602256E-003
 10
9.8552175E+001
 20
3.9056666E+001
 70
1
  0
VERTEX
  5
234
100
AcDbEntity
  8
2
100
AcDbVertex
100
AcDb2dVertex
 42
5.4436202E-003
 10
9.861563E+001
 20
3.9037379E+001
 70
0
  0
VERTEX
  5
235
100
AcDbEntity
  8
2
100
AcDbVertex
100
AcDb2dVertex
 42
5.4737214E-003
 10
9.8679902E+001
 20
3.9019395E+001
 70
1
  0
VERTEX
  5
236
100
AcDbEntity
  8
2
100
AcDbVertex
100
AcDb2dVertex
 42
5.7396798E-003
 10
9.8744909E+001
 20
3.9002745E+001
 70
0
  0
VERTEX
  5
237
100
AcDbEntity
  8
2
100
AcDbVertex
100
AcDb2dVertex
 42
5.9266348E-003
 10
9.8810615E+001
 20
3.8987584E+001
 70
1
  0
VERTEX
  5
238
100
AcDbEntity
  8
2
100
AcDbVertex
100
AcDb2dVertex
 42
6.0989157E-003
 10
9.8876939E+001
 20
3.8973926E+001
 70
0
  0
VERTEX
  5
239
100
AcDbEntity
  8
2
100
AcDbVertex
100
AcDb2dVertex
 42
6.2621222E-003
 10
9.8943849E+001
 20
3.8961906E+001
 70
1
  0
VERTEX
  5
23a
100
AcDbEntity
  8
2
100
AcDbVertex
100
AcDb2dVertex
 42
6.4766562E-003
 10
9.9011255E+001
 20
3.8951535E+001
 70
0
  0
VERTEX
  5
23b
100
AcDbEntity
  8
2
100
AcDbVertex
100
AcDb2dVertex
 42
6.6646014E-003
 10
9.9079109E+001
 20
3.894296E+001
 70
1
  0
VERTEX
  5
23c
100
AcDbEntity
  8
2
100
AcDbVertex
100
AcDb2dVertex
 42
6.8875184E-003
 10
9.9147318E+001
 20
3.8936184E+001
 70
0
  0
VERTEX
  5
23d
100
AcDbEntity
  8
2
100
AcDbVertex
100
AcDb2dVertex
 42
7.084847E-003
 10
9.9215819E+001
 20
3.8931356E+001
 70
1
  0
VERTEX
  5
23e
100
AcDbEntity
  8
2
100
AcDbVertex
100
AcDb2dVertex
 42
7.3174996E-003
 10
9.9284515E+001
 20
3.892847E+001
 70
0
  0
VERTEX
  5
23f
100
AcDbEntity
  8
2
100
AcDbVertex
100
AcDb2dVertex
 42
7.5363112E-003
 10
9.9353326E+001
 20
3.8927676E+001
 70
1
  0
VERTEX
  5
240
100
AcDbEntity
  8
2
100
AcDbVertex
100
AcDb2dVertex
 42
7.8007502E-003
 10
9.9422162E+001
 20
3.8928962E+001
 70
0
  0
VERTEX
  5
241
100
AcDbEntity
  8
2
100
AcDbVertex
100
AcDb2dVertex
 42
8.0023378E-003
 10
9.9490927E+001
 20
3.893248E+001
 70
1
  0
VERTEX
  5
242
100
AcDbEntity
  8
2
100
AcDbVertex
100
AcDb2dVertex
 42
8.2026267E-003
 10
9.9559508E+001
 20
3.8938186E+001
 70
0
  0
VERTEX
  5
243
100
AcDbEntity
  8
2
100
AcDbVertex
100
AcDb2dVertex
 42
8.5132217E-003
 10
9.9627785E+001
 20
3.8946227E+001
 70
1
  0
VERTEX
  5
244
100
AcDbEntity
  8
2
100
AcDbVertex
100
AcDb2dVertex
 42
8.9721201E-003
 10
9.9695743E+001
 20
3.8956615E+001
 70
0
  0
VERTEX
  5
245
100
AcDbEntity
  8
2
100
AcDbVertex
100
AcDb2dVertex
 42
8.9295489E-003
 10
9.9763283E+001
 20
3.8969513E+001
 70
1
  0
VERTEX
  5
246
100
AcDbEntity
  8
2
100
AcDbVertex
100
AcDb2dVertex
 42
8.5286494E-003
 10
9.9830008E+001
 20
3.8984646E+001
 70
0
  0
VERTEX
  5
247
100
AcDbEntity
  8
2
100
AcDbVertex
100
AcDb2dVertex
 42
9.7096529E-003
 10
9.9895673E+001
 20
3.9002076E+001
 70
1
  0
VERTEX
  5
248
100
AcDbEntity
  8
2
100
AcDbVertex
100
AcDb2dVertex
 42
1.2003937E-002
 10
9.9961407E+001
 20
3.9022592E+001
 70
0
  0
VERTEX
  5
249
100
AcDbEntity
  8
2
100
AcDbVertex
100
AcDb2dVertex
 42
9.2116629E-003
 10
1.0002748E+002
 20
3.904662E+001
 70
1
  0
VERTEX
  5
24a
100
AcDbEntity
  8
2
100
AcDbVertex
100
AcDb2dVertex
 42
2.9661554E-003
 10
1.0008902E+002
 20
3.9070668E+001
 70
0
  0
VERTEX
  5
24b
100
AcDbEntity
  8
2
100
AcDbVertex
100
AcDb2dVertex
 42
1.3548981E-002
 10
1.0014422E+002
 20
3.9093678E+001
 70
1
  0
VERTEX
  5
24c
100
AcDbEntity
  8
2
100
AcDbVertex
100
AcDb2dVertex
 42
2.4192271E-002
 10
1.0021192E+002
 20
3.9128974E+001
 70
0
  0
VERTEX
  5
24d
100
AcDbEntity
  8
2
100
AcDbVertex
100
AcDb2dVertex
 42
1.1909633E-002
 10
1.003118E+002
 20
3.9190743E+001
 70
1
  0
VERTEX
  5
24e
100
AcDbEntity
  8
2
100
AcDbVertex
100
AcDb2dVertex
 42
6.2498088E-003
 10
1.0043998E+002
 20
3.927608E+001
 70
0
  0
SEQEND
  5
24f
100
AcDbEntity
  0
POLYLINE
  5
250
100
AcDbEntity
  8
2
100
AcDb2dPolyline
  6
CONTINUOUS
 62
1
 66
1
 40
0.0
 41
0.0
 70
2
  0
VERTEX
  5
251
100
AcDbEntity
  8
2
100
AcDbVertex
100
AcDb2dVertex
 42
0.0
 10
9.633317E+001
 20
4.3632008E+001
 70
0
  0
VERTEX
  5
252
100
AcDbEntity
  8
2
100
AcDbVertex
100
AcDb2dVertex
 42
1.3109454E-002
 10
9.6284065E+001
 20
4.3573145E+001
 70
1
  0
VERTEX
  5
253
100
AcDbEntity
  8
2
100
AcDbVertex
100
AcDb2dVertex
 42
1.2537938E-002
 10
9.6237498E+001
 20
4.3511219E+001
 70
0
  0
VERTEX
  5
254
100
AcDbEntity
  8
2
100
AcDbVertex
100
AcDb2dVertex
 42
1.2465535E-002
 10
9.6193591E+001
 20
4.3446175E+001
 70
1
  0
VERTEX
  5
255
100
AcDbEntity
  8
2
100
AcDbVertex
100
AcDb2dVertex
 42
1.267754E-002
 10
9.6152127E+001
 20
4.3377648E+001
 70
0
  0
VERTEX
  5
256
100
AcDbEntity
  8
2
100
AcDbVertex
100
AcDb2dVertex
 42
1.2580496E-002
 10
9.6113141E+001
 20
4.3304968E+001
 70
1
  0
VERTEX
  5
257
100
AcDbEntity
  8
2
100
AcDbVertex
100
AcDb2dVertex
 42
1.2703777E-002
 10
9.6076812E+001
 20
4.322831E+001
 70
0
  0
VERTEX
  5
258
100
AcDbEntity
  8
2
100
AcDbVertex
100
AcDb2dVertex
 42
1.2667219E-002
 10
9.6043595E+001
 20
4.3147613E+001
 70
1
  0
VERTEX
  5
259
100
AcDbEntity
  8
2
100
AcDbVertex
100
AcDb2dVertex
 42
1.2646427E-002
 10
9.6013622E+001
 20
4.3063044E+001
 70
0
  0
VERTEX
  5
25a
100
AcDbEntity
  8
2
100
AcDbVertex
100
AcDb2dVertex
 42
1.2488985E-002
 10
9.5987274E+001
 20
4.2974444E+001
 70
1
  0
VERTEX
  5
25b
100
AcDbEntity
  8
2
100
AcDbVertex
100
AcDb2dVertex
 42
1.2433252E-002
 10
9.5964664E+001
 20
4.2882041E+001
 70
0
  0
VERTEX
  5
25c
100
AcDbEntity
  8
2
100
AcDbVertex
100
AcDb2dVertex
 42
1.2238786E-002
 10
9.5946215E+001
 20
4.278577E+001
 70
1
  0
VERTEX
  5
25d
100
AcDbEntity
  8
2
100
AcDbVertex
100
AcDb2dVertex
 42
1.2114981E-002
 10
9.5932002E+001
 20
4.2685906E+001
 70
0
  0
VERTEX
  5
25e
100
AcDbEntity
  8
2
100
AcDbVertex
100
AcDb2dVertex
 42
1.1876173E-002
 10
9.592244E+001
 20
4.2582443E+001
 70
1
  0
VERTEX
  5
25f
100
AcDbEntity
  8
2
100
AcDbVertex
100
AcDb2dVertex
 42
1.1714641E-002
 10
9.5917559E+001
 20
4.2475706E+001
 70
0
  0
VERTEX
  5
260
100
AcDbEntity
  8
2
100
AcDbVertex
100
AcDb2dVertex
 42
1.1454982E-002
 10
9.5917762E+001
 20
4.2365768E+001
 70
1
  0
VERTEX
  5
261
100
AcDbEntity
  8
2
100
AcDbVertex
100
AcDb2dVertex
 42
1.1265727E-002
 10
9.5923018E+001
 20
4.2252997E+001
 70
0
  0
VERTEX
  5
262
100
AcDbEntity
  8
2
100
AcDbVertex
100
AcDb2dVertex
 42
1.0998651E-002
 10
9.59337E+001
 20
4.2137547E+001
 70
1
  0
VERTEX
  5
263
100
AcDbEntity
  8
2
100
AcDbVertex
100
AcDb2dVertex
 42
1.0796489E-002
 10
9.5949711E+001
 20
4.2019824E+001
 70
0
  0
VERTEX
  5
264
100
AcDbEntity
  8
2
100
AcDbVertex
100
AcDb2dVertex
 42
1.053536E-002
 10
9.5971374E+001
 20
4.190006E+001
 70
1
  0
VERTEX
  5
265
100
AcDbEntity
  8
2
100
AcDbVertex
100
AcDb2dVertex
 42
1.0330882E-002
 10
9.5998518E+001
 20
4.1778686E+001
 70
0
  0
VERTEX
  5
266
100
AcDbEntity
  8
2
100
AcDbVertex
100
AcDb2dVertex
 42
1.0085308E-002
 10
9.6031404E+001
 20
4.1656011E+001
 70
1
  0
VERTEX
  5
267
100
AcDbEntity
  8
2
100
AcDbVertex
100
AcDb2dVertex
 42
9.8868903E-003
 10
9.6069785E+001
 20
4.1532473E+001
 70
0
  0
VERTEX
  5
268
100
AcDbEntity
  8
2
100
AcDbVertex
100
AcDb2dVertex
 42
9.6636063E-003
 10
9.6113846E+001
 20
4.1408447E+001
 70
1
  0
VERTEX
  5
269
100
AcDbEntity
  8
2
100
AcDbVertex
100
AcDb2dVertex
 42
9.4768891E-003
 10
9.6163267E+001
 20
4.1284361E+001
 70
0
  0
VERTEX
  5
26a
100
AcDbEntity
  8
2
100
AcDbVertex
100
AcDb2dVertex
 42
9.2799874E-003
 10
9.6218149E+001
 20
4.1160641E+001
 70
1
  0
VERTEX
  5
26b
100
AcDbEntity
  8
2
100
AcDbVertex
100
AcDb2dVertex
 42
9.1086008E-003
 10
9.6278106E+001
 20
4.1037686E+001
 70
0
  0
VERTEX
  5
26c
100
AcDbEntity
  8
2
100
AcDbVertex
100
AcDb2dVertex
 42
8.9399048E-003
 10
9.6343153E+001
 20
4.0915954E+001
 70
1
  0
VERTEX
  5
26d
100
AcDbEntity
  8
2
100
AcDbVertex
100
AcDb2dVertex
 42
8.785319E-003
 10
9.6412853E+001
 20
4.0795796E+001
 70
0
  0
VERTEX
  5
26e
100
AcDbEntity
  8
2
100
AcDbVertex
100
AcDb2dVertex
 42
8.6456881E-003
 10
9.6487135E+001
 20
4.0677685E+001
 70
1
  0
VERTEX
  5
26f
100
AcDbEntity
  8
2
100
AcDbVertex
100
AcDb2dVertex
 42
8.5097173E-003
 10
9.6565526E+001
 20
4.0561904E+001
 70
0
  0
VERTEX
  5
270
100
AcDbEntity
  8
2
100
AcDbVertex
100
AcDb2dVertex
 42
8.396694E-003
 10
9.6647881E+001
 20
4.0448921E+001
 70
1
  0
VERTEX
  5
271
100
AcDbEntity
  8
2
100
AcDbVertex
100
AcDb2dVertex
 42
8.2745363E-003
 10
9.6733707E+001
 20
4.0338945E+001
 70
0
  0
VERTEX
  5
272
100
AcDbEntity
  8
2
100
AcDbVertex
100
AcDb2dVertex
 42
8.1927808E-003
 10
9.6822794E+001
 20
4.0232417E+001
 70
1
  0
VERTEX
  5
273
100
AcDbEntity
  8
2
100
AcDbVertex
100
AcDb2dVertex
 42
8.0993687E-003
 10
9.6914663E+001
 20
4.0129458E+001
 70
0
  0
VERTEX
  5
274
100
AcDbEntity
  8
2
100
AcDbVertex
100
AcDb2dVertex
 42
8.0249653E-003
 10
9.7009056E+001
 20
4.0030469E+001
 70
1
  0
VERTEX
  5
275
100
AcDbEntity
  8
2
100
AcDbVertex
100
AcDb2dVertex
 42
7.9029924E-003
 10
9.7105477E+001
 20
3.9935502E+001
 70
0
  0
VERTEX
  5
276
100
AcDbEntity
  8
2
100
AcDbVertex
100
AcDb2dVertex
 42
7.911316E-003
 10
9.720362E+001
 20
3.9844911E+001
 70
1
  0
VERTEX
  5
277
100
AcDbEntity
  8
2
100
AcDbVertex
100
AcDb2dVertex
 42
7.9533403E-003
 10
9.730319E+001
 20
3.9758604E+001
 70
0
  0
VERTEX
  5
278
100
AcDbEntity
  8
2
100
AcDbVertex
100
AcDb2dVertex
 42
7.769965E-003
 10
9.7403921E+001
 20
3.9676858E+001
 70
1
  0
VERTEX
  5
279
100
AcDbEntity
  8
2
100
AcDbVertex
100
AcDb2dVertex
 42
7.3135448E-003
 10
9.7504919E+001
 20
3.9599749E+001
 70
0
  0
VERTEX
  5
27a
100
AcDbEntity
  8
2
100
AcDbVertex
100
AcDb2dVertex
 42
7.8745058E-003
 10
9.7605689E+001
 20
3.9527581E+001
 70
1
  0
VERTEX
  5
27b
100
AcDbEntity
  8
2
100
AcDbVertex
100
AcDb2dVertex
 42
9.056435E-003
 10
9.7707965E+001
 20
3.94594E+001
 70
0
  0
VERTEX
  5
27c
100
AcDbEntity
  8
2
100
AcDbVertex
100
AcDb2dVertex
 42
7.2585196E-003
 10
9.781215E+001
 20
3.9395117E+001
 70
1
  0
VERTEX
  5
27d
100
AcDbEntity
  8
2
100
AcDbVertex
100
AcDb2dVertex
 42
3.2649694E-003
 10
9.7909894E+001
 20
3.9337546E+001
 70
0
  0
VERTEX
  5
27e
100
AcDbEntity
  8
2
100
AcDbVertex
100
AcDb2dVertex
 42
9.5349481E-003
 10
9.7998121E+001
 20
3.9287859E+001
 70
1
  0
VERTEX
  5
27f
100
AcDbEntity
  8
2
100
AcDbVertex
100
AcDb2dVertex
 42
1.6315283E-002
 10
9.8108586E+001
 20
3.923377E+001
 70
0
  0
VERTEX
  5
280
100
AcDbEntity
  8
2
100
AcDbVertex
100
AcDb2dVertex
 42
8.676767E-003
 10
9.8274574E+001
 20
3.9162776E+001
 70
1
  0
VERTEX
  5
281
100
AcDbEntity
  8
2
100
AcDbVertex
100
AcDb2dVertex
 42
4.908848E-003
 10
9.8489497E+001
 20
3.9077217E+001
 70
0
  0
SEQEND
  5
282
100
AcDbEntity
  0
POLYLINE
  5
283
100
AcDbEntity
  8
2
100
AcDb2dPolyline
  6
CONTINUOUS
 62
40
 66
1
 40
0.0
 41
0.0
 70
2
  0
VERTEX
  5
284
100
AcDbEntity
  8
2
100
AcDbVertex
100
AcDb2dVertex
 42
0.0
 10
9.2298348E+001
 20
6.1827041E+001
 70
0
  0
VERTEX
  5
285
100
AcDbEntity
  8
2
100
AcDbVertex
100
AcDb2dVertex
 42
-1.0893807E-002
 10
9.2216627E+001
 20
6.1856606E+001
 70
1
  0
VERTEX
  5
286
100
AcDbEntity
  8
2
100
AcDbVertex
100
AcDb2dVertex
 42
-1.0066676E-002
 10
9.213382E+001
 20
6.1890491E+001
 70
0
  0
VERTEX
  5
287
100
AcDbEntity
  8
2
100
AcDbVertex
100
AcDb2dVertex
 42
-9.6690579E-003
 10
9.2049836E+001
 20
6.1928864E+001
 70
1
  0
VERTEX
  5
288
100
AcDbEntity
  8
2
100
AcDbVertex
100
AcDb2dVertex
 42
-9.8509971E-003
 10
9.1965039E+001
 20
6.1971619E+001
 70
0
  0
VERTEX
  5
289
100
AcDbEntity
  8
2
100
AcDbVertex
100
AcDb2dVertex
 42
-9.8179833E-003
 10
9.1879799E+001
 20
6.2019014E+001
 70
1
  0
VERTEX
  5
28a
100
AcDbEntity
  8
2
100
AcDbVertex
100
AcDb2dVertex
 42
-9.747082E-003
 10
9.1794472E+001
 20
6.2070855E+001
 70
0
  0
VERTEX
  5
28b
100
AcDbEntity
  8
2
100
AcDbVertex
100
AcDb2dVertex
 42
-9.6495821E-003
 10
9.1709407E+001
 20
6.2127288E+001
 70
1
  0
VERTEX
  5
28c
100
AcDbEntity
  8
2
100
AcDbVertex
100
AcDb2dVertex
 42
-9.6591412E-003
 10
9.1624973E+001
 20
6.2188045E+001
 70
0
  0
VERTEX
  5
28d
100
AcDbEntity
  8
2
100
AcDbVertex
100
AcDb2dVertex
 42
-9.6146169E-003
 10
9.1541606E+001
 20
6.2253189E+001
 70
1
  0
VERTEX
  5
28e
100
AcDbEntity
  8
2
100
AcDbVertex
100
AcDb2dVertex
 42
-9.6248581E-003
 10
9.1459661E+001
 20
6.2322375E+001
 70
0
  0
VERTEX
  5
28f
100
AcDbEntity
  8
2
100
AcDbVertex
100
AcDb2dVertex
 42
-9.6061584E-003
 10
9.137961E+001
 20
6.2395562E+001
 70
1
  0
VERTEX
  5
290
100
AcDbEntity
  8
2
100
AcDbVertex
100
AcDb2dVertex
 42
-9.6355703E-003
 10
9.130177E+001
 20
6.2472337E+001
 70
0
  0
VERTEX
  5
291
100
AcDbEntity
  8
2
100
AcDbVertex
100
AcDb2dVertex
 42
-9.6612041E-003
 10
9.1226635E+001
 20
6.2552555E+001
 70
1
  0
VERTEX
  5
292
100
AcDbEntity
  8
2
100
AcDbVertex
100
AcDb2dVertex
 42
-9.7270942E-003
 10
9.1154459E+001
 20
6.2635761E+001
 70
0
  0
VERTEX
  5
293
100
AcDbEntity
  8
2
100
AcDbVertex
100
AcDb2dVertex
 42
-9.767841E-003
 10
9.1085728E+001
 20
6.2721717E+001
 70
1
  0
VERTEX
  5
294
100
AcDbEntity
  8
2
100
AcDbVertex
100
AcDb2dVertex
 42
-9.7968843E-003
 10
9.1020615E+001
 20
6.2809904E+001
 70
0
  0
VERTEX
  5
295
100
AcDbEntity
  8
2
100
AcDbVertex
100
AcDb2dVertex
 42
-9.9583427E-003
 10
9.0959572E+001
 20
6.2899992E+001
 70
1
  0
VERTEX
  5
296
100
AcDbEntity
  8
2
100
AcDbVertex
100
AcDb2dVertex
 42
-1.0215585E-002
 10
9.090267E+001
 20
6.2991601E+001
 70
0
  0
VERTEX
  5
297
100
AcDbEntity
  8
2
100
AcDbVertex
100
AcDb2dVertex
 42
-1.0127701E-002
 10
9.08503E+001
 20
6.3084393E+001
 70
1
  0
VERTEX
  5
298
100
AcDbEntity
  8
2
100
AcDbVertex
100
AcDb2dVertex
 42
-9.6917658E-003
 10
9.0802457E+001
 20
6.3177454E+001
 70
0
  0
VERTEX
  5
299
100
AcDbEntity
  8
2
100
AcDbVertex
100
AcDb2dVertex
 42
-1.0647285E-002
 10
9.0759469E+001
 20
6.327022E+001
 70
1
  0
VERTEX
  5
29a
100
AcDbEntity
  8
2
100
AcDbVertex
100
AcDb2dVertex
 42
-1.2558027E-002
 10
9.0721119E+001
 20
6.3364037E+001
 70
0
  0
VERTEX
  5
29b
100
AcDbEntity
  8
2
100
AcDbVertex
100
AcDb2dVertex
 42
-1.0187501E-002
 10
9.0687611E+001
 20
6.3459093E+001
 70
1
  0
VERTEX
  5
29c
100
AcDbEntity
  8
2
100
AcDbVertex
100
AcDb2dVertex
 42
-4.5219703E-003
 10
9.0659082E+001
 20
6.3548097E+001
 70
0
  0
VERTEX
  5
29d
100
AcDbEntity
  8
2
100
AcDbVertex
100
AcDb2dVertex
 42
-1.3822961E-002
 10
9.0635804E+001
 20
6.3628248E+001
 70
1
  0
VERTEX
  5
29e
100
AcDbEntity
  8
2
100
AcDbVertex
100
AcDb2dVertex
 42
-2.4472948E-002
 10
9.0616091E+001
 20
6.3726717E+001
 70
0
  0
VERTEX
  5
29f
100
AcDbEntity
  8
2
100
AcDbVertex
100
AcDb2dVertex
 42
-1.3255665E-002
 10
9.0598581E+001
 20
6.3871954E+001
 70
1
  0
VERTEX
  5
2a0
100
AcDbEntity
  8
2
100
AcDbVertex
100
AcDb2dVertex
 42
-7.4928386E-003
 10
9.0583389E+001
 20
6.4058351E+001
 70
0
  0
SEQEND
  5
2a1
100
AcDbEntity
  0
LINE
  5
2a2
100
AcDbEntity
  8
2
100
AcDbLine
  6
CONTINUOUS
 62
40
 10
8.9039894E+001
 20
6.2603149E+001
 11
9.0583389E+001
 21
6.4058351E+001
  0
POLYLINE
  5
2a3
100
AcDbEntity
  8
2
100
AcDb2dPolyline
  6
CONTINUOUS
 62
40
 66
1
 40
0.0
 41
0.0
 70
2
  0
VERTEX
  5
2a4
100
AcDbEntity
  8
2
100
AcDbVertex
100
AcDb2dVertex
 42
0.0
 10
8.9039894E+001
 20
6.2603149E+001
 70
0
  0
VERTEX
  5
2a5
100
AcDbEntity
  8
2
100
AcDbVertex
100
AcDb2dVertex
 42
1.3098027E-002
 10
8.9041795E+001
 20
6.2523915E+001
 70
1
  0
VERTEX
  5
2a6
100
AcDbEntity
  8
2
100
AcDbVertex
100
AcDb2dVertex
 42
1.2016315E-002
 10
8.9047805E+001
 20
6.2442241E+001
 70
0
  0
VERTEX
  5
2a7
100
AcDbEntity
  8
2
100
AcDbVertex
100
AcDb2dVertex
 42
1.1445177E-002
 10
8.9058067E+001
 20
6.2357992E+001
 70
1
  0
VERTEX
  5
2a8
100
AcDbEntity
  8
2
100
AcDbVertex
100
AcDb2dVertex
 42
1.1553673E-002
 10
8.9072598E+001
 20
6.2271513E+001
 70
0
  0
VERTEX
  5
2a9
100
AcDbEntity
  8
2
100
AcDbVertex
100
AcDb2dVertex
 42
1.1390854E-002
 10
8.9091798E+001
 20
6.2183024E+001
 70
1
  0
VERTEX
  5
2aa
100
AcDbEntity
  8
2
100
AcDbVertex
100
AcDb2dVertex
 42
1.1181404E-002
 10
8.9115591E+001
 20
6.2092892E+001
 70
0
  0
VERTEX
  5
2ab
100
AcDbEntity
  8
2
100
AcDbVertex
100
AcDb2dVertex
 42
1.0931006E-002
 10
8.9144252E+001
 20
6.2001358E+001
 70
1
  0
VERTEX
  5
2ac
100
AcDbEntity
  8
2
100
AcDbVertex
100
AcDb2dVertex
 42
1.0802771E-002
 10
8.9177631E+001
 20
6.1908832E+001
 70
0
  0
VERTEX
  5
2ad
100
AcDbEntity
  8
2
100
AcDbVertex
100
AcDb2dVertex
 42
1.0603559E-002
 10
8.9215949E+001
 20
6.1815655E+001
 70
1
  0
VERTEX
  5
2ae
100
AcDbEntity
  8
2
100
AcDbVertex
100
AcDb2dVertex
 42
1.0467995E-002
 10
8.9258972E+001
 20
6.1722248E+001
 70
0
  0
VERTEX
  5
2af
100
AcDbEntity
  8
2
100
AcDbVertex
100
AcDb2dVertex
 42
1.0292376E-002
 10
8.9306825E+001
 20
6.1629023E+001
 70
1
  0
VERTEX
  5
2b0
100
AcDbEntity
  8
2
100
AcDbVertex
100
AcDb2dVertex
 42
1.0173324E-002
 10
8.9359188E+001
 20
6.1536395E+001
 70
0
  0
VERTEX
  5
2b1
100
AcDbEntity
  8
2
100
AcDbVertex
100
AcDb2dVertex
 42
1.0042501E-002
 10
8.9416087E+001
 20
6.1444827E+001
 70
1
  0
VERTEX
  5
2b2
100
AcDbEntity
  8
2
100
AcDbVertex
100
AcDb2dVertex
 42
9.9589427E-003
 10
8.9477136E+001
 20
6.1354697E+001
 70
0
  0
VERTEX
  5
2b3
100
AcDbEntity
  8
2
100
AcDbVertex
100
AcDb2dVertex
 42
9.842649E-003
 10
8.9542263E+001
 20
6.1266496E+001
 70
1
  0
VERTEX
  5
2b4
100
AcDbEntity
  8
2
100
AcDbVertex
100
AcDb2dVertex
 42
9.7225802E-003
 10
8.9610985E+001
 20
6.1180554E+001
 70
0
  0
VERTEX
  5
2b5
100
AcDbEntity
  8
2
100
AcDbVertex
100
AcDb2dVertex
 42
9.7273639E-003
 10
8.9683122E+001
 20
6.1097367E+001
 70
1
  0
VERTEX
  5
2b6
100
AcDbEntity
  8
2
100
AcDbVertex
100
AcDb2dVertex
 42
9.8272678E-003
 10
8.9758301E+001
 20
6.101713E+001
 70
0
  0
VERTEX
  5
2b7
100
AcDbEntity
  8
2
100
AcDbVertex
100
AcDb2dVertex
 42
9.5901136E-003
 10
8.983631E+001
 20
6.0940291E+001
 70
1
  0
VERTEX
  5
2b8
100
AcDbEntity
  8
2
100
AcDbVertex
100
AcDb2dVertex
 42
9.0477592E-003
 10
8.9916197E+001
 20
6.0867168E+001
 70
0
  0
VERTEX
  5
2b9
100
AcDbEntity
  8
2
100
AcDbVertex
100
AcDb2dVertex
 42
9.7977253E-003
 10
8.999749E+001
 20
6.0798237E+001
 70
1
  0
VERTEX
  5
2ba
100
AcDbEntity
  8
2
100
AcDbVertex
100
AcDb2dVertex
 42
1.1379389E-002
 10
9.0081513E+001
 20
6.0732839E+001
 70
0
  0
VERTEX
  5
2bb
100
AcDbEntity
  8
2
100
AcDbVertex
100
AcDb2dVertex
 42
9.088714E-003
 10
9.0168534E+001
 20
6.0671081E+001
 70
1
  0
VERTEX
  5
2bc
100
AcDbEntity
  8
2
100
AcDbVertex
100
AcDb2dVertex
 42
3.999675E-003
 10
9.0251018E+001
 20
6.061565E+001
 70
0
  0
VERTEX
  5
2bd
100
AcDbEntity
  8
2
100
AcDbVertex
100
AcDb2dVertex
 42
1.2131104E-002
 10
9.0326149E+001
 20
6.0567764E+001
 70
1
  0
VERTEX
  5
2be
100
AcDbEntity
  8
2
100
AcDbVertex
100
AcDb2dVertex
 42
2.1024442E-002
 10
9.0421589E+001
 20
6.0516415E+001
 70
0
  0
VERTEX
  5
2bf
100
AcDbEntity
  8
2
100
AcDbVertex
100
AcDb2dVertex
 42
1.1198592E-002
 10
9.0566438E+001
 20
6.0450414E+001
 70
1
  0
VERTEX
  5
2c0
100
AcDbEntity
  8
2
100
AcDbVertex
100
AcDb2dVertex
 42
6.2857696E-003
 10
9.0754907E+001
 20
6.0371839E+001
 70
0
  0
SEQEND
  5
2c1
100
AcDbEntity
  0
LINE
  5
2c2
100
AcDbEntity
  8
2
100
AcDbLine
  6
CONTINUOUS
 62
40
 10
9.2298348E+001
 20
6.1827041E+001
 11
9.0754907E+001
 21
6.0371839E+001
  0
LINE
  5
2c3
100
AcDbEntity
  8
2
100
AcDbLine
  6
CONTINUOUS
 62
40
 10
1.008733E+002
 20
5.8916582E+001
 11
9.2298348E+001
 21
6.1827041E+001
  0
LINE
  5
2c4
100
AcDbEntity
  8
2
100
AcDbLine
  6
CONTINUOUS
 62
40
 10
9.0754907E+001
 20
6.0371839E+001
 11
9.9329808E+001
 21
5.746138E+001
  0
LINE
  5
2c5
100
AcDbEntity
  8
2
100
AcDbLine
  6
CONTINUOUS
 62
40
 10
1.008733E+002
 20
5.8916582E+001
 11
9.9329808E+001
 21
5.746138E+001
  0
POLYLINE
  5
2c6
100
AcDbEntity
  8
2
100
AcDb2dPolyline
  6
CONTINUOUS
 62
40
 66
1
 40
0.0
 41
0.0
 70
2
  0
VERTEX
  5
2c7
100
AcDbEntity
  8
2
100
AcDbVertex
100
AcDb2dVertex
 42
0.0
 10
1.010448E+002
 20
5.8866667E+001
 70
0
  0
VERTEX
  5
2c8
100
AcDbEntity
  8
2
100
AcDbVertex
100
AcDb2dVertex
 42
-7.68033E-004
 10
1.01039E+002
 20
5.8868085E+001
 70
1
  0
VERTEX
  5
2c9
100
AcDbEntity
  8
2
100
AcDbVertex
100
AcDb2dVertex
 42
-7.695306E-004
 10
1.010332E+002
 20
5.8869521E+001
 70
0
  0
VERTEX
  5
2ca
100
AcDbEntity
  8
2
100
AcDbVertex
100
AcDb2dVertex
 42
-7.684899E-004
 10
1.0102741E+002
 20
5.8870976E+001
 70
1
  0
VERTEX
  5
2cb
100
AcDbEntity
  8
2
100
AcDbVertex
100
AcDb2dVertex
 42
-7.646341E-004
 10
1.0102162E+002
 20
5.8872447E+001
 70
0
  0
VERTEX
  5
2cc
100
AcDbEntity
  8
2
100
AcDbVertex
100
AcDb2dVertex
 42
-7.618704E-004
 10
1.0101584E+002
 20
5.8873936E+001
 70
1
  0
VERTEX
  5
2cd
100
AcDbEntity
  8
2
100
AcDbVertex
100
AcDb2dVertex
 42
-7.593963E-004
 10
1.0101006E+002
 20
5.8875443E+001
 70
0
  0
VERTEX
  5
2ce
100
AcDbEntity
  8
2
100
AcDbVertex
100
AcDb2dVertex
 42
-7.570822E-004
 10
1.0100429E+002
 20
5.8876967E+001
 70
1
  0
VERTEX
  5
2cf
100
AcDbEntity
  8
2
100
AcDbVertex
100
AcDb2dVertex
 42
-7.542554E-004
 10
1.0099852E+002
 20
5.8878508E+001
 70
0
  0
VERTEX
  5
2d0
100
AcDbEntity
  8
2
100
AcDbVertex
100
AcDb2dVertex
 42
-7.519073E-004
 10
1.0099276E+002
 20
5.8880066E+001
 70
1
  0
VERTEX
  5
2d1
100
AcDbEntity
  8
2
100
AcDbVertex
100
AcDb2dVertex
 42
-7.493224E-004
 10
1.0098701E+002
 20
5.8881641E+001
 70
0
  0
VERTEX
  5
2d2
100
AcDbEntity
  8
2
100
AcDbVertex
100
AcDb2dVertex
 42
-7.468416E-004
 10
1.0098126E+002
 20
5.8883234E+001
 70
1
  0
VERTEX
  5
2d3
100
AcDbEntity
  8
2
100
AcDbVertex
100
AcDb2dVertex
 42
-7.437856E-004
 10
1.0097552E+002
 20
5.8884843E+001
 70
0
  0
VERTEX
  5
2d4
100
AcDbEntity
  8
2
100
AcDbVertex
100
AcDb2dVertex
 42
-7.41978E-004
 10
1.0096979E+002
 20
5.8886469E+001
 70
1
  0
VERTEX
  5
2d5
100
AcDbEntity
  8
2
100
AcDbVertex
100
AcDb2dVertex
 42
-7.405957E-004
 10
1.0096406E+002
 20
5.8888111E+001
 70
0
  0
VERTEX
  5
2d6
100
AcDbEntity
  8
2
100
AcDbVertex
100
AcDb2dVertex
 42
-7.365151E-004
 10
1.0095833E+002
 20
5.8889771E+001
 70
1
  0
VERTEX
  5
2d7
100
AcDbEntity
  8
2
100
AcDbVertex
100
AcDb2dVertex
 42
-7.295246E-004
 10
1.0095262E+002
 20
5.8891446E+001
 70
0
  0
VERTEX
  5
2d8
100
AcDbEntity
  8
2
100
AcDbVertex
100
AcDb2dVertex
 42
-7.334094E-004
 10
1.0094691E+002
 20
5.8893137E+001
 70
1
  0
VERTEX
  5
2d9
100
AcDbEntity
  8
2
100
AcDbVertex
100
AcDb2dVertex
 42
-7.452458E-004
 10
1.009412E+002
 20
5.8894846E+001
 70
0
  0
VERTEX
  5
2da
100
AcDbEntity
  8
2
100
AcDbVertex
100
AcDb2dVertex
 42
-7.222991E-004
 10
1.0093549E+002
 20
5.8896575E+001
 70
1
  0
VERTEX
  5
2db
100
AcDbEntity
  8
2
100
AcDbVertex
100
AcDb2dVertex
 42
-6.729948E-004
 10
1.0092982E+002
 20
5.8898311E+001
 70
0
  0
VERTEX
  5
2dc
100
AcDbEntity
  8
2
100
AcDbVertex
100
AcDb2dVertex
 42
-7.391278E-004
 10
1.0092418E+002
 20
5.8900053E+001
 70
1
  0
VERTEX
  5
2dd
100
AcDbEntity
  8
2
100
AcDbVertex
100
AcDb2dVertex
 42
-8.756659E-004
 10
1.0091846E+002
 20
5.8901841E+001
 70
0
  0
VERTEX
  5
2de
100
AcDbEntity
  8
2
100
AcDbVertex
100
AcDb2dVertex
 42
-6.650949E-004
 10
1.0091261E+002
 20
5.8903689E+001
 70
1
  0
VERTEX
  5
2df
100
AcDbEntity
  8
2
100
AcDbVertex
100
AcDb2dVertex
 42
-2.33326E-004
 10
1.0090712E+002
 20
5.8905433E+001
 70
0
  0
VERTEX
  5
2e0
100
AcDbEntity
  8
2
100
AcDbVertex
100
AcDb2dVertex
 42
-9.295213E-004
 10
1.0090217E+002
 20
5.8907018E+001
 70
1
  0
VERTEX
  5
2e1
100
AcDbEntity
  8
2
100
AcDbVertex
100
AcDb2dVertex
 42
-1.5892517E-003
 10
1.0089582E+002
 20
5.8909088E+001
 70
0
  0
VERTEX
  5
2e2
100
AcDbEntity
  8
2
100
AcDbVertex
100
AcDb2dVertex
 42
-7.773232E-004
 10
1.0088607E+002
 20
5.8912321E+001
 70
1
  0
VERTEX
  5
2e3
100
AcDbEntity
  8
2
100
AcDbVertex
100
AcDb2dVertex
 42
-4.128349E-004
 10
1.008733E+002
 20
5.8916582E+001
 70
0
  0
SEQEND
  5
2e4
100
AcDbEntity
  0
POLYLINE
  5
2e5
100
AcDbEntity
  8
2
100
AcDb2dPolyline
  6
CONTINUOUS
 62
40
 66
1
 40
0.0
 41
0.0
 70
2
  0
VERTEX
  5
2e6
100
AcDbEntity
  8
2
100
AcDbVertex
100
AcDb2dVertex
 42
0.0
 10
9.9329808E+001
 20
5.746138E+001
 70
0
  0
VERTEX
  5
2e7
100
AcDbEntity
  8
2
100
AcDbVertex
100
AcDb2dVertex
 42
1.1193687E-002
 10
9.9411531E+001
 20
5.7435472E+001
 70
1
  0
VERTEX
  5
2e8
100
AcDbEntity
  8
2
100
AcDbVertex
100
AcDb2dVertex
 42
1.0955007E-002
 10
9.9494339E+001
 20
5.7413145E+001
 70
0
  0
VERTEX
  5
2e9
100
AcDbEntity
  8
2
100
AcDbVertex
100
AcDb2dVertex
 42
1.1138138E-002
 10
9.9578326E+001
 20
5.7394508E+001
 70
1
  0
VERTEX
  5
2ea
100
AcDbEntity
  8
2
100
AcDbVertex
100
AcDb2dVertex
 42
1.1988887E-002
 10
9.9663125E+001
 20
5.7379701E+001
 70
0
  0
VERTEX
  5
2eb
100
AcDbEntity
  8
2
100
AcDbVertex
100
AcDb2dVertex
 42
1.266145E-002
 10
9.9748366E+001
 20
5.7369232E+001
 70
1
  0
VERTEX
  5
2ec
100
AcDbEntity
  8
2
100
AcDbVertex
100
AcDb2dVertex
 42
1.3276802E-002
 10
9.9833695E+001
 20
5.7363152E+001
 70
0
  0
VERTEX
  5
2ed
100
AcDbEntity
  8
2
100
AcDbVertex
100
AcDb2dVertex
 42
1.3892425E-002
 10
9.9918763E+001
 20
5.7361841E+001
 70
1
  0
VERTEX
  5
2ee
100
AcDbEntity
  8
2
100
AcDbVertex
100
AcDb2dVertex
 42
1.4635574E-002
 10
1.000032E+002
 20
5.7365282E+001
 70
0
  0
VERTEX
  5
2ef
100
AcDbEntity
  8
2
100
AcDbVertex
100
AcDb2dVertex
 42
1.5323492E-002
 10
1.0008657E+002
 20
5.7373835E+001
 70
1
  0
VERTEX
  5
2f0
100
AcDbEntity
  8
2
100
AcDbVertex
100
AcDb2dVertex
 42
1.6045772E-002
 10
1.0016851E+002
 20
5.7387394E+001
 70
0
  0
VERTEX
  5
2f1
100
AcDbEntity
  8
2
100
AcDbVertex
100
AcDb2dVertex
 42
1.6708971E-002
 10
1.0024857E+002
 20
5.7406241E+001
 70
1
  0
VERTEX
  5
2f2
100
AcDbEntity
  8
2
100
AcDbVertex
100
AcDb2dVertex
 42
1.7366592E-002
 10
1.0032641E+002
 20
5.7430175E+001
 70
0
  0
VERTEX
  5
2f3
100
AcDbEntity
  8
2
100
AcDbVertex
100
AcDb2dVertex
 42
1.7958265E-002
 10
1.0040155E+002
 20
5.745939E+001
 70
1
  0
VERTEX
  5
2f4
100
AcDbEntity
  8
2
100
AcDbVertex
100
AcDb2dVertex
 42
1.8497805E-002
 10
1.0047373E+002
 20
5.74936E+001
 70
0
  0
VERTEX
  5
2f5
100
AcDbEntity
  8
2
100
AcDbVertex
100
AcDb2dVertex
 42
1.8873851E-002
 10
1.0054246E+002
 20
5.75329E+001
 70
1
  0
VERTEX
  5
2f6
100
AcDbEntity
  8
2
100
AcDbVertex
100
AcDb2dVertex
 42
1.9065925E-002
 10
1.0060757E+002
 20
5.7576886E+001
 70
0
  0
VERTEX
  5
2f7
100
AcDbEntity
  8
2
100
AcDbVertex
100
AcDb2dVertex
 42
1.9353808E-002
 10
1.0066862E+002
 20
5.7625537E+001
 70
1
  0
VERTEX
  5
2f8
100
AcDbEntity
  8
2
100
AcDbVertex
100
AcDb2dVertex
 42
1.965353E-002
 10
1.0072552E+002
 20
5.7678519E+001
 70
0
  0
VERTEX
  5
2f9
100
AcDbEntity
  8
2
100
AcDbVertex
100
AcDb2dVertex
 42
1.9101563E-002
 10
1.007779E+002
 20
5.773576E+001
 70
1
  0
VERTEX
  5
2fa
100
AcDbEntity
  8
2
100
AcDbVertex
100
AcDb2dVertex
 42
1.7806238E-002
 10
1.0082574E+002
 20
5.7796345E+001
 70
0
  0
VERTEX
  5
2fb
100
AcDbEntity
  8
2
100
AcDbVertex
100
AcDb2dVertex
 42
1.8893149E-002
 10
1.0086873E+002
 20
5.7859929E+001
 70
1
  0
VERTEX
  5
2fc
100
AcDbEntity
  8
2
100
AcDbVertex
100
AcDb2dVertex
 42
2.1269406E-002
 10
1.0090708E+002
 20
5.7927713E+001
 70
0
  0
VERTEX
  5
2fd
100
AcDbEntity
  8
2
100
AcDbVertex
100
AcDb2dVertex
 42
1.6292999E-002
 10
1.0094059E+002
 20
5.8000022E+001
 70
1
  0
VERTEX
  5
2fe
100
AcDbEntity
  8
2
100
AcDbVertex
100
AcDb2dVertex
 42
6.97396E-003
 10
1.0096912E+002
 20
5.8069659E+001
 70
0
  0
VERTEX
  5
2ff
100
AcDbEntity
  8
2
100
AcDbVertex
100
AcDb2dVertex
 42
2.0564694E-002
 10
1.009924E+002
 20
5.8134008E+001
 70
1
  0
VERTEX
  5
300
100
AcDbEntity
  8
2
100
AcDbVertex
100
AcDb2dVertex
 42
3.2462218E-002
 10
1.0101212E+002
 20
5.8219095E+001
 70
0
  0
VERTEX
  5
301
100
AcDbEntity
  8
2
100
AcDbVertex
100
AcDb2dVertex
 42
1.5707917E-002
 10
1.0102963E+002
 20
5.8352445E+001
 70
1
  0
VERTEX
  5
302
100
AcDbEntity
  8
2
100
AcDbVertex
100
AcDb2dVertex
 42
8.3942356E-003
 10
1.0104482E+002
 20
5.8528528E+001
 70
0
  0
SEQEND
  5
303
100
AcDbEntity
  0
LINE
  5
304
100
AcDbEntity
  8
2
100
AcDbLine
  6
CONTINUOUS
 62
40
 10
1.0104482E+002
 20
5.8528528E+001
 11
1.0104482E+002
 21
1.1625204E+002
  0
POLYLINE
  5
305
100
AcDbEntity
  8
2
100
AcDb2dPolyline
  6
CONTINUOUS
 62
40
 66
1
 40
0.0
 41
0.0
 70
2
  0
VERTEX
  5
306
100
AcDbEntity
  8
2
100
AcDbVertex
100
AcDb2dVertex
 42
0.0
 10
1.0104482E+002
 20
1.1625204E+002
 70
0
  0
VERTEX
  5
307
100
AcDbEntity
  8
2
100
AcDbVertex
100
AcDb2dVertex
 42
1.3097983E-002
 10
1.0104292E+002
 20
1.1633127E+002
 70
1
  0
VERTEX
  5
308
100
AcDbEntity
  8
2
100
AcDbVertex
100
AcDb2dVertex
 42
1.2016258E-002
 10
1.0103691E+002
 20
1.1641295E+002
 70
0
  0
VERTEX
  5
309
100
AcDbEntity
  8
2
100
AcDbVertex
100
AcDb2dVertex
 42
1.1445108E-002
 10
1.0102665E+002
 20
1.1649719E+002
 70
1
  0
VERTEX
  5
30a
100
AcDbEntity
  8
2
100
AcDbVertex
100
AcDb2dVertex
 42
1.155359E-002
 10
1.0101212E+002
 20
1.1658367E+002
 70
0
  0
VERTEX
  5
30b
100
AcDbEntity
  8
2
100
AcDbVertex
100
AcDb2dVertex
 42
1.1390759E-002
 10
1.0099292E+002
 20
1.1667216E+002
 70
1
  0
VERTEX
  5
30c
100
AcDbEntity
  8
2
100
AcDbVertex
100
AcDb2dVertex
 42
1.11813E-002
 10
1.0096912E+002
 20
1.1676229E+002
 70
0
  0
VERTEX
  5
30d
100
AcDbEntity
  8
2
100
AcDbVertex
100
AcDb2dVertex
 42
1.0930895E-002
 10
1.0094046E+002
 20
1.1685383E+002
 70
1
  0
VERTEX
  5
30e
100
AcDbEntity
  8
2
100
AcDbVertex
100
AcDb2dVertex
 42
1.0802652E-002
 10
1.0090708E+002
 20
1.1694635E+002
 70
0
  0
VERTEX
  5
30f
100
AcDbEntity
  8
2
100
AcDbVertex
100
AcDb2dVertex
 42
1.0603434E-002
 10
1.0086876E+002
 20
1.1703953E+002
 70
1
  0
VERTEX
  5
310
100
AcDbEntity
  8
2
100
AcDbVertex
100
AcDb2dVertex
 42
1.0467865E-002
 10
1.0082574E+002
 20
1.1713294E+002
 70
0
  0
VERTEX
  5
311
100
AcDbEntity
  8
2
100
AcDbVertex
100
AcDb2dVertex
 42
1.0292243E-002
 10
1.0077789E+002
 20
1.1722616E+002
 70
1
  0
VERTEX
  5
312
100
AcDbEntity
  8
2
100
AcDbVertex
100
AcDb2dVertex
 42
1.0173187E-002
 10
1.0072552E+002
 20
1.1731879E+002
 70
0
  0
VERTEX
  5
313
100
AcDbEntity
  8
2
100
AcDbVertex
100
AcDb2dVertex
 42
1.0042363E-002
 10
1.0066862E+002
 20
1.1741036E+002
 70
1
  0
VERTEX
  5
314
100
AcDbEntity
  8
2
100
AcDbVertex
100
AcDb2dVertex
 42
9.958803E-003
 10
1.0060757E+002
 20
1.1750049E+002
 70
0
  0
VERTEX
  5
315
100
AcDbEntity
  8
2
100
AcDbVertex
100
AcDb2dVertex
 42
9.8425092E-003
 10
1.0054245E+002
 20
1.1758869E+002
 70
1
  0
VERTEX
  5
316
100
AcDbEntity
  8
2
100
AcDbVertex
100
AcDb2dVertex
 42
9.7224416E-003
 10
1.0047373E+002
 20
1.1767463E+002
 70
0
  0
VERTEX
  5
317
100
AcDbEntity
  8
2
100
AcDbVertex
100
AcDb2dVertex
 42
9.7272252E-003
 10
1.0040159E+002
 20
1.1775782E+002
 70
1
  0
VERTEX
  5
318
100
AcDbEntity
  8
2
100
AcDbVertex
100
AcDb2dVertex
 42
9.8271287E-003
 10
1.0032641E+002
 20
1.1783805E+002
 70
0
  0
VERTEX
  5
319
100
AcDbEntity
  8
2
100
AcDbVertex
100
AcDb2dVertex
 42
9.5899797E-003
 10
1.002484E+002
 20
1.1791489E+002
 70
1
  0
VERTEX
  5
31a
100
AcDbEntity
  8
2
100
AcDbVertex
100
AcDb2dVertex
 42
9.0476351E-003
 10
1.0016851E+002
 20
1.1798802E+002
 70
0
  0
VERTEX
  5
31b
100
AcDbEntity
  8
2
100
AcDbVertex
100
AcDb2dVertex
 42
9.7975943E-003
 10
1.0008722E+002
 20
1.1805695E+002
 70
1
  0
VERTEX
  5
31c
100
AcDbEntity
  8
2
100
AcDbVertex
100
AcDb2dVertex
 42
1.1379242E-002
 10
1.000032E+002
 20
1.1812235E+002
 70
0
  0
VERTEX
  5
31d
100
AcDbEntity
  8
2
100
AcDbVertex
100
AcDb2dVertex
 42
9.088602E-003
 10
9.9916179E+001
 20
1.181841E+002
 70
1
  0
VERTEX
  5
31e
100
AcDbEntity
  8
2
100
AcDbVertex
100
AcDb2dVertex
 42
3.9996271E-003
 10
9.9833695E+001
 20
1.1823954E+002
 70
0
  0
VERTEX
  5
31f
100
AcDbEntity
  8
2
100
AcDbVertex
100
AcDb2dVertex
 42
1.2130964E-002
 10
9.9758564E+001
 20
1.1828742E+002
 70
1
  0
VERTEX
  5
320
100
AcDbEntity
  8
2
100
AcDbVertex
100
AcDb2dVertex
 42
2.1024227E-002
 10
9.9663125E+001
 20
1.1833877E+002
 70
0
  0
VERTEX
  5
321
100
AcDbEntity
  8
2
100
AcDbVertex
100
AcDb2dVertex
 42
1.1198494E-002
 10
9.9518277E+001
 20
1.1840477E+002
 70
1
  0
VERTEX
  5
322
100
AcDbEntity
  8
2
100
AcDbVertex
100
AcDb2dVertex
 42
6.285719E-003
 10
9.9329808E+001
 20
1.1848335E+002
 70
0
  0
SEQEND
  5
323
100
AcDbEntity
  0
LINE
  5
324
100
AcDbEntity
  8
2
100
AcDbLine
  6
CONTINUOUS
 62
40
 10
9.9329808E+001
 20
1.1848335E+002
 11
9.0754907E+001
 21
1.2139381E+002
  0
POLYLINE
  5
325
100
AcDbEntity
  8
2
100
AcDb2dPolyline
  6
CONTINUOUS
 62
40
 66
1
 40
0.0
 41
0.0
 70
2
  0
VERTEX
  5
326
100
AcDbEntity
  8
2
100
AcDbVertex
100
AcDb2dVertex
 42
0.0
 10
9.0754907E+001
 20
1.2139381E+002
 70
0
  0
VERTEX
  5
327
100
AcDbEntity
  8
2
100
AcDbVertex
100
AcDb2dVertex
 42
1.1193953E-002
 10
9.0673184E+001
 20
1.2141972E+002
 70
1
  0
VERTEX
  5
328
100
AcDbEntity
  8
2
100
AcDbVertex
100
AcDb2dVertex
 42
1.0955273E-002
 10
9.0590375E+001
 20
1.2144204E+002
 70
0
  0
VERTEX
  5
329
100
AcDbEntity
  8
2
100
AcDbVertex
100
AcDb2dVertex
 42
1.1138412E-002
 10
9.0506388E+001
 20
1.2146068E+002
 70
1
  0
VERTEX
  5
32a
100
AcDbEntity
  8
2
100
AcDbVertex
100
AcDb2dVertex
 42
1.1989182E-002
 10
9.0421589E+001
 20
1.2147548E+002
 70
0
  0
VERTEX
  5
32b
100
AcDbEntity
  8
2
100
AcDbVertex
100
AcDb2dVertex
 42
1.2661761E-002
 10
9.0336347E+001
 20
1.2148595E+002
 70
1
  0
VERTEX
  5
32c
100
AcDbEntity
  8
2
100
AcDbVertex
100
AcDb2dVertex
 42
1.3277123E-002
 10
9.0251018E+001
 20
1.2149203E+002
 70
0
  0
VERTEX
  5
32d
100
AcDbEntity
  8
2
100
AcDbVertex
100
AcDb2dVertex
 42
1.3892751E-002
 10
9.0165949E+001
 20
1.2149334E+002
 70
1
  0
VERTEX
  5
32e
100
AcDbEntity
  8
2
100
AcDbVertex
100
AcDb2dVertex
 42
1.4635903E-002
 10
9.0081513E+001
 20
1.214899E+002
 70
0
  0
VERTEX
  5
32f
100
AcDbEntity
  8
2
100
AcDbVertex
100
AcDb2dVertex
 42
1.5323815E-002
 10
8.9998144E+001
 20
1.2148134E+002
 70
1
  0
VERTEX
  5
330
100
AcDbEntity
  8
2
100
AcDbVertex
100
AcDb2dVertex
 42
1.6046082E-002
 10
8.9916197E+001
 20
1.2146778E+002
 70
0
  0
VERTEX
  5
331
100
AcDbEntity
  8
2
100
AcDbVertex
100
AcDb2dVertex
 42
1.6709256E-002
 10
8.9836144E+001
 20
1.2144893E+002
 70
1
  0
VERTEX
  5
332
100
AcDbEntity
  8
2
100
AcDbVertex
100
AcDb2dVertex
 42
1.7366845E-002
 10
8.9758301E+001
 20
1.21425E+002
 70
0
  0
VERTEX
  5
333
100
AcDbEntity
  8
2
100
AcDbVertex
100
AcDb2dVertex
 42
1.7958472E-002
 10
8.9683164E+001
 20
1.2139578E+002
 70
1
  0
VERTEX
  5
334
100
AcDbEntity
  8
2
100
AcDbVertex
100
AcDb2dVertex
 42
1.8497959E-002
 10
8.9610985E+001
 20
1.2136157E+002
 70
0
  0
VERTEX
  5
335
100
AcDbEntity
  8
2
100
AcDbVertex
100
AcDb2dVertex
 42
1.8873939E-002
 10
8.9542252E+001
 20
1.2132227E+002
 70
1
  0
VERTEX
  5
336
100
AcDbEntity
  8
2
100
AcDbVertex
100
AcDb2dVertex
 42
1.9065944E-002
 10
8.9477136E+001
 20
1.2127828E+002
 70
0
  0
VERTEX
  5
337
100
AcDbEntity
  8
2
100
AcDbVertex
100
AcDb2dVertex
 42
1.9353752E-002
 10
8.9416092E+001
 20
1.2122963E+002
 70
1
  0
VERTEX
  5
338
100
AcDbEntity
  8
2
100
AcDbVertex
100
AcDb2dVertex
 42
1.96534E-002
 10
8.9359188E+001
 20
1.2117664E+002
 70
0
  0
VERTEX
  5
339
100
AcDbEntity
  8
2
100
AcDbVertex
100
AcDb2dVertex
 42
1.9101366E-002
 10
8.9306816E+001
 20
1.211194E+002
 70
1
  0
VERTEX
  5
33a
100
AcDbEntity
  8
2
100
AcDbVertex
100
AcDb2dVertex
 42
1.7805998E-002
 10
8.9258972E+001
 20
1.2105881E+002
 70
0
  0
VERTEX
  5
33b
100
AcDbEntity
  8
2
100
AcDbVertex
100
AcDb2dVertex
 42
1.8892841E-002
 10
8.9215982E+001
 20
1.2099523E+002
 70
1
  0
VERTEX
  5
33c
100
AcDbEntity
  8
2
100
AcDbVertex
100
AcDb2dVertex
 42
2.1269E-002
 10
8.9177631E+001
 20
1.2092744E+002
 70
0
  0
VERTEX
  5
33d
100
AcDbEntity
  8
2
100
AcDbVertex
100
AcDb2dVertex
 42
1.6292652E-002
 10
8.9144121E+001
 20
1.2085513E+002
 70
1
  0
VERTEX
  5
33e
100
AcDbEntity
  8
2
100
AcDbVertex
100
AcDb2dVertex
 42
6.973804E-003
 10
8.9115591E+001
 20
1.2078549E+002
 70
0
  0
VERTEX
  5
33f
100
AcDbEntity
  8
2
100
AcDbVertex
100
AcDb2dVertex
 42
2.0564217E-002
 10
8.9092312E+001
 20
1.2072114E+002
 70
1
  0
VERTEX
  5
340
100
AcDbEntity
  8
2
100
AcDbVertex
100
AcDb2dVertex
 42
3.2461424E-002
 10
8.9072598E+001
 20
1.2063605E+002
 70
0
  0
VERTEX
  5
341
100
AcDbEntity
  8
2
100
AcDbVertex
100
AcDb2dVertex
 42
1.5707531E-002
 10
8.9055087E+001
 20
1.2050269E+002
 70
1
  0
VERTEX
  5
342
100
AcDbEntity
  8
2
100
AcDbVertex
100
AcDb2dVertex
 42
8.3940314E-003
 10
8.9039894E+001
 20
1.203266E+002
 70
0
  0
SEQEND
  5
343
100
AcDbEntity
  0
LINE
  5
344
100
AcDbEntity
  8
2
100
AcDbLine
  6
CONTINUOUS
 62
40
 10
9.0274691E+001
 20
1.214908E+002
 11
8.9039894E+001
 21
1.203266E+002
  0
LINE
  5
345
100
AcDbEntity
  8
2
100
AcDbLine
  6
CONTINUOUS
 62
40
 10
9.0583389E+001
 20
6.4058351E+001
 11
9.0583389E+001
 21
1.2144373E+002
  0
LINE
  5
346
100
AcDbEntity
  8
2
100
AcDbLine
  6
CONTINUOUS
 62
40
 10
8.9039894E+001
 20
1.203266E+002
 11
8.9039894E+001
 21
6.2603149E+001
  0
LINE
  5
347
100
AcDbEntity
  8
2
100
AcDbLine
  6
CONTINUOUS
 62
40
 10
1.0387451E+002
 20
1.8785823E+002
 11
9.8729578E+001
 21
1.8960447E+002
  0
LINE
  5
348
100
AcDbEntity
  8
2
100
AcDbLine
  6
CONTINUOUS
 62
40
 10
9.8729578E+001
 20
1.8960447E+002
 11
9.7014565E+001
 21
1.8853733E+002
  0
LINE
  5
349
100
AcDbEntity
  8
2
100
AcDbLine
  6
CONTINUOUS
 62
40
 10
9.7014565E+001
 20
1.8853733E+002
 11
8.8010897E+001
 21
1.915933E+002
  0
LINE
  5
34a
100
AcDbEntity
  8
2
100
AcDbLine
  6
CONTINUOUS
 62
40
 10
8.9554392E+001
 20
1.8480231E+002
 11
8.9554397E+001
 21
1.9106942E+002
  0
LINE
  5
34b
100
AcDbEntity
  8
2
100
AcDbLine
  6
CONTINUOUS
 62
40
 10
8.8010897E+001
 20
1.915933E+002
 11
8.8010897E+001
 21
1.833471E+002
  0
LINE
  5
34c
100
AcDbEntity
  8
2
100
AcDbLine
  6
CONTINUOUS
 62
40
 10
8.9554392E+001
 20
1.8480231E+002
 11
8.8010897E+001
 21
1.833471E+002
  0
LINE
  5
34d
100
AcDbEntity
  8
2
100
AcDbLine
  6
CONTINUOUS
 62
40
 10
9.0411872E+001
 20
1.8451127E+002
 11
8.9554392E+001
 21
1.8480231E+002
  0
LINE
  5
34e
100
AcDbEntity
  8
2
100
AcDbLine
  6
CONTINUOUS
 62
40
 10
8.8010897E+001
 20
1.833471E+002
 11
8.8868376E+001
 21
1.8305606E+002
  0
LINE
  5
34f
100
AcDbEntity
  8
2
100
AcDbLine
  6
CONTINUOUS
 62
40
 10
9.0411872E+001
 20
1.8451127E+002
 11
8.8868376E+001
 21
1.8305606E+002
  0
LINE
  5
350
100
AcDbEntity
  8
2
100
AcDbLine
  6
CONTINUOUS
 62
40
 10
9.0411872E+001
 20
1.6472035E+002
 11
9.0411872E+001
 21
1.8451127E+002
  0
LINE
  5
351
100
AcDbEntity
  8
2
100
AcDbLine
  6
CONTINUOUS
 62
40
 10
8.8868376E+001
 20
1.8305606E+002
 11
8.8868376E+001
 21
1.6326515E+002
  0
LINE
  5
352
100
AcDbEntity
  8
2
100
AcDbLine
  6
CONTINUOUS
 62
40
 10
9.0411872E+001
 20
1.6472035E+002
 11
8.8868376E+001
 21
1.6326515E+002
  0
LINE
  5
353
100
AcDbEntity
  8
2
100
AcDbLine
  6
CONTINUOUS
 62
40
 10
8.8868376E+001
 20
1.6326515E+002
 11
8.8010897E+001
 21
1.6355619E+002
  0
LINE
  5
354
100
AcDbEntity
  8
2
100
AcDbLine
  6
CONTINUOUS
 62
40
 10
8.9554392E+001
 20
1.5676519E+002
 11
8.9554397E+001
 21
1.6391189E+002
  0
LINE
  5
355
100
AcDbEntity
  8
2
100
AcDbLine
  6
CONTINUOUS
 62
40
 10
8.8010897E+001
 20
1.6355619E+002
 11
8.8010897E+001
 21
1.5530994E+002
  0
LINE
  5
356
100
AcDbEntity
  8
2
100
AcDbLine
  6
CONTINUOUS
 62
40
 10
8.9554392E+001
 20
1.5676519E+002
 11
8.8010897E+001
 21
1.5530994E+002
  0
LINE
  5
357
100
AcDbEntity
  8
2
100
AcDbLine
  6
CONTINUOUS
 62
40
 10
9.8558061E+001
 20
1.5370921E+002
 11
8.9554392E+001
 21
1.5676519E+002
  0
LINE
  5
358
100
AcDbEntity
  8
2
100
AcDbLine
  6
CONTINUOUS
 62
40
 10
8.8010897E+001
 20
1.5530994E+002
 11
9.7014565E+001
 21
1.5225401E+002
  0
LINE
  5
359
100
AcDbEntity
  8
2
100
AcDbLine
  6
CONTINUOUS
 62
40
 10
9.8558061E+001
 20
1.5370921E+002
 11
9.7014565E+001
 21
1.5225401E+002
  0
LINE
  5
35a
100
AcDbEntity
  8
2
100
AcDbLine
  6
CONTINUOUS
 62
40
 10
1.0027307E+002
 20
1.514779E+002
 11
9.8558061E+001
 21
1.5370921E+002
  0
LINE
  5
35b
100
AcDbEntity
  8
2
100
AcDbLine
  6
CONTINUOUS
 62
40
 10
9.7014565E+001
 20
1.5225401E+002
 11
9.8729578E+001
 21
1.500227E+002
  0
LINE
  5
35c
100
AcDbEntity
  8
2
100
AcDbLine
  6
CONTINUOUS
 62
40
 10
1.0027307E+002
 20
1.514779E+002
 11
9.8729578E+001
 21
1.500227E+002
  0
LINE
  5
35d
100
AcDbEntity
  8
2
100
AcDbLine
  6
CONTINUOUS
 62
40
 10
1.0387453E+002
 20
1.5025552E+002
 11
1.0027307E+002
 21
1.514779E+002
  0
LINE
  5
35e
100
AcDbEntity
  8
2
100
AcDbLine
  6
CONTINUOUS
 62
40
 10
9.8729578E+001
 20
1.500227E+002
 11
1.0387451E+002
 21
1.4827641E+002
  0
LINE
  5
35f
100
AcDbEntity
  8
2
100
AcDbLine
  6
CONTINUOUS
 62
40
 10
1.0387451E+002
 20
1.4827641E+002
 11
1.0387451E+002
 21
1.8785823E+002
  0
LINE
  5
360
100
AcDbEntity
  8
2
100
AcDbLine
  6
CONTINUOUS
 62
40
 10
1.1373571E+002
 20
3.146155E+001
 11
1.1373571E+002
 21
2.3761683E+002
  0
LINE
  5
361
100
AcDbEntity
  8
2
100
AcDbLine
  6
CONTINUOUS
 62
40
 10
1.1219222E+002
 20
2.3616162E+002
 11
1.1373571E+002
 21
2.3761683E+002
  0
LINE
  5
362
100
AcDbEntity
  8
2
100
AcDbLine
  6
CONTINUOUS
 62
40
 10
1.1219222E+002
 20
2.3616162E+002
 11
1.1219222E+002
 21
3.0006348E+001
  0
LINE
  5
363
100
AcDbEntity
  8
2
100
AcDbLine
  6
CONTINUOUS
 62
40
 10
1.1373571E+002
 20
3.146155E+001
 11
1.1219222E+002
 21
3.0006348E+001
  0
LINE
  5
364
100
AcDbEntity
  8
2
100
AcDbLine
  6
CONTINUOUS
 62
40
 10
1.1219222E+002
 20
3.0006348E+001
 11
8.303743E+001
 21
3.9901832E+001
  0
LINE
  5
365
100
AcDbEntity
  8
2
100
AcDbLine
  6
CONTINUOUS
 62
40
 10
8.303743E+001
 20
3.9901832E+001
 11
8.303743E+001
 21
2.4605711E+002
  0
LINE
  5
366
100
AcDbEntity
  8
2
100
AcDbLine
  6
CONTINUOUS
 62
40
 10
8.4580926E+001
 20
2.4751231E+002
 11
8.303743E+001
 21
2.4605711E+002
  0
LINE
  5
367
100
AcDbEntity
  8
2
100
AcDbLine
  6
CONTINUOUS
 62
40
 10
1.1373571E+002
 20
2.3761683E+002
 11
8.4580926E+001
 21
2.4751231E+002
  0
LINE
  5
368
100
AcDbEntity
  8
2
100
AcDbLine
  6
CONTINUOUS
 62
40
 10
8.303743E+001
 20
2.4605711E+002
 11
1.1219222E+002
 21
2.3616162E+002
  0
POLYLINE
  5
369
100
AcDbEntity
  8
2
100
AcDb2dPolyline
  6
CONTINUOUS
 62
1
 66
1
 40
0.0
 41
0.0
 70
2
  0
VERTEX
  5
36a
100
AcDbEntity
  8
2
100
AcDbVertex
100
AcDb2dVertex
 42
0.0
 10
9.8489497E+001
 20
2.3368778E+002
 70
0
  0
VERTEX
  5
36b
100
AcDbEntity
  8
2
100
AcDbVertex
100
AcDb2dVertex
 42
5.6022322E-003
 10
9.8552175E+001
 20
2.3366723E+002
 70
1
  0
VERTEX
  5
36c
100
AcDbEntity
  8
2
100
AcDbVertex
100
AcDb2dVertex
 42
5.4435936E-003
 10
9.861563E+001
 20
2.3364794E+002
 70
0
  0
VERTEX
  5
36d
100
AcDbEntity
  8
2
100
AcDbVertex
100
AcDb2dVertex
 42
5.473691E-003
 10
9.8679902E+001
 20
2.3362996E+002
 70
1
  0
VERTEX
  5
36e
100
AcDbEntity
  8
2
100
AcDbVertex
100
AcDb2dVertex
 42
5.739644E-003
 10
9.8744909E+001
 20
2.3361331E+002
 70
0
  0
VERTEX
  5
36f
100
AcDbEntity
  8
2
100
AcDbVertex
100
AcDb2dVertex
 42
5.926594E-003
 10
9.8810615E+001
 20
2.3359815E+002
 70
1
  0
VERTEX
  5
370
100
AcDbEntity
  8
2
100
AcDbVertex
100
AcDb2dVertex
 42
6.0988697E-003
 10
9.8876939E+001
 20
2.3358449E+002
 70
0
  0
VERTEX
  5
371
100
AcDbEntity
  8
2
100
AcDbVertex
100
AcDb2dVertex
 42
6.2620707E-003
 10
9.8943849E+001
 20
2.3357247E+002
 70
1
  0
VERTEX
  5
372
100
AcDbEntity
  8
2
100
AcDbVertex
100
AcDb2dVertex
 42
6.4765987E-003
 10
9.9011255E+001
 20
2.335621E+002
 70
0
  0
VERTEX
  5
373
100
AcDbEntity
  8
2
100
AcDbVertex
100
AcDb2dVertex
 42
6.6645376E-003
 10
9.9079109E+001
 20
2.3355353E+002
 70
1
  0
VERTEX
  5
374
100
AcDbEntity
  8
2
100
AcDbVertex
100
AcDb2dVertex
 42
6.887448E-003
 10
9.9147318E+001
 20
2.3354675E+002
 70
0
  0
VERTEX
  5
375
100
AcDbEntity
  8
2
100
AcDbVertex
100
AcDb2dVertex
 42
7.0847698E-003
 10
9.9215819E+001
 20
2.3354193E+002
 70
1
  0
VERTEX
  5
376
100
AcDbEntity
  8
2
100
AcDbVertex
100
AcDb2dVertex
 42
7.3174152E-003
 10
9.9284515E+001
 20
2.3353904E+002
 70
0
  0
VERTEX
  5
377
100
AcDbEntity
  8
2
100
AcDbVertex
100
AcDb2dVertex
 42
7.5362198E-003
 10
9.9353326E+001
 20
2.3353825E+002
 70
1
  0
VERTEX
  5
378
100
AcDbEntity
  8
2
100
AcDbVertex
100
AcDb2dVertex
 42
7.8006511E-003
 10
9.9422162E+001
 20
2.3353954E+002
 70
0
  0
VERTEX
  5
379
100
AcDbEntity
  8
2
100
AcDbVertex
100
AcDb2dVertex
 42
8.0022316E-003
 10
9.9490927E+001
 20
2.3354305E+002
 70
1
  0
VERTEX
  5
37a
100
AcDbEntity
  8
2
100
AcDbVertex
100
AcDb2dVertex
 42
8.2025137E-003
 10
9.9559508E+001
 20
2.3354876E+002
 70
0
  0
VERTEX
  5
37b
100
AcDbEntity
  8
2
100
AcDbVertex
100
AcDb2dVertex
 42
8.5131002E-003
 10
9.9627785E+001
 20
2.335568E+002
 70
1
  0
VERTEX
  5
37c
100
AcDbEntity
  8
2
100
AcDbVertex
100
AcDb2dVertex
 42
8.9719886E-003
 10
9.9695743E+001
 20
2.3356719E+002
 70
0
  0
VERTEX
  5
37d
100
AcDbEntity
  8
2
100
AcDbVertex
100
AcDb2dVertex
 42
8.9294146E-003
 10
9.9763283E+001
 20
2.3358009E+002
 70
1
  0
VERTEX
  5
37e
100
AcDbEntity
  8
2
100
AcDbVertex
100
AcDb2dVertex
 42
8.528519E-003
 10
9.9830008E+001
 20
2.3359522E+002
 70
0
  0
VERTEX
  5
37f
100
AcDbEntity
  8
2
100
AcDbVertex
100
AcDb2dVertex
 42
9.7095022E-003
 10
9.9895673E+001
 20
2.3361265E+002
 70
1
  0
VERTEX
  5
380
100
AcDbEntity
  8
2
100
AcDbVertex
100
AcDb2dVertex
 42
1.2003749E-002
 10
9.9961407E+001
 20
2.3363317E+002
 70
0
  0
VERTEX
  5
381
100
AcDbEntity
  8
2
100
AcDbVertex
100
AcDb2dVertex
 42
9.2115187E-003
 10
1.0002748E+002
 20
2.336572E+002
 70
1
  0
VERTEX
  5
382
100
AcDbEntity
  8
2
100
AcDbVertex
100
AcDb2dVertex
 42
2.9661091E-003
 10
1.0008902E+002
 20
2.3368125E+002
 70
0
  0
VERTEX
  5
383
100
AcDbEntity
  8
2
100
AcDbVertex
100
AcDb2dVertex
 42
1.354877E-002
 10
1.0014422E+002
 20
2.3370426E+002
 70
1
  0
VERTEX
  5
384
100
AcDbEntity
  8
2
100
AcDbVertex
100
AcDb2dVertex
 42
2.4191909E-002
 10
1.0021192E+002
 20
2.3373955E+002
 70
0
  0
VERTEX
  5
385
100
AcDbEntity
  8
2
100
AcDbVertex
100
AcDb2dVertex
 42
1.1909465E-002
 10
1.003118E+002
 20
2.3380132E+002
 70
1
  0
VERTEX
  5
386
100
AcDbEntity
  8
2
100
AcDbVertex
100
AcDb2dVertex
 42
6.2497234E-003
 10
1.0043998E+002
 20
2.3388666E+002
 70
0
  0
SEQEND
  5
387
100
AcDbEntity
  0
POLYLINE
  5
388
100
AcDbEntity
  8
2
100
AcDb2dPolyline
  6
CONTINUOUS
 62
1
 66
1
 40
0.0
 41
0.0
 70
2
  0
VERTEX
  5
389
100
AcDbEntity
  8
2
100
AcDbVertex
100
AcDb2dVertex
 42
0.0
 10
9.633317E+001
 20
2.3824259E+002
 70
0
  0
VERTEX
  5
38a
100
AcDbEntity
  8
2
100
AcDbVertex
100
AcDb2dVertex
 42
1.3109477E-002
 10
9.6284065E+001
 20
2.3818372E+002
 70
1
  0
VERTEX
  5
38b
100
AcDbEntity
  8
2
100
AcDbVertex
100
AcDb2dVertex
 42
1.2537955E-002
 10
9.6237498E+001
 20
2.381218E+002
 70
0
  0
VERTEX
  5
38c
100
AcDbEntity
  8
2
100
AcDbVertex
100
AcDb2dVertex
 42
1.2465552E-002
 10
9.6193591E+001
 20
2.3805675E+002
 70
1
  0
VERTEX
  5
38d
100
AcDbEntity
  8
2
100
AcDbVertex
100
AcDb2dVertex
 42
1.267756E-002
 10
9.6152127E+001
 20
2.3798823E+002
 70
0
  0
VERTEX
  5
38e
100
AcDbEntity
  8
2
100
AcDbVertex
100
AcDb2dVertex
 42
1.2580512E-002
 10
9.6113141E+001
 20
2.3791555E+002
 70
1
  0
VERTEX
  5
38f
100
AcDbEntity
  8
2
100
AcDbVertex
100
AcDb2dVertex
 42
1.2703788E-002
 10
9.6076812E+001
 20
2.3783889E+002
 70
0
  0
VERTEX
  5
390
100
AcDbEntity
  8
2
100
AcDbVertex
100
AcDb2dVertex
 42
1.2667225E-002
 10
9.6043595E+001
 20
2.3775819E+002
 70
1
  0
VERTEX
  5
391
100
AcDbEntity
  8
2
100
AcDbVertex
100
AcDb2dVertex
 42
1.2646428E-002
 10
9.6013622E+001
 20
2.3767362E+002
 70
0
  0
VERTEX
  5
392
100
AcDbEntity
  8
2
100
AcDbVertex
100
AcDb2dVertex
 42
1.2488982E-002
 10
9.5987274E+001
 20
2.3758502E+002
 70
1
  0
VERTEX
  5
393
100
AcDbEntity
  8
2
100
AcDbVertex
100
AcDb2dVertex
 42
1.2433245E-002
 10
9.5964664E+001
 20
2.3749262E+002
 70
0
  0
VERTEX
  5
394
100
AcDbEntity
  8
2
100
AcDbVertex
100
AcDb2dVertex
 42
1.2238775E-002
 10
9.5946215E+001
 20
2.3739635E+002
 70
1
  0
VERTEX
  5
395
100
AcDbEntity
  8
2
100
AcDbVertex
100
AcDb2dVertex
 42
1.2114966E-002
 10
9.5932002E+001
 20
2.3729648E+002
 70
0
  0
VERTEX
  5
396
100
AcDbEntity
  8
2
100
AcDbVertex
100
AcDb2dVertex
 42
1.1876154E-002
 10
9.592244E+001
 20
2.3719302E+002
 70
1
  0
VERTEX
  5
397
100
AcDbEntity
  8
2
100
AcDbVertex
100
AcDb2dVertex
 42
1.1714618E-002
 10
9.5917559E+001
 20
2.3708628E+002
 70
0
  0
VERTEX
  5
398
100
AcDbEntity
  8
2
100
AcDbVertex
100
AcDb2dVertex
 42
1.1454956E-002
 10
9.5917762E+001
 20
2.3697635E+002
 70
1
  0
VERTEX
  5
399
100
AcDbEntity
  8
2
100
AcDbVertex
100
AcDb2dVertex
 42
1.12657E-002
 10
9.5923018E+001
 20
2.3686357E+002
 70
0
  0
VERTEX
  5
39a
100
AcDbEntity
  8
2
100
AcDbVertex
100
AcDb2dVertex
 42
1.0998621E-002
 10
9.59337E+001
 20
2.3674812E+002
 70
1
  0
VERTEX
  5
39b
100
AcDbEntity
  8
2
100
AcDbVertex
100
AcDb2dVertex
 42
1.0796458E-002
 10
9.5949711E+001
 20
2.366304E+002
 70
0
  0
VERTEX
  5
39c
100
AcDbEntity
  8
2
100
AcDbVertex
100
AcDb2dVertex
 42
1.0535328E-002
 10
9.5971374E+001
 20
2.3651064E+002
 70
1
  0
VERTEX
  5
39d
100
AcDbEntity
  8
2
100
AcDbVertex
100
AcDb2dVertex
 42
1.0330849E-002
 10
9.5998518E+001
 20
2.3638926E+002
 70
0
  0
VERTEX
  5
39e
100
AcDbEntity
  8
2
100
AcDbVertex
100
AcDb2dVertex
 42
1.0085274E-002
 10
9.6031404E+001
 20
2.3626659E+002
 70
1
  0
VERTEX
  5
39f
100
AcDbEntity
  8
2
100
AcDbVertex
100
AcDb2dVertex
 42
9.886856E-003
 10
9.6069785E+001
 20
2.3614305E+002
 70
0
  0
VERTEX
  5
3a0
100
AcDbEntity
  8
2
100
AcDbVertex
100
AcDb2dVertex
 42
9.6635721E-003
 10
9.6113846E+001
 20
2.3601902E+002
 70
1
  0
VERTEX
  5
3a1
100
AcDbEntity
  8
2
100
AcDbVertex
100
AcDb2dVertex
 42
9.476855E-003
 10
9.6163267E+001
 20
2.3589494E+002
 70
0
  0
VERTEX
  5
3a2
100
AcDbEntity
  8
2
100
AcDbVertex
100
AcDb2dVertex
 42
9.2799538E-003
 10
9.6218149E+001
 20
2.3577122E+002
 70
1
  0
VERTEX
  5
3a3
100
AcDbEntity
  8
2
100
AcDbVertex
100
AcDb2dVertex
 42
9.1085674E-003
 10
9.6278106E+001
 20
2.3564826E+002
 70
0
  0
VERTEX
  5
3a4
100
AcDbEntity
  8
2
100
AcDbVertex
100
AcDb2dVertex
 42
8.9398721E-003
 10
9.6343153E+001
 20
2.3552653E+002
 70
1
  0
VERTEX
  5
3a5
100
AcDbEntity
  8
2
100
AcDbVertex
100
AcDb2dVertex
 42
8.7852871E-003
 10
9.6412853E+001
 20
2.3540637E+002
 70
0
  0
VERTEX
  5
3a6
100
AcDbEntity
  8
2
100
AcDbVertex
100
AcDb2dVertex
 42
8.6456571E-003
 10
9.6487135E+001
 20
2.3528826E+002
 70
1
  0
VERTEX
  5
3a7
100
AcDbEntity
  8
2
100
AcDbVertex
100
AcDb2dVertex
 42
8.5096873E-003
 10
9.6565526E+001
 20
2.3517248E+002
 70
0
  0
VERTEX
  5
3a8
100
AcDbEntity
  8
2
100
AcDbVertex
100
AcDb2dVertex
 42
8.3966651E-003
 10
9.6647881E+001
 20
2.3505949E+002
 70
1
  0
VERTEX
  5
3a9
100
AcDbEntity
  8
2
100
AcDbVertex
100
AcDb2dVertex
 42
8.2745086E-003
 10
9.6733707E+001
 20
2.3494952E+002
 70
0
  0
VERTEX
  5
3aa
100
AcDbEntity
  8
2
100
AcDbVertex
100
AcDb2dVertex
 42
8.192754E-003
 10
9.6822794E+001
 20
2.3484299E+002
 70
1
  0
VERTEX
  5
3ab
100
AcDbEntity
  8
2
100
AcDbVertex
100
AcDb2dVertex
 42
8.0993431E-003
 10
9.6914663E+001
 20
2.3474003E+002
 70
0
  0
VERTEX
  5
3ac
100
AcDbEntity
  8
2
100
AcDbVertex
100
AcDb2dVertex
 42
8.0249411E-003
 10
9.7009056E+001
 20
2.3464104E+002
 70
1
  0
VERTEX
  5
3ad
100
AcDbEntity
  8
2
100
AcDbVertex
100
AcDb2dVertex
 42
7.9029698E-003
 10
9.7105477E+001
 20
2.3454607E+002
 70
0
  0
VERTEX
  5
3ae
100
AcDbEntity
  8
2
100
AcDbVertex
100
AcDb2dVertex
 42
7.9112943E-003
 10
9.720362E+001
 20
2.3445548E+002
 70
1
  0
VERTEX
  5
3af
100
AcDbEntity
  8
2
100
AcDbVertex
100
AcDb2dVertex
 42
7.9533199E-003
 10
9.730319E+001
 20
2.3436917E+002
 70
0
  0
VERTEX
  5
3b0
100
AcDbEntity
  8
2
100
AcDbVertex
100
AcDb2dVertex
 42
7.7699463E-003
 10
9.7403921E+001
 20
2.3428743E+002
 70
1
  0
VERTEX
  5
3b1
100
AcDbEntity
  8
2
100
AcDbVertex
100
AcDb2dVertex
 42
7.3135284E-003
 10
9.7504919E+001
 20
2.3421032E+002
 70
0
  0
VERTEX
  5
3b2
100
AcDbEntity
  8
2
100
AcDbVertex
100
AcDb2dVertex
 42
7.8744896E-003
 10
9.7605689E+001
 20
2.3413815E+002
 70
1
  0
VERTEX
  5
3b3
100
AcDbEntity
  8
2
100
AcDbVertex
100
AcDb2dVertex
 42
9.0564182E-003
 10
9.7707965E+001
 20
2.3406997E+002
 70
0
  0
VERTEX
  5
3b4
100
AcDbEntity
  8
2
100
AcDbVertex
100
AcDb2dVertex
 42
7.2585078E-003
 10
9.781215E+001
 20
2.3400568E+002
 70
1
  0
VERTEX
  5
3b5
100
AcDbEntity
  8
2
100
AcDbVertex
100
AcDb2dVertex
 42
3.2649647E-003
 10
9.7909894E+001
 20
2.3394811E+002
 70
0
  0
VERTEX
  5
3b6
100
AcDbEntity
  8
2
100
AcDbVertex
100
AcDb2dVertex
 42
9.5349352E-003
 10
9.7998121E+001
 20
2.3389842E+002
 70
1
  0
VERTEX
  5
3b7
100
AcDbEntity
  8
2
100
AcDbVertex
100
AcDb2dVertex
 42
1.6315267E-002
 10
9.8108586E+001
 20
2.3384433E+002
 70
0
  0
VERTEX
  5
3b8
100
AcDbEntity
  8
2
100
AcDbVertex
100
AcDb2dVertex
 42
8.6767619E-003
 10
9.8274574E+001
 20
2.3377334E+002
 70
1
  0
VERTEX
  5
3b9
100
AcDbEntity
  8
2
100
AcDbVertex
100
AcDb2dVertex
 42
4.908846E-003
 10
9.8489497E+001
 20
2.3368778E+002
 70
0
  0
SEQEND
  5
3ba
100
AcDbEntity
  0
POLYLINE
  5
3bb
100
AcDbEntity
  8
2
100
AcDb2dPolyline
  6
CONTINUOUS
 62
1
 66
1
 40
0.0
 41
0.0
 70
2
  0
VERTEX
  5
3bc
100
AcDbEntity
  8
2
100
AcDbVertex
100
AcDb2dVertex
 42
0.0
 10
9.8283698E+001
 20
2.3349375E+002
 70
0
  0
VERTEX
  5
3bd
100
AcDbEntity
  8
2
100
AcDbVertex
100
AcDb2dVertex
 42
1.1109111E-002
 10
9.8401424E+001
 20
2.3345627E+002
 70
1
  0
VERTEX
  5
3be
100
AcDbEntity
  8
2
100
AcDbVertex
100
AcDb2dVertex
 42
1.0601127E-002
 10
9.8521588E+001
 20
2.3342361E+002
 70
0
  0
VERTEX
  5
3bf
100
AcDbEntity
  8
2
100
AcDbVertex
100
AcDb2dVertex
 42
1.0726366E-002
 10
9.8644349E+001
 20
2.3339588E+002
 70
1
  0
VERTEX
  5
3c0
100
AcDbEntity
  8
2
100
AcDbVertex
100
AcDb2dVertex
 42
1.1725564E-002
 10
9.8769204E+001
 20
2.3337342E+002
 70
0
  0
VERTEX
  5
3c1
100
AcDbEntity
  8
2
100
AcDbVertex
100
AcDb2dVertex
 42
1.2466758E-002
 10
9.8895727E+001
 20
2.3335711E+002
 70
1
  0
VERTEX
  5
3c2
100
AcDbEntity
  8
2
100
AcDbVertex
100
AcDb2dVertex
 42
1.3172409E-002
 10
9.9023376E+001
 20
2.3334717E+002
 70
0
  0
VERTEX
  5
3c3
100
AcDbEntity
  8
2
100
AcDbVertex
100
AcDb2dVertex
 42
1.3859748E-002
 10
9.9151689E+001
 20
2.333443E+002
 70
1
  0
VERTEX
  5
3c4
100
AcDbEntity
  8
2
100
AcDbVertex
100
AcDb2dVertex
 42
1.4751342E-002
 10
9.9280052E+001
 20
2.3334867E+002
 70
0
  0
VERTEX
  5
3c5
100
AcDbEntity
  8
2
100
AcDbVertex
100
AcDb2dVertex
 42
1.5548441E-002
 10
9.9407824E+001
 20
2.3336099E+002
 70
1
  0
VERTEX
  5
3c6
100
AcDbEntity
  8
2
100
AcDbVertex
100
AcDb2dVertex
 42
1.6458475E-002
 10
9.9534359E+001
 20
2.3338131E+002
 70
0
  0
VERTEX
  5
3c7
100
AcDbEntity
  8
2
100
AcDbVertex
100
AcDb2dVertex
 42
1.726282E-002
 10
9.9658889E+001
 20
2.3341025E+002
 70
1
  0
VERTEX
  5
3c8
100
AcDbEntity
  8
2
100
AcDbVertex
100
AcDb2dVertex
 42
1.8143913E-002
 10
9.978077E+001
 20
2.334477E+002
 70
0
  0
VERTEX
  5
3c9
100
AcDbEntity
  8
2
100
AcDbVertex
100
AcDb2dVertex
 42
1.889962E-002
 10
9.9899129E+001
 20
2.3349417E+002
 70
1
  0
VERTEX
  5
3ca
100
AcDbEntity
  8
2
100
AcDbVertex
100
AcDb2dVertex
 42
1.9680968E-002
 10
1.0001337E+002
 20
2.3354937E+002
 70
0
  0
VERTEX
  5
3cb
100
AcDbEntity
  8
2
100
AcDbVertex
100
AcDb2dVertex
 42
2.0204595E-002
 10
1.0012257E+002
 20
2.3361366E+002
 70
1
  0
VERTEX
  5
3cc
100
AcDbEntity
  8
2
100
AcDbVertex
100
AcDb2dVertex
 42
2.0591018E-002
 10
1.0022624E+002
 20
2.3368648E+002
 70
0
  0
VERTEX
  5
3cd
100
AcDbEntity
  8
2
100
AcDbVertex
100
AcDb2dVertex
 42
2.1005612E-002
 10
1.0032345E+002
 20
2.3376798E+002
 70
1
  0
VERTEX
  5
3ce
100
AcDbEntity
  8
2
100
AcDbVertex
100
AcDb2dVertex
 42
2.1496083E-002
 10
1.0041385E+002
 20
2.3385767E+002
 70
0
  0
VERTEX
  5
3cf
100
AcDbEntity
  8
2
100
AcDbVertex
100
AcDb2dVertex
 42
2.089538E-002
 10
1.0049659E+002
 20
2.3395555E+002
 70
1
  0
VERTEX
  5
3d0
100
AcDbEntity
  8
2
100
AcDbVertex
100
AcDb2dVertex
 42
1.9496421E-002
 10
1.0057155E+002
 20
2.3406003E+002
 70
0
  0
VERTEX
  5
3d1
100
AcDbEntity
  8
2
100
AcDbVertex
100
AcDb2dVertex
 42
2.0758377E-002
 10
1.0063799E+002
 20
2.3417056E+002
 70
1
  0
VERTEX
  5
3d2
100
AcDbEntity
  8
2
100
AcDbVertex
100
AcDb2dVertex
 42
2.348836E-002
 10
1.0069585E+002
 20
2.3428925E+002
 70
0
  0
VERTEX
  5
3d3
100
AcDbEntity
  8
2
100
AcDbVertex
100
AcDb2dVertex
 42
1.777357E-002
 10
1.0074448E+002
 20
2.344167E+002
 70
1
  0
VERTEX
  5
3d4
100
AcDbEntity
  8
2
100
AcDbVertex
100
AcDb2dVertex
 42
7.3538588E-003
 10
1.0078476E+002
 20
2.3453995E+002
 70
0
  0
VERTEX
  5
3d5
100
AcDbEntity
  8
2
100
AcDbVertex
100
AcDb2dVertex
 42
2.2610757E-002
 10
1.0081651E+002
 20
2.3465427E+002
 70
1
  0
VERTEX
  5
3d6
100
AcDbEntity
  8
2
100
AcDbVertex
100
AcDb2dVertex
 42
3.5501848E-002
 10
1.0083784E+002
 20
2.3480604E+002
 70
0
  0
VERTEX
  5
3d7
100
AcDbEntity
  8
2
100
AcDbVertex
100
AcDb2dVertex
 42
1.6868808E-002
 10
1.0084603E+002
 20
2.3504436E+002
 70
1
  0
VERTEX
  5
3d8
100
AcDbEntity
  8
2
100
AcDbVertex
100
AcDb2dVertex
 42
8.8690472E-003
 10
1.008419E+002
 20
2.3535936E+002
 70
0
  0
SEQEND
  5
3d9
100
AcDbEntity
  0
POLYLINE
  5
3da
100
AcDbEntity
  8
2
100
AcDb2dPolyline
  6
CONTINUOUS
 62
1
 66
1
 40
0.0
 41
0.0
 70
2
  0
VERTEX
  5
3db
100
AcDbEntity
  8
2
100
AcDbVertex
100
AcDb2dVertex
 42
0.0
 10
9.7826966E+001
 20
2.3855719E+002
 70
0
  0
VERTEX
  5
3dc
100
AcDbEntity
  8
2
100
AcDbVertex
100
AcDb2dVertex
 42
1.5146571E-002
 10
9.766324E+001
 20
2.3857878E+002
 70
1
  0
VERTEX
  5
3dd
100
AcDbEntity
  8
2
100
AcDbVertex
100
AcDb2dVertex
 42
1.6535787E-002
 10
9.7504045E+001
 20
2.3858974E+002
 70
0
  0
VERTEX
  5
3de
100
AcDbEntity
  8
2
100
AcDbVertex
100
AcDb2dVertex
 42
1.7353712E-002
 10
9.7349445E+001
 20
2.3858956E+002
 70
1
  0
VERTEX
  5
3df
100
AcDbEntity
  8
2
100
AcDbVertex
100
AcDb2dVertex
 42
1.7695352E-002
 10
9.72001E+001
 20
2.3857908E+002
 70
0
  0
VERTEX
  5
3e0
100
AcDbEntity
  8
2
100
AcDbVertex
100
AcDb2dVertex
 42
1.8278218E-002
 10
9.7057229E+001
 20
2.3855838E+002
 70
1
  0
VERTEX
  5
3e1
100
AcDbEntity
  8
2
100
AcDbVertex
100
AcDb2dVertex
 42
1.8657262E-002
 10
9.6921105E+001
 20
2.3852842E+002
 70
0
  0
VERTEX
  5
3e2
100
AcDbEntity
  8
2
100
AcDbVertex
100
AcDb2dVertex
 42
1.9104839E-002
 10
9.6792441E+001
 20
2.3848944E+002
 70
1
  0
VERTEX
  5
3e3
100
AcDbEntity
  8
2
100
AcDbVertex
100
AcDb2dVertex
 42
1.9247712E-002
 10
9.6671269E+001
 20
2.3844248E+002
 70
0
  0
VERTEX
  5
3e4
100
AcDbEntity
  8
2
100
AcDbVertex
100
AcDb2dVertex
 42
1.9466302E-002
 10
9.6558184E+001
 20
2.3838797E+002
 70
1
  0
VERTEX
  5
3e5
100
AcDbEntity
  8
2
100
AcDbVertex
100
AcDb2dVertex
 42
1.9304772E-002
 10
9.6452974E+001
 20
2.3832695E+002
 70
0
  0
VERTEX
  5
3e6
100
AcDbEntity
  8
2
100
AcDbVertex
100
AcDb2dVertex
 42
1.9279251E-002
 10
9.6356016E+001
 20
2.3825993E+002
 70
1
  0
VERTEX
  5
3e7
100
AcDbEntity
  8
2
100
AcDbVertex
100
AcDb2dVertex
 42
1.8942724E-002
 10
9.6266922E+001
 20
2.3818788E+002
 70
0
  0
VERTEX
  5
3e8
100
AcDbEntity
  8
2
100
AcDbVertex
100
AcDb2dVertex
 42
1.852272E-002
 10
9.6185907E+001
 20
2.3811133E+002
 70
1
  0
VERTEX
  5
3e9
100
AcDbEntity
  8
2
100
AcDbVertex
100
AcDb2dVertex
 42
1.7556914E-002
 10
9.6112413E+001
 20
2.3803126E+002
 70
0
  0
VERTEX
  5
3ea
100
AcDbEntity
  8
2
100
AcDbVertex
100
AcDb2dVertex
 42
1.7738297E-002
 10
9.6046239E+001
 20
2.3794787E+002
 70
1
  0
VERTEX
  5
3eb
100
AcDbEntity
  8
2
100
AcDbVertex
100
AcDb2dVertex
 42
1.760622E-002
 10
9.5985546E+001
 20
2.3785927E+002
 70
0
  0
VERTEX
  5
3ec
100
AcDbEntity
  8
2
100
AcDbVertex
100
AcDb2dVertex
 42
1.7002818E-002
 10
9.5929151E+001
 20
2.3776303E+002
 70
1
  0
VERTEX
  5
3ed
100
AcDbEntity
  8
2
100
AcDbVertex
100
AcDb2dVertex
 42
1.7531756E-002
 10
9.5877458E+001
 20
2.3765924E+002
 70
0
  0
VERTEX
  5
3ee
100
AcDbEntity
  8
2
100
AcDbVertex
100
AcDb2dVertex
 42
1.7554262E-002
 10
9.5831642E+001
 20
2.3754776E+002
 70
1
  0
VERTEX
  5
3ef
100
AcDbEntity
  8
2
100
AcDbVertex
100
AcDb2dVertex
 42
1.7440826E-002
 10
9.5792126E+001
 20
2.3742891E+002
 70
0
  0
VERTEX
  5
3f0
100
AcDbEntity
  8
2
100
AcDbVertex
100
AcDb2dVertex
 42
1.7083175E-002
 10
9.575981E+001
 20
2.3730243E+002
 70
1
  0
VERTEX
  5
3f1
100
AcDbEntity
  8
2
100
AcDbVertex
100
AcDb2dVertex
 42
1.6942773E-002
 10
9.573507E+001
 20
2.3716887E+002
 70
0
  0
VERTEX
  5
3f2
100
AcDbEntity
  8
2
100
AcDbVertex
100
AcDb2dVertex
 42
1.6518894E-002
 10
9.5718904E+001
 20
2.3702826E+002
 70
1
  0
VERTEX
  5
3f3
100
AcDbEntity
  8
2
100
AcDbVertex
100
AcDb2dVertex
 42
1.6213887E-002
 10
9.5711547E+001
 20
2.3688132E+002
 70
0
  0
VERTEX
  5
3f4
100
AcDbEntity
  8
2
100
AcDbVertex
100
AcDb2dVertex
 42
1.570966E-002
 10
9.5713919E+001
 20
2.3672833E+002
 70
1
  0
VERTEX
  5
3f5
100
AcDbEntity
  8
2
100
AcDbVertex
100
AcDb2dVertex
 42
1.5347617E-002
 10
9.572606E+001
 20
2.3657017E+002
 70
0
  0
VERTEX
  5
3f6
100
AcDbEntity
  8
2
100
AcDbVertex
100
AcDb2dVertex
 42
1.4838082E-002
 10
9.5748763E+001
 20
2.3640741E+002
 70
1
  0
VERTEX
  5
3f7
100
AcDbEntity
  8
2
100
AcDbVertex
100
AcDb2dVertex
 42
1.4450004E-002
 10
9.5781823E+001
 20
2.3624109E+002
 70
0
  0
VERTEX
  5
3f8
100
AcDbEntity
  8
2
100
AcDbVertex
100
AcDb2dVertex
 42
1.3972855E-002
 10
9.582582E+001
 20
2.36072E+002
 70
1
  0
VERTEX
  5
3f9
100
AcDbEntity
  8
2
100
AcDbVertex
100
AcDb2dVertex
 42
1.359804E-002
 10
9.588028E+001
 20
2.3590128E+002
 70
0
  0
VERTEX
  5
3fa
100
AcDbEntity
  8
2
100
AcDbVertex
100
AcDb2dVertex
 42
1.3178636E-002
 10
9.5945513E+001
 20
2.3572994E+002
 70
1
  0
VERTEX
  5
3fb
100
AcDbEntity
  8
2
100
AcDbVertex
100
AcDb2dVertex
 42
1.2830474E-002
 10
9.6020776E+001
 20
2.3555909E+002
 70
0
  0
VERTEX
  5
3fc
100
AcDbEntity
  8
2
100
AcDbVertex
100
AcDb2dVertex
 42
1.2490689E-002
 10
9.6106075E+001
 20
2.3538988E+002
 70
1
  0
VERTEX
  5
3fd
100
AcDbEntity
  8
2
100
AcDbVertex
100
AcDb2dVertex
 42
1.2201595E-002
 10
9.6200455E+001
 20
2.352233E+002
 70
0
  0
VERTEX
  5
3fe
100
AcDbEntity
  8
2
100
AcDbVertex
100
AcDb2dVertex
 42
1.1914676E-002
 10
9.6303633E+001
 20
2.3506055E+002
 70
1
  0
VERTEX
  5
3ff
100
AcDbEntity
  8
2
100
AcDbVertex
100
AcDb2dVertex
 42
1.1613048E-002
 10
9.6414439E+001
 20
2.3490245E+002
 70
0
  0
VERTEX
  5
400
100
AcDbEntity
  8
2
100
AcDbVertex
100
AcDb2dVertex
 42
1.1481393E-002
 10
9.6532317E+001
 20
2.3475014E+002
 70
1
  0
VERTEX
  5
401
100
AcDbEntity
  8
2
100
AcDbVertex
100
AcDb2dVertex
 42
1.1420944E-002
 10
9.6656259E+001
 20
2.3460409E+002
 70
0
  0
VERTEX
  5
402
100
AcDbEntity
  8
2
100
AcDbVertex
100
AcDb2dVertex
 42
1.1078529E-002
 10
9.6785603E+001
 20
2.3446528E+002
 70
1
  0
VERTEX
  5
403
100
AcDbEntity
  8
2
100
AcDbVertex
100
AcDb2dVertex
 42
1.0395714E-002
 10
9.6918463E+001
 20
2.3433425E+002
 70
0
  0
VERTEX
  5
404
100
AcDbEntity
  8
2
100
AcDbVertex
100
AcDb2dVertex
 42
1.1059611E-002
 10
9.7053763E+001
 20
2.3421189E+002
 70
1
  0
VERTEX
  5
405
100
AcDbEntity
  8
2
100
AcDbVertex
100
AcDb2dVertex
 42
1.2530365E-002
 10
9.7193292E+001
 20
2.3409707E+002
 70
0
  0
VERTEX
  5
406
100
AcDbEntity
  8
2
100
AcDbVertex
100
AcDb2dVertex
 42
1.0158958E-002
 10
9.7337178E+001
 20
2.3398999E+002
 70
1
  0
VERTEX
  5
407
100
AcDbEntity
  8
2
100
AcDbVertex
100
AcDb2dVertex
 42
4.8866157E-003
 10
9.7473303E+001
 20
2.3389477E+002
 70
0
  0
VERTEX
  5
408
100
AcDbEntity
  8
2
100
AcDbVertex
100
AcDb2dVertex
 42
1.3027759E-002
 10
9.7596983E+001
 20
2.3381328E+002
 70
1
  0
VERTEX
  5
409
100
AcDbEntity
  8
2
100
AcDbVertex
100
AcDb2dVertex
 42
2.2147587E-002
 10
9.7751853E+001
 20
2.3372771E+002
 70
0
  0
VERTEX
  5
40a
100
AcDbEntity
  8
2
100
AcDbVertex
100
AcDb2dVertex
 42
1.2103441E-002
 10
9.7983791E+001
 20
2.3362011E+002
 70
1
  0
VERTEX
  5
40b
100
AcDbEntity
  8
2
100
AcDbVertex
100
AcDb2dVertex
 42
6.9780718E-003
 10
9.8283698E+001
 20
2.3349375E+002
 70
0
  0
SEQEND
  5
40c
100
AcDbEntity
  0
POLYLINE
  5
40d
100
AcDbEntity
  8
2
100
AcDb2dPolyline
  6
CONTINUOUS
 62
1
 66
1
 40
0.0
 41
0.0
 70
2
  0
VERTEX
  5
40e
100
AcDbEntity
  8
2
100
AcDbVertex
100
AcDb2dVertex
 42
0.0
 10
9.7769199E+001
 20
2.3218407E+002
 70
0
  0
VERTEX
  5
40f
100
AcDbEntity
  8
2
100
AcDbVertex
100
AcDb2dVertex
 42
5.785485E-003
 10
9.7855332E+001
 20
2.3215586E+002
 70
1
  0
VERTEX
  5
410
100
AcDbEntity
  8
2
100
AcDbVertex
100
AcDb2dVertex
 42
5.617447E-003
 10
9.7942561E+001
 20
2.3212944E+002
 70
0
  0
VERTEX
  5
411
100
AcDbEntity
  8
2
100
AcDbVertex
100
AcDb2dVertex
 42
5.6496354E-003
 10
9.8030943E+001
 20
2.3210488E+002
 70
1
  0
VERTEX
  5
412
100
AcDbEntity
  8
2
100
AcDbVertex
100
AcDb2dVertex
 42
5.9327726E-003
 10
9.8120359E+001
 20
2.3208221E+002
 70
0
  0
VERTEX
  5
413
100
AcDbEntity
  8
2
100
AcDbVertex
100
AcDb2dVertex
 42
6.132219E-003
 10
9.8210756E+001
 20
2.3206166E+002
 70
1
  0
VERTEX
  5
414
100
AcDbEntity
  8
2
100
AcDbVertex
100
AcDb2dVertex
 42
6.3162607E-003
 10
9.8302015E+001
 20
2.3204326E+002
 70
0
  0
VERTEX
  5
415
100
AcDbEntity
  8
2
100
AcDbVertex
100
AcDb2dVertex
 42
6.4908689E-003
 10
9.8394087E+001
 20
2.320272E+002
 70
1
  0
VERTEX
  5
416
100
AcDbEntity
  8
2
100
AcDbVertex
100
AcDb2dVertex
 42
6.7203276E-003
 10
9.8486842E+001
 20
2.3201349E+002
 70
0
  0
VERTEX
  5
417
100
AcDbEntity
  8
2
100
AcDbVertex
100
AcDb2dVertex
 42
6.9216904E-003
 10
9.8580204E+001
 20
2.3200236E+002
 70
1
  0
VERTEX
  5
418
100
AcDbEntity
  8
2
100
AcDbVertex
100
AcDb2dVertex
 42
7.16038E-003
 10
9.8674041E+001
 20
2.3199379E+002
 70
0
  0
VERTEX
  5
419
100
AcDbEntity
  8
2
100
AcDbVertex
100
AcDb2dVertex
 42
7.372104E-003
 10
9.8768253E+001
 20
2.3198802E+002
 70
1
  0
VERTEX
  5
41a
100
AcDbEntity
  8
2
100
AcDbVertex
100
AcDb2dVertex
 42
7.6214992E-003
 10
9.8862703E+001
 20
2.3198503E+002
 70
0
  0
VERTEX
  5
41b
100
AcDbEntity
  8
2
100
AcDbVertex
100
AcDb2dVertex
 42
7.8559813E-003
 10
9.8957268E+001
 20
2.3198504E+002
 70
1
  0
VERTEX
  5
41c
100
AcDbEntity
  8
2
100
AcDbVertex
100
AcDb2dVertex
 42
8.1385652E-003
 10
9.9051814E+001
 20
2.3198803E+002
 70
0
  0
VERTEX
  5
41d
100
AcDbEntity
  8
2
100
AcDbVertex
100
AcDb2dVertex
 42
8.3551778E-003
 10
9.9146201E+001
 20
2.3199421E+002
 70
1
  0
VERTEX
  5
41e
100
AcDbEntity
  8
2
100
AcDbVertex
100
AcDb2dVertex
 42
8.5705973E-003
 10
9.9240262E+001
 20
2.3200353E+002
 70
0
  0
VERTEX
  5
41f
100
AcDbEntity
  8
2
100
AcDbVertex
100
AcDb2dVertex
 42
8.8999463E-003
 10
9.9333822E+001
 20
2.320162E+002
 70
1
  0
VERTEX
  5
420
100
AcDbEntity
  8
2
100
AcDbVertex
100
AcDb2dVertex
 42
9.3836556E-003
 10
9.9426847E+001
 20
2.3203222E+002
 70
0
  0
VERTEX
  5
421
100
AcDbEntity
  8
2
100
AcDbVertex
100
AcDb2dVertex
 42
9.3436481E-003
 10
9.9519187E+001
 20
2.3205183E+002
 70
1
  0
VERTEX
  5
422
100
AcDbEntity
  8
2
100
AcDbVertex
100
AcDb2dVertex
 42
8.9284193E-003
 10
9.96103E+001
 20
2.3207463E+002
 70
0
  0
VERTEX
  5
423
100
AcDbEntity
  8
2
100
AcDbVertex
100
AcDb2dVertex
 42
1.0161479E-002
 10
9.9699838E+001
 20
2.321007E+002
 70
1
  0
VERTEX
  5
424
100
AcDbEntity
  8
2
100
AcDbVertex
100
AcDb2dVertex
 42
1.2554779E-002
 10
9.9789301E+001
 20
2.3213118E+002
 70
0
  0
VERTEX
  5
425
100
AcDbEntity
  8
2
100
AcDbVertex
100
AcDb2dVertex
 42
9.6387801E-003
 10
9.9879022E+001
 20
2.3216668E+002
 70
1
  0
VERTEX
  5
426
100
AcDbEntity
  8
2
100
AcDbVertex
100
AcDb2dVertex
 42
3.1217506E-003
 10
9.9962503E+001
 20
2.3220214E+002
 70
0
  0
VERTEX
  5
427
100
AcDbEntity
  8
2
100
AcDbVertex
100
AcDb2dVertex
 42
1.4151845E-002
 10
1.000373E+002
 20
2.32236E+002
 70
1
  0
VERTEX
  5
428
100
AcDbEntity
  8
2
100
AcDbVertex
100
AcDb2dVertex
 42
2.5221836E-002
 10
1.0012856E+002
 20
2.3228759E+002
 70
0
  0
VERTEX
  5
429
100
AcDbEntity
  8
2
100
AcDbVertex
100
AcDb2dVertex
 42
1.2402995E-002
 10
1.0026253E+002
 20
2.3237746E+002
 70
1
  0
VERTEX
  5
42a
100
AcDbEntity
  8
2
100
AcDbVertex
100
AcDb2dVertex
 42
6.5050597E-003
 10
1.0043405E+002
 20
2.325014E+002
 70
0
  0
SEQEND
  5
42b
100
AcDbEntity
  0
POLYLINE
  5
42c
100
AcDbEntity
  8
2
100
AcDb2dPolyline
  6
CONTINUOUS
 62
1
 66
1
 40
0.0
 41
0.0
 70
2
  0
VERTEX
  5
42d
100
AcDbEntity
  8
2
100
AcDbVertex
100
AcDb2dVertex
 42
0.0
 10
9.4949958E+001
 20
2.3831816E+002
 70
0
  0
VERTEX
  5
42e
100
AcDbEntity
  8
2
100
AcDbVertex
100
AcDb2dVertex
 42
1.2816414E-002
 10
9.4879113E+001
 20
2.382397E+002
 70
1
  0
VERTEX
  5
42f
100
AcDbEntity
  8
2
100
AcDbVertex
100
AcDb2dVertex
 42
1.2692823E-002
 10
9.481262E+001
 20
2.3815818E+002
 70
0
  0
VERTEX
  5
430
100
AcDbEntity
  8
2
100
AcDbVertex
100
AcDb2dVertex
 42
1.2948672E-002
 10
9.4750781E+001
 20
2.3807368E+002
 70
1
  0
VERTEX
  5
431
100
AcDbEntity
  8
2
100
AcDbVertex
100
AcDb2dVertex
 42
1.2884908E-002
 10
9.469258E+001
 20
2.3798497E+002
 70
0
  0
VERTEX
  5
432
100
AcDbEntity
  8
2
100
AcDbVertex
100
AcDb2dVertex
 42
1.2570011E-002
 10
9.4637363E+001
 20
2.3789043E+002
 70
1
  0
VERTEX
  5
433
100
AcDbEntity
  8
2
100
AcDbVertex
100
AcDb2dVertex
 42
1.2874926E-002
 10
9.4585434E+001
 20
2.3779033E+002
 70
0
  0
VERTEX
  5
434
100
AcDbEntity
  8
2
100
AcDbVertex
100
AcDb2dVertex
 42
1.2940847E-002
 10
9.4537578E+001
 20
2.3768473E+002
 70
1
  0
VERTEX
  5
435
100
AcDbEntity
  8
2
100
AcDbVertex
100
AcDb2dVertex
 42
1.2892963E-002
 10
9.4493971E+001
 20
2.3757381E+002
 70
0
  0
VERTEX
  5
436
100
AcDbEntity
  8
2
100
AcDbVertex
100
AcDb2dVertex
 42
1.2728805E-002
 10
9.4455096E+001
 20
2.374573E+002
 70
1
  0
VERTEX
  5
437
100
AcDbEntity
  8
2
100
AcDbVertex
100
AcDb2dVertex
 42
1.2709438E-002
 10
9.4421129E+001
 20
2.373355E+002
 70
0
  0
VERTEX
  5
438
100
AcDbEntity
  8
2
100
AcDbVertex
100
AcDb2dVertex
 42
1.2531538E-002
 10
9.4392664E+001
 20
2.3720829E+002
 70
1
  0
VERTEX
  5
439
100
AcDbEntity
  8
2
100
AcDbVertex
100
AcDb2dVertex
 42
1.2415334E-002
 10
9.4369824E+001
 20
2.3707604E+002
 70
0
  0
VERTEX
  5
43a
100
AcDbEntity
  8
2
100
AcDbVertex
100
AcDb2dVertex
 42
1.2177274E-002
 10
9.4353187E+001
 20
2.3693871E+002
 70
1
  0
VERTEX
  5
43b
100
AcDbEntity
  8
2
100
AcDbVertex
100
AcDb2dVertex
 42
1.2022906E-002
 10
9.4342817E+001
 20
2.3679672E+002
 70
0
  0
VERTEX
  5
43c
100
AcDbEntity
  8
2
100
AcDbVertex
100
AcDb2dVertex
 42
1.1760255E-002
 10
9.4339284E+001
 20
2.3665016E+002
 70
1
  0
VERTEX
  5
43d
100
AcDbEntity
  8
2
100
AcDbVertex
100
AcDb2dVertex
 42
1.1570812E-002
 10
9.4342574E+001
 20
2.3649953E+002
 70
0
  0
VERTEX
  5
43e
100
AcDbEntity
  8
2
100
AcDbVertex
100
AcDb2dVertex
 42
1.1295563E-002
 10
9.4353216E+001
 20
2.3634499E+002
 70
1
  0
VERTEX
  5
43f
100
AcDbEntity
  8
2
100
AcDbVertex
100
AcDb2dVertex
 42
1.1089489E-002
 10
9.4371105E+001
 20
2.3618711E+002
 70
0
  0
VERTEX
  5
440
100
AcDbEntity
  8
2
100
AcDbVertex
100
AcDb2dVertex
 42
1.0817441E-002
 10
9.4396708E+001
 20
2.360262E+002
 70
1
  0
VERTEX
  5
441
100
AcDbEntity
  8
2
100
AcDbVertex
100
AcDb2dVertex
 42
1.0606168E-002
 10
9.4429816E+001
 20
2.3586283E+002
 70
0
  0
VERTEX
  5
442
100
AcDbEntity
  8
2
100
AcDbVertex
100
AcDb2dVertex
 42
1.0348198E-002
 10
9.4470813E+001
 20
2.3569742E+002
 70
1
  0
VERTEX
  5
443
100
AcDbEntity
  8
2
100
AcDbVertex
100
AcDb2dVertex
 42
1.0141497E-002
 10
9.4519383E+001
 20
2.3553058E+002
 70
0
  0
VERTEX
  5
444
100
AcDbEntity
  8
2
100
AcDbVertex
100
AcDb2dVertex
 42
9.9055643E-003
 10
9.4575804E+001
 20
2.3536281E+002
 70
1
  0
VERTEX
  5
445
100
AcDbEntity
  8
2
100
AcDbVertex
100
AcDb2dVertex
 42
9.7099949E-003
 10
9.4639655E+001
 20
2.3519472E+002
 70
0
  0
VERTEX
  5
446
100
AcDbEntity
  8
2
100
AcDbVertex
100
AcDb2dVertex
 42
9.5010191E-003
 10
9.4711098E+001
 20
2.350269E+002
 70
1
  0
VERTEX
  5
447
100
AcDbEntity
  8
2
100
AcDbVertex
100
AcDb2dVertex
 42
9.320903E-003
 10
9.4789616E+001
 20
2.348599E+002
 70
0
  0
VERTEX
  5
448
100
AcDbEntity
  8
2
100
AcDbVertex
100
AcDb2dVertex
 42
9.1412481E-003
 10
9.4875248E+001
 20
2.3469436E+002
 70
1
  0
VERTEX
  5
449
100
AcDbEntity
  8
2
100
AcDbVertex
100
AcDb2dVertex
 42
8.9784849E-003
 10
9.4967398E+001
 20
2.345308E+002
 70
0
  0
VERTEX
  5
44a
100
AcDbEntity
  8
2
100
AcDbVertex
100
AcDb2dVertex
 42
8.8293197E-003
 10
9.5065986E+001
 20
2.3436985E+002
 70
1
  0
VERTEX
  5
44b
100
AcDbEntity
  8
2
100
AcDbVertex
100
AcDb2dVertex
 42
8.685994E-003
 10
9.517036E+001
 20
2.3421195E+002
 70
0
  0
VERTEX
  5
44c
100
AcDbEntity
  8
2
100
AcDbVertex
100
AcDb2dVertex
 42
8.5649603E-003
 10
9.528033E+001
 20
2.3405774E+002
 70
1
  0
VERTEX
  5
44d
100
AcDbEntity
  8
2
100
AcDbVertex
100
AcDb2dVertex
 42
8.43632E-003
 10
9.5395213E+001
 20
2.3390754E+002
 70
0
  0
VERTEX
  5
44e
100
AcDbEntity
  8
2
100
AcDbVertex
100
AcDb2dVertex
 42
8.3481801E-003
 10
9.5514723E+001
 20
2.3376196E+002
 70
1
  0
VERTEX
  5
44f
100
AcDbEntity
  8
2
100
AcDbVertex
100
AcDb2dVertex
 42
8.2494002E-003
 10
9.5638192E+001
 20
2.336212E+002
 70
0
  0
VERTEX
  5
450
100
AcDbEntity
  8
2
100
AcDbVertex
100
AcDb2dVertex
 42
8.169859E-003
 10
9.5765265E+001
 20
2.3348582E+002
 70
1
  0
VERTEX
  5
451
100
AcDbEntity
  8
2
100
AcDbVertex
100
AcDb2dVertex
 42
8.0428647E-003
 10
9.5895246E+001
 20
2.3335591E+002
 70
0
  0
VERTEX
  5
452
100
AcDbEntity
  8
2
100
AcDbVertex
100
AcDb2dVertex
 42
8.048219E-003
 10
9.6027712E+001
 20
2.3323197E+002
 70
1
  0
VERTEX
  5
453
100
AcDbEntity
  8
2
100
AcDbVertex
100
AcDb2dVertex
 42
8.0879703E-003
 10
9.6162238E+001
 20
2.3311388E+002
 70
0
  0
VERTEX
  5
454
100
AcDbEntity
  8
2
100
AcDbVertex
100
AcDb2dVertex
 42
7.9001473E-003
 10
9.6298454E+001
 20
2.3300205E+002
 70
1
  0
VERTEX
  5
455
100
AcDbEntity
  8
2
100
AcDbVertex
100
AcDb2dVertex
 42
7.4357282E-003
 10
9.6435122E+001
 20
2.3289659E+002
 70
0
  0
VERTEX
  5
456
100
AcDbEntity
  8
2
100
AcDbVertex
100
AcDb2dVertex
 42
8.0024977E-003
 10
9.6571561E+001
 20
2.327979E+002
 70
1
  0
VERTEX
  5
457
100
AcDbEntity
  8
2
100
AcDbVertex
100
AcDb2dVertex
 42
9.1981977E-003
 10
9.67101E+001
 20
2.3270472E+002
 70
0
  0
VERTEX
  5
458
100
AcDbEntity
  8
2
100
AcDbVertex
100
AcDb2dVertex
 42
7.3764902E-003
 10
9.6851269E+001
 20
2.3261692E+002
 70
1
  0
VERTEX
  5
459
100
AcDbEntity
  8
2
100
AcDbVertex
100
AcDb2dVertex
 42
3.3282962E-003
 10
9.6983741E+001
 20
2.3253831E+002
 70
0
  0
VERTEX
  5
45a
100
AcDbEntity
  8
2
100
AcDbVertex
100
AcDb2dVertex
 42
9.680122E-003
 10
9.7103336E+001
 20
2.324705E+002
 70
1
  0
VERTEX
  5
45b
100
AcDbEntity
  8
2
100
AcDbVertex
100
AcDb2dVertex
 42
1.6560128E-002
 10
9.7253058E+001
 20
2.3239681E+002
 70
0
  0
VERTEX
  5
45c
100
AcDbEntity
  8
2
100
AcDbVertex
100
AcDb2dVertex
 42
8.8174264E-003
 10
9.7477986E+001
 20
2.3230028E+002
 70
1
  0
VERTEX
  5
45d
100
AcDbEntity
  8
2
100
AcDbVertex
100
AcDb2dVertex
 42
4.9927252E-003
 10
9.7769199E+001
 20
2.3218407E+002
 70
0
  0
SEQEND
  5
45e
100
AcDbEntity
  0
POLYLINE
  5
45f
100
AcDbEntity
  8
2
100
AcDb2dPolyline
  6
CONTINUOUS
 62
1
 66
1
 40
0.0
 41
0.0
 70
2
  0
VERTEX
  5
460
100
AcDbEntity
  8
2
100
AcDbVertex
100
AcDb2dVertex
 42
0.0
 10
9.5931247E+001
 20
2.3676988E+002
 70
0
  0
VERTEX
  5
461
100
AcDbEntity
  8
2
100
AcDbVertex
100
AcDb2dVertex
 42
8.5462929E-003
 10
9.5982313E+001
 20
2.3662472E+002
 70
1
  0
VERTEX
  5
462
100
AcDbEntity
  8
2
100
AcDbVertex
100
AcDb2dVertex
 42
8.359441E-003
 10
9.6038803E+001
 20
2.3647974E+002
 70
0
  0
VERTEX
  5
463
100
AcDbEntity
  8
2
100
AcDbVertex
100
AcDb2dVertex
 42
8.1602774E-003
 10
9.6100966E+001
 20
2.3633491E+002
 70
1
  0
VERTEX
  5
464
100
AcDbEntity
  8
2
100
AcDbVertex
100
AcDb2dVertex
 42
8.0525278E-003
 10
9.6168425E+001
 20
2.3619062E+002
 70
0
  0
VERTEX
  5
465
100
AcDbEntity
  8
2
100
AcDbVertex
100
AcDb2dVertex
 42
7.9333338E-003
 10
9.6241206E+001
 20
2.360474E+002
 70
1
  0
VERTEX
  5
466
100
AcDbEntity
  8
2
100
AcDbVertex
100
AcDb2dVertex
 42
7.8000059E-003
 10
9.6318905E+001
 20
2.3590555E+002
 70
0
  0
VERTEX
  5
467
100
AcDbEntity
  8
2
100
AcDbVertex
100
AcDb2dVertex
 42
7.6788089E-003
 10
9.6401516E+001
 20
2.3576548E+002
 70
1
  0
VERTEX
  5
468
100
AcDbEntity
  8
2
100
AcDbVertex
100
AcDb2dVertex
 42
7.5710757E-003
 10
9.6488602E+001
 20
2.3562747E+002
 70
0
  0
VERTEX
  5
469
100
AcDbEntity
  8
2
100
AcDbVertex
100
AcDb2dVertex
 42
7.4760876E-003
 10
9.658008E+001
 20
2.3549196E+002
 70
1
  0
VERTEX
  5
46a
100
AcDbEntity
  8
2
100
AcDbVertex
100
AcDb2dVertex
 42
7.376553E-003
 10
9.6675498E+001
 20
2.3535915E+002
 70
0
  0
VERTEX
  5
46b
100
AcDbEntity
  8
2
100
AcDbVertex
100
AcDb2dVertex
 42
7.296668E-003
 10
9.6774716E+001
 20
2.3522948E+002
 70
1
  0
VERTEX
  5
46c
100
AcDbEntity
  8
2
100
AcDbVertex
100
AcDb2dVertex
 42
7.2068393E-003
 10
9.6877275E+001
 20
2.3510309E+002
 70
0
  0
VERTEX
  5
46d
100
AcDbEntity
  8
2
100
AcDbVertex
100
AcDb2dVertex
 42
7.1494602E-003
 10
9.6982984E+001
 20
2.3498038E+002
 70
1
  0
VERTEX
  5
46e
100
AcDbEntity
  8
2
100
AcDbVertex
100
AcDb2dVertex
 42
7.081601E-003
 10
9.7091406E+001
 20
2.3486144E+002
 70
0
  0
VERTEX
  5
46f
100
AcDbEntity
  8
2
100
AcDbVertex
100
AcDb2dVertex
 42
7.024273E-003
 10
9.7202316E+001
 20
2.3474662E+002
 70
1
  0
VERTEX
  5
470
100
AcDbEntity
  8
2
100
AcDbVertex
100
AcDb2dVertex
 42
6.9261422E-003
 10
9.7315248E+001
 20
2.3463597E+002
 70
0
  0
VERTEX
  5
471
100
AcDbEntity
  8
2
100
AcDbVertex
100
AcDb2dVertex
 42
6.9399756E-003
 10
9.7429933E+001
 20
2.345298E+002
 70
1
  0
VERTEX
  5
472
100
AcDbEntity
  8
2
100
AcDbVertex
100
AcDb2dVertex
 42
6.9898439E-003
 10
9.7546137E+001
 20
2.3442801E+002
 70
0
  0
VERTEX
  5
473
100
AcDbEntity
  8
2
100
AcDbVertex
100
AcDb2dVertex
 42
6.8214098E-003
 10
9.7663641E+001
 20
2.3433085E+002
 70
1
  0
VERTEX
  5
474
100
AcDbEntity
  8
2
100
AcDbVertex
100
AcDb2dVertex
 42
6.4116864E-003
 10
9.7781471E+001
 20
2.3423848E+002
 70
0
  0
VERTEX
  5
475
100
AcDbEntity
  8
2
100
AcDbVertex
100
AcDb2dVertex
 42
6.9241272E-003
 10
9.7899131E+001
 20
2.3415123E+002
 70
1
  0
VERTEX
  5
476
100
AcDbEntity
  8
2
100
AcDbVertex
100
AcDb2dVertex
 42
8.0019737E-003
 10
9.8018786E+001
 20
2.3406787E+002
 70
0
  0
VERTEX
  5
477
100
AcDbEntity
  8
2
100
AcDbVertex
100
AcDb2dVertex
 42
6.3591066E-003
 10
9.8141008E+001
 20
2.3398823E+002
 70
1
  0
VERTEX
  5
478
100
AcDbEntity
  8
2
100
AcDbVertex
100
AcDb2dVertex
 42
2.7625067E-003
 10
9.8255814E+001
 20
2.339163E+002
 70
0
  0
VERTEX
  5
479
100
AcDbEntity
  8
2
100
AcDbVertex
100
AcDb2dVertex
 42
8.4345603E-003
 10
9.8359583E+001
 20
2.3385368E+002
 70
1
  0
VERTEX
  5
47a
100
AcDbEntity
  8
2
100
AcDbVertex
100
AcDb2dVertex
 42
1.4441111E-002
 10
9.8490522E+001
 20
2.3378352E+002
 70
0
  0
VERTEX
  5
47b
100
AcDbEntity
  8
2
100
AcDbVertex
100
AcDb2dVertex
 42
7.5756272E-003
 10
9.8688704E+001
 20
2.3368856E+002
 70
1
  0
VERTEX
  5
47c
100
AcDbEntity
  8
2
100
AcDbVertex
100
AcDb2dVertex
 42
4.2406271E-003
 10
9.8946184E+001
 20
2.3357206E+002
 70
0
  0
SEQEND
  5
47d
100
AcDbEntity
  0
ELLIPSE
  5
47e
100
AcDbEntity
  8
2
100
AcDbEllipse
  6
CONTINUOUS
 10
9.7614831E+001
 20
2.3533702E+002
 11
2.7439776
 21
-2.9104273
 40
7.0710678E-001
 41
0.0
 42
6.2831853
 62
1
  0
POLYLINE
  5
47f
100
AcDbEntity
  8
2
100
AcDb2dPolyline
  6
CONTINUOUS
 62
6
 66
1
 40
0.0
 41
0.0
 70
2
  0
VERTEX
  5
480
100
AcDbEntity
  8
2
100
AcDbVertex
100
AcDb2dVertex
 42
0.0
 10
9.3738943E+001
 20
1.9013565E+002
 70
0
  0
VERTEX
  5
481
100
AcDbEntity
  8
2
100
AcDbVertex
100
AcDb2dVertex
 42
-8.5187593E-003
 10
9.3616424E+001
 20
1.9017933E+002
 70
1
  0
VERTEX
  5
482
100
AcDbEntity
  8
2
100
AcDbVertex
100
AcDb2dVertex
 42
-7.8283164E-003
 10
9.3491762E+001
 20
1.9022834E+002
 70
0
  0
VERTEX
  5
483
100
AcDbEntity
  8
2
100
AcDbVertex
100
AcDb2dVertex
 42
-7.5590079E-003
 10
9.3364832E+001
 20
1.9028289E+002
 70
1
  0
VERTEX
  5
484
100
AcDbEntity
  8
2
100
AcDbVertex
100
AcDb2dVertex
 42
-7.776807E-003
 10
9.3235972E+001
 20
1.9034295E+002
 70
0
  0
VERTEX
  5
485
100
AcDbEntity
  8
2
100
AcDbVertex
100
AcDb2dVertex
 42
-7.79984E-003
 10
9.3105421E+001
 20
1.9040896E+002
 70
1
  0
VERTEX
  5
486
100
AcDbEntity
  8
2
100
AcDbVertex
100
AcDb2dVertex
 42
-7.7982461E-003
 10
9.2973531E+001
 20
1.9048081E+002
 70
0
  0
VERTEX
  5
487
100
AcDbEntity
  8
2
100
AcDbVertex
100
AcDb2dVertex
 42
-7.7604229E-003
 10
9.2840551E+001
 20
1.9055886E+002
 70
1
  0
VERTEX
  5
488
100
AcDbEntity
  8
2
100
AcDbVertex
100
AcDb2dVertex
 42
-7.8191338E-003
 10
9.2706873E+001
 20
1.9064293E+002
 70
0
  0
VERTEX
  5
489
100
AcDbEntity
  8
2
100
AcDbVertex
100
AcDb2dVertex
 42
-7.810739E-003
 10
9.2572853E+001
 20
1.9073334E+002
 70
1
  0
VERTEX
  5
48a
100
AcDbEntity
  8
2
100
AcDbVertex
100
AcDb2dVertex
 42
-7.8640396E-003
 10
9.2438907E+001
 20
1.9082985E+002
 70
0
  0
VERTEX
  5
48b
100
AcDbEntity
  8
2
100
AcDbVertex
100
AcDb2dVertex
 42
-7.8666112E-003
 10
9.230547E+001
 20
1.9093269E+002
 70
1
  0
VERTEX
  5
48c
100
AcDbEntity
  8
2
100
AcDbVertex
100
AcDb2dVertex
 42
-7.9333586E-003
 10
9.2172972E+001
 20
1.9104154E+002
 70
0
  0
VERTEX
  5
48d
100
AcDbEntity
  8
2
100
AcDbVertex
100
AcDb2dVertex
 42
-7.9550391E-003
 10
9.2041928E+001
 20
1.9115655E+002
 70
1
  0
VERTEX
  5
48e
100
AcDbEntity
  8
2
100
AcDbVertex
100
AcDb2dVertex
 42
-8.0332194E-003
 10
9.1912763E+001
 20
1.9127732E+002
 70
0
  0
VERTEX
  5
48f
100
AcDbEntity
  8
2
100
AcDbVertex
100
AcDb2dVertex
 42
-8.0754974E-003
 10
9.1786062E+001
 20
1.9140388E+002
 70
1
  0
VERTEX
  5
490
100
AcDbEntity
  8
2
100
AcDbVertex
100
AcDb2dVertex
 42
-8.1680431E-003
 10
9.166222E+001
 20
1.9153576E+002
 70
0
  0
VERTEX
  5
491
100
AcDbEntity
  8
2
100
AcDbVertex
100
AcDb2dVertex
 42
-8.2338793E-003
 10
9.1541873E+001
 20
1.9167289E+002
 70
1
  0
VERTEX
  5
492
100
AcDbEntity
  8
2
100
AcDbVertex
100
AcDb2dVertex
 42
-8.3422534E-003
 10
9.142537E+001
 20
1.9181472E+002
 70
0
  0
VERTEX
  5
493
100
AcDbEntity
  8
2
100
AcDbVertex
100
AcDb2dVertex
 42
-8.4339816E-003
 10
9.1313373E+001
 20
1.9196106E+002
 70
1
  0
VERTEX
  5
494
100
AcDbEntity
  8
2
100
AcDbVertex
100
AcDb2dVertex
 42
-8.5596392E-003
 10
9.1206158E+001
 20
1.921113E+002
 70
0
  0
VERTEX
  5
495
100
AcDbEntity
  8
2
100
AcDbVertex
100
AcDb2dVertex
 42
-8.679335E-003
 10
9.1104388E+001
 20
1.9226514E+002
 70
1
  0
VERTEX
  5
496
100
AcDbEntity
  8
2
100
AcDbVertex
100
AcDb2dVertex
 42
-8.823191E-003
 10
9.100825E+001
 20
1.9242195E+002
 70
0
  0
VERTEX
  5
497
100
AcDbEntity
  8
2
100
AcDbVertex
100
AcDb2dVertex
 42
-8.9723258E-003
 10
9.0918378E+001
 20
1.9258133E+002
 70
1
  0
VERTEX
  5
498
100
AcDbEntity
  8
2
100
AcDbVertex
100
AcDb2dVertex
 42
-9.1345791E-003
 10
9.0834851E+001
 20
1.9274262E+002
 70
0
  0
VERTEX
  5
499
100
AcDbEntity
  8
2
100
AcDbVertex
100
AcDb2dVertex
 42
-9.3138019E-003
 10
9.075825E+001
 20
1.9290535E+002
 70
1
  0
VERTEX
  5
49a
100
AcDbEntity
  8
2
100
AcDbVertex
100
AcDb2dVertex
 42
-9.4937488E-003
 10
9.0688537E+001
 20
1.9306889E+002
 70
0
  0
VERTEX
  5
49b
100
AcDbEntity
  8
2
100
AcDbVertex
100
AcDb2dVertex
 42
-9.7022574E-003
 10
9.0626216E+001
 20
1.9323269E+002
 70
1
  0
VERTEX
  5
49c
100
AcDbEntity
  8
2
100
AcDbVertex
100
AcDb2dVertex
 42
-9.8972648E-003
 10
9.057113E+001
 20
1.9339619E+002
 70
0
  0
VERTEX
  5
49d
100
AcDbEntity
  8
2
100
AcDbVertex
100
AcDb2dVertex
 42
-1.0133095E-002
 10
9.0523691E+001
 20
1.9355879E+002
 70
1
  0
VERTEX
  5
49e
100
AcDbEntity
  8
2
100
AcDbVertex
100
AcDb2dVertex
 42
-1.0340493E-002
 10
9.0483627E+001
 20
1.9372001E+002
 70
0
  0
VERTEX
  5
49f
100
AcDbEntity
  8
2
100
AcDbVertex
100
AcDb2dVertex
 42
-1.0596779E-002
 10
9.0451248E+001
 20
1.9387925E+002
 70
1
  0
VERTEX
  5
4a0
100
AcDbEntity
  8
2
100
AcDbVertex
100
AcDb2dVertex
 42
-1.0804109E-002
 10
9.0426179E+001
 20
1.9403611E+002
 70
0
  0
VERTEX
  5
4a1
100
AcDbEntity
  8
2
100
AcDbVertex
100
AcDb2dVertex
 42
-1.1080737E-002
 10
9.0408625E+001
 20
1.9419001E+002
 70
1
  0
VERTEX
  5
4a2
100
AcDbEntity
  8
2
100
AcDbVertex
100
AcDb2dVertex
 42
-1.1300852E-002
 10
9.0398136E+001
 20
1.9434067E+002
 70
0
  0
VERTEX
  5
4a3
100
AcDbEntity
  8
2
100
AcDbVertex
100
AcDb2dVertex
 42
-1.1556919E-002
 10
9.0394818E+001
 20
1.9448755E+002
 70
1
  0
VERTEX
  5
4a4
100
AcDbEntity
  8
2
100
AcDbVertex
100
AcDb2dVertex
 42
-1.1693477E-002
 10
9.0398133E+001
 20
1.9463043E+002
 70
0
  0
VERTEX
  5
4a5
100
AcDbEntity
  8
2
100
AcDbVertex
100
AcDb2dVertex
 42
-1.2027543E-002
 10
9.0408086E+001
 20
1.9476884E+002
 70
1
  0
VERTEX
  5
4a6
100
AcDbEntity
  8
2
100
AcDbVertex
100
AcDb2dVertex
 42
-1.2374311E-002
 10
9.0424217E+001
 20
1.949028E+002
 70
0
  0
VERTEX
  5
4a7
100
AcDbEntity
  8
2
100
AcDbVertex
100
AcDb2dVertex
 42
-1.234868E-002
 10
9.04465E+001
 20
1.9503194E+002
 70
1
  0
VERTEX
  5
4a8
100
AcDbEntity
  8
2
100
AcDbVertex
100
AcDb2dVertex
 42
-1.1790919E-002
 10
9.0473995E+001
 20
1.9515585E+002
 70
0
  0
VERTEX
  5
4a9
100
AcDbEntity
  8
2
100
AcDbVertex
100
AcDb2dVertex
 42
-1.2917575E-002
 10
9.0506454E+001
 20
1.9527402E+002
 70
1
  0
VERTEX
  5
4aa
100
AcDbEntity
  8
2
100
AcDbVertex
100
AcDb2dVertex
 42
-1.5119468E-002
 10
9.0544776E+001
 20
1.953883E+002
 70
0
  0
VERTEX
  5
4ab
100
AcDbEntity
  8
2
100
AcDbVertex
100
AcDb2dVertex
 42
-1.2125329E-002
 10
9.05893E+001
 20
1.95499E+002
 70
1
  0
VERTEX
  5
4ac
100
AcDbEntity
  8
2
100
AcDbVertex
100
AcDb2dVertex
 42
-5.0927578E-003
 10
9.0633725E+001
 20
1.9559954E+002
 70
0
  0
VERTEX
  5
4ad
100
AcDbEntity
  8
2
100
AcDbVertex
100
AcDb2dVertex
 42
-1.6176573E-002
 10
9.0675872E+001
 20
1.9568737E+002
 70
1
  0
VERTEX
  5
4ae
100
AcDbEntity
  8
2
100
AcDbVertex
100
AcDb2dVertex
 42
-2.8039598E-002
 10
9.0737981E+001
 20
1.9578945E+002
 70
0
  0
VERTEX
  5
4af
100
AcDbEntity
  8
2
100
AcDbVertex
100
AcDb2dVertex
 42
-1.4380335E-002
 10
9.0843766E+001
 20
1.9593361E+002
 70
1
  0
VERTEX
  5
4b0
100
AcDbEntity
  8
2
100
AcDbVertex
100
AcDb2dVertex
 42
-7.9504661E-003
 10
9.098839E+001
 20
1.9611448E+002
 70
0
  0
SEQEND
  5
4b1
100
AcDbEntity
  0
POLYLINE
  5
4b2
100
AcDbEntity
  8
2
100
AcDb2dPolyline
  6
CONTINUOUS
 62
6
 66
1
 40
0.0
 41
0.0
 70
2
  0
VERTEX
  5
4b3
100
AcDbEntity
  8
2
100
AcDbVertex
100
AcDb2dVertex
 42
0.0
 10
9.6335187E+001
 20
1.9044335E+002
 70
0
  0
VERTEX
  5
4b4
100
AcDbEntity
  8
2
100
AcDbVertex
100
AcDb2dVertex
 42
-1.1332013E-002
 10
9.6264257E+001
 20
1.9038627E+002
 70
1
  0
VERTEX
  5
4b5
100
AcDbEntity
  8
2
100
AcDbVertex
100
AcDb2dVertex
 42
-1.1455513E-002
 10
9.6190993E+001
 20
1.9033254E+002
 70
0
  0
VERTEX
  5
4b6
100
AcDbEntity
  8
2
100
AcDbVertex
100
AcDb2dVertex
 42
-1.1389978E-002
 10
9.6115276E+001
 20
1.902823E+002
 70
1
  0
VERTEX
  5
4b7
100
AcDbEntity
  8
2
100
AcDbVertex
100
AcDb2dVertex
 42
-1.1194022E-002
 10
9.6037364E+001
 20
1.9023546E+002
 70
0
  0
VERTEX
  5
4b8
100
AcDbEntity
  8
2
100
AcDbVertex
100
AcDb2dVertex
 42
-1.1027663E-002
 10
9.5957367E+001
 20
1.901922E+002
 70
1
  0
VERTEX
  5
4b9
100
AcDbEntity
  8
2
100
AcDbVertex
100
AcDb2dVertex
 42
-1.0833316E-002
 10
9.587552E+001
 20
1.901524E+002
 70
0
  0
VERTEX
  5
4ba
100
AcDbEntity
  8
2
100
AcDbVertex
100
AcDb2dVertex
 42
-1.063522E-002
 10
9.5791901E+001
 20
1.9011619E+002
 70
1
  0
VERTEX
  5
4bb
100
AcDbEntity
  8
2
100
AcDbVertex
100
AcDb2dVertex
 42
-1.0396957E-002
 10
9.570674E+001
 20
1.9008344E+002
 70
0
  0
VERTEX
  5
4bc
100
AcDbEntity
  8
2
100
AcDbVertex
100
AcDb2dVertex
 42
-1.0171771E-002
 10
9.5620145E+001
 20
1.9005426E+002
 70
1
  0
VERTEX
  5
4bd
100
AcDbEntity
  8
2
100
AcDbVertex
100
AcDb2dVertex
 42
-9.91172E-003
 10
9.5532331E+001
 20
1.9002849E+002
 70
0
  0
VERTEX
  5
4be
100
AcDbEntity
  8
2
100
AcDbVertex
100
AcDb2dVertex
 42
-9.6684158E-003
 10
9.5443416E+001
 20
1.9000624E+002
 70
1
  0
VERTEX
  5
4bf
100
AcDbEntity
  8
2
100
AcDbVertex
100
AcDb2dVertex
 42
-9.3910366E-003
 10
9.5353603E+001
 20
1.8998731E+002
 70
0
  0
VERTEX
  5
4c0
100
AcDbEntity
  8
2
100
AcDbVertex
100
AcDb2dVertex
 42
-9.1477431E-003
 10
9.5263017E+001
 20
1.8997178E+002
 70
1
  0
VERTEX
  5
4c1
100
AcDbEntity
  8
2
100
AcDbVertex
100
AcDb2dVertex
 42
-8.8815477E-003
 10
9.5171836E+001
 20
1.8995947E+002
 70
0
  0
VERTEX
  5
4c2
100
AcDbEntity
  8
2
100
AcDbVertex
100
AcDb2dVertex
 42
-8.6186041E-003
 10
9.5080188E+001
 20
1.8995044E+002
 70
1
  0
VERTEX
  5
4c3
100
AcDbEntity
  8
2
100
AcDbVertex
100
AcDb2dVertex
 42
-8.3058491E-003
 10
9.4988266E+001
 20
1.8994446E+002
 70
0
  0
VERTEX
  5
4c4
100
AcDbEntity
  8
2
100
AcDbVertex
100
AcDb2dVertex
 42
-8.1219566E-003
 10
9.4896215E+001
 20
1.8994158E+002
 70
1
  0
VERTEX
  5
4c5
100
AcDbEntity
  8
2
100
AcDbVertex
100
AcDb2dVertex
 42
-7.9815352E-003
 10
9.4804058E+001
 20
1.8994162E+002
 70
0
  0
VERTEX
  5
4c6
100
AcDbEntity
  8
2
100
AcDbVertex
100
AcDb2dVertex
 42
-7.5728522E-003
 10
9.4711888E+001
 20
1.8994461E+002
 70
1
  0
VERTEX
  5
4c7
100
AcDbEntity
  8
2
100
AcDbVertex
100
AcDb2dVertex
 42
-6.9254746E-003
 10
9.4620292E+001
 20
1.8995021E+002
 70
0
  0
VERTEX
  5
4c8
100
AcDbEntity
  8
2
100
AcDbVertex
100
AcDb2dVertex
 42
-7.2956576E-003
 10
9.4529567E+001
 20
1.8995836E+002
 70
1
  0
VERTEX
  5
4c9
100
AcDbEntity
  8
2
100
AcDbVertex
100
AcDb2dVertex
 42
-8.2059227E-003
 10
9.4437955E+001
 20
1.8996944E+002
 70
0
  0
VERTEX
  5
4ca
100
AcDbEntity
  8
2
100
AcDbVertex
100
AcDb2dVertex
 42
-6.2667791E-003
 10
9.4344949E+001
 20
1.8998364E+002
 70
1
  0
VERTEX
  5
4cb
100
AcDbEntity
  8
2
100
AcDbVertex
100
AcDb2dVertex
 42
-2.588785E-003
 10
9.425793E+001
 20
1.8999847E+002
 70
0
  0
VERTEX
  5
4cc
100
AcDbEntity
  8
2
100
AcDbVertex
100
AcDb2dVertex
 42
-8.078627E-003
 10
9.417954E+001
 20
1.900131E+002
 70
1
  0
VERTEX
  5
4cd
100
AcDbEntity
  8
2
100
AcDbVertex
100
AcDb2dVertex
 42
-1.3102455E-002
 10
9.4080992E+001
 20
1.9003642E+002
 70
0
  0
VERTEX
  5
4ce
100
AcDbEntity
  8
2
100
AcDbVertex
100
AcDb2dVertex
 42
-6.464004E-003
 10
9.3932137E+001
 20
1.9007793E+002
 70
1
  0
VERTEX
  5
4cf
100
AcDbEntity
  8
2
100
AcDbVertex
100
AcDb2dVertex
 42
-3.5053366E-003
 10
9.3738943E+001
 20
1.9013565E+002
 70
0
  0
SEQEND
  5
4d0
100
AcDbEntity
  0
POLYLINE
  5
4d1
100
AcDbEntity
  8
2
100
AcDb2dPolyline
  6
CONTINUOUS
 62
6
 66
1
 40
0.0
 41
0.0
 70
2
  0
VERTEX
  5
4d2
100
AcDbEntity
  8
2
100
AcDbVertex
100
AcDb2dVertex
 42
0.0
 10
9.4279167E+001
 20
1.9151084E+002
 70
0
  0
VERTEX
  5
4d3
100
AcDbEntity
  8
2
100
AcDbVertex
100
AcDb2dVertex
 42
-1.19517E-002
 10
9.41567E+001
 20
1.9155522E+002
 70
1
  0
VERTEX
  5
4d4
100
AcDbEntity
  8
2
100
AcDbVertex
100
AcDb2dVertex
 42
-1.0689311E-002
 10
9.4031533E+001
 20
1.9160699E+002
 70
0
  0
VERTEX
  5
4d5
100
AcDbEntity
  8
2
100
AcDbVertex
100
AcDb2dVertex
 42
-1.0199343E-002
 10
9.3903477E+001
 20
1.9166642E+002
 70
1
  0
VERTEX
  5
4d6
100
AcDbEntity
  8
2
100
AcDbVertex
100
AcDb2dVertex
 42
-1.0603067E-002
 10
9.3773162E+001
 20
1.9173352E+002
 70
0
  0
VERTEX
  5
4d7
100
AcDbEntity
  8
2
100
AcDbVertex
100
AcDb2dVertex
 42
-1.0652269E-002
 10
9.3641156E+001
 20
1.9180896E+002
 70
1
  0
VERTEX
  5
4d8
100
AcDbEntity
  8
2
100
AcDbVertex
100
AcDb2dVertex
 42
-1.0663175E-002
 10
9.3508145E+001
 20
1.9189257E+002
 70
0
  0
VERTEX
  5
4d9
100
AcDbEntity
  8
2
100
AcDbVertex
100
AcDb2dVertex
 42
-1.0615935E-002
 10
9.3374754E+001
 20
1.9198477E+002
 70
1
  0
VERTEX
  5
4da
100
AcDbEntity
  8
2
100
AcDbVertex
100
AcDb2dVertex
 42
-1.0746335E-002
 10
9.3241763E+001
 20
1.920852E+002
 70
0
  0
VERTEX
  5
4db
100
AcDbEntity
  8
2
100
AcDbVertex
100
AcDb2dVertex
 42
-1.0770318E-002
 10
9.3110025E+001
 20
1.9219416E+002
 70
1
  0
VERTEX
  5
4dc
100
AcDbEntity
  8
2
100
AcDbVertex
100
AcDb2dVertex
 42
-1.090457E-002
 10
9.2980356E+001
 20
1.9231105E+002
 70
0
  0
VERTEX
  5
4dd
100
AcDbEntity
  8
2
100
AcDbVertex
100
AcDb2dVertex
 42
-1.0971281E-002
 10
9.2853762E+001
 20
1.9243593E+002
 70
1
  0
VERTEX
  5
4de
100
AcDbEntity
  8
2
100
AcDbVertex
100
AcDb2dVertex
 42
-1.1145997E-002
 10
9.2731032E+001
 20
1.9256801E+002
 70
0
  0
VERTEX
  5
4df
100
AcDbEntity
  8
2
100
AcDbVertex
100
AcDb2dVertex
 42
-1.1274287E-002
 10
9.2613278E+001
 20
1.9270704E+002
 70
1
  0
VERTEX
  5
4e0
100
AcDbEntity
  8
2
100
AcDbVertex
100
AcDb2dVertex
 42
-1.1487768E-002
 10
9.2501192E+001
 20
1.9285209E+002
 70
0
  0
VERTEX
  5
4e1
100
AcDbEntity
  8
2
100
AcDbVertex
100
AcDb2dVertex
 42
-1.1683624E-002
 10
9.2395908E+001
 20
1.9300261E+002
 70
1
  0
VERTEX
  5
4e2
100
AcDbEntity
  8
2
100
AcDbVertex
100
AcDb2dVertex
 42
-1.1941726E-002
 10
9.229794E+001
 20
1.9315753E+002
 70
0
  0
VERTEX
  5
4e3
100
AcDbEntity
  8
2
100
AcDbVertex
100
AcDb2dVertex
 42
-1.2211993E-002
 10
9.2208359E+001
 20
1.9331608E+002
 70
1
  0
VERTEX
  5
4e4
100
AcDbEntity
  8
2
100
AcDbVertex
100
AcDb2dVertex
 42
-1.2515549E-002
 10
9.2127435E+001
 20
1.9347711E+002
 70
0
  0
VERTEX
  5
4e5
100
AcDbEntity
  8
2
100
AcDbVertex
100
AcDb2dVertex
 42
-1.2862627E-002
 10
9.2056089E+001
 20
1.9363969E+002
 70
1
  0
VERTEX
  5
4e6
100
AcDbEntity
  8
2
100
AcDbVertex
100
AcDb2dVertex
 42
-1.3208495E-002
 10
9.1994309E+001
 20
1.9380269E+002
 70
0
  0
VERTEX
  5
4e7
100
AcDbEntity
  8
2
100
AcDbVertex
100
AcDb2dVertex
 42
-1.3628549E-002
 10
9.1942799E+001
 20
1.9396508E+002
 70
1
  0
VERTEX
  5
4e8
100
AcDbEntity
  8
2
100
AcDbVertex
100
AcDb2dVertex
 42
-1.40059E-002
 10
9.1901259E+001
 20
1.9412587E+002
 70
0
  0
VERTEX
  5
4e9
100
AcDbEntity
  8
2
100
AcDbVertex
100
AcDb2dVertex
 42
-1.4485622E-002
 10
9.1870137E+001
 20
1.9428401E+002
 70
1
  0
VERTEX
  5
4ea
100
AcDbEntity
  8
2
100
AcDbVertex
100
AcDb2dVertex
 42
-1.4874321E-002
 10
9.1848878E+001
 20
1.9443872E+002
 70
0
  0
VERTEX
  5
4eb
100
AcDbEntity
  8
2
100
AcDbVertex
100
AcDb2dVertex
 42
-1.5385555E-002
 10
9.183767E+001
 20
1.9458902E+002
 70
1
  0
VERTEX
  5
4ec
100
AcDbEntity
  8
2
100
AcDbVertex
100
AcDb2dVertex
 42
-1.5748213E-002
 10
9.1835757E+001
 20
1.9473438E+002
 70
0
  0
VERTEX
  5
4ed
100
AcDbEntity
  8
2
100
AcDbVertex
100
AcDb2dVertex
 42
-1.6252849E-002
 10
9.1843094E+001
 20
1.9487395E+002
 70
1
  0
VERTEX
  5
4ee
100
AcDbEntity
  8
2
100
AcDbVertex
100
AcDb2dVertex
 42
-1.655562E-002
 10
9.1858803E+001
 20
1.9500747E+002
 70
0
  0
VERTEX
  5
4ef
100
AcDbEntity
  8
2
100
AcDbVertex
100
AcDb2dVertex
 42
-1.6980388E-002
 10
9.1882655E+001
 20
1.9513425E+002
 70
1
  0
VERTEX
  5
4f0
100
AcDbEntity
  8
2
100
AcDbVertex
100
AcDb2dVertex
 42
-1.7122229E-002
 10
9.1913701E+001
 20
1.9525428E+002
 70
0
  0
VERTEX
  5
4f1
100
AcDbEntity
  8
2
100
AcDbVertex
100
AcDb2dVertex
 42
-1.7471751E-002
 10
9.1951579E+001
 20
1.9536704E+002
 70
1
  0
VERTEX
  5
4f2
100
AcDbEntity
  8
2
100
AcDbVertex
100
AcDb2dVertex
 42
-1.7567378E-002
 10
9.1995426E+001
 20
1.9547277E+002
 70
0
  0
VERTEX
  5
4f3
100
AcDbEntity
  8
2
100
AcDbVertex
100
AcDb2dVertex
 42
-1.756058E-002
 10
9.2044831E+001
 20
1.9557116E+002
 70
1
  0
VERTEX
  5
4f4
100
AcDbEntity
  8
2
100
AcDbVertex
100
AcDb2dVertex
 42
-1.706588E-002
 10
9.209871E+001
 20
1.9566238E+002
 70
0
  0
VERTEX
  5
4f5
100
AcDbEntity
  8
2
100
AcDbVertex
100
AcDb2dVertex
 42
-1.7620497E-002
 10
9.2156708E+001
 20
1.957464E+002
 70
1
  0
VERTEX
  5
4f6
100
AcDbEntity
  8
2
100
AcDbVertex
100
AcDb2dVertex
 42
-1.7631352E-002
 10
9.2219933E+001
 20
1.9582551E+002
 70
0
  0
VERTEX
  5
4f7
100
AcDbEntity
  8
2
100
AcDbVertex
100
AcDb2dVertex
 42
-1.764629E-002
 10
9.2290143E+001
 20
1.959015E+002
 70
1
  0
VERTEX
  5
4f8
100
AcDbEntity
  8
2
100
AcDbVertex
100
AcDb2dVertex
 42
-1.9099587E-002
 10
9.2367713E+001
 20
1.9597413E+002
 70
0
  0
VERTEX
  5
4f9
100
AcDbEntity
  8
2
100
AcDbVertex
100
AcDb2dVertex
 42
-1.8835036E-002
 10
9.245321E+001
 20
1.960424E+002
 70
1
  0
VERTEX
  5
4fa
100
AcDbEntity
  8
2
100
AcDbVertex
100
AcDb2dVertex
 42
-1.7634173E-002
 10
9.2545578E+001
 20
1.9610588E+002
 70
0
  0
VERTEX
  5
4fb
100
AcDbEntity
  8
2
100
AcDbVertex
100
AcDb2dVertex
 42
-1.9907216E-002
 10
9.2644897E+001
 20
1.9616372E+002
 70
1
  0
VERTEX
  5
4fc
100
AcDbEntity
  8
2
100
AcDbVertex
100
AcDb2dVertex
 42
-2.4375155E-002
 10
9.2754163E+001
 20
1.9621505E+002
 70
0
  0
VERTEX
  5
4fd
100
AcDbEntity
  8
2
100
AcDbVertex
100
AcDb2dVertex
 42
-1.7533049E-002
 10
9.2874727E+001
 20
1.9625874E+002
 70
1
  0
VERTEX
  5
4fe
100
AcDbEntity
  8
2
100
AcDbVertex
100
AcDb2dVertex
 42
-4.8265324E-003
 10
9.2992754E+001
 20
1.9629584E+002
 70
0
  0
VERTEX
  5
4ff
100
AcDbEntity
  8
2
100
AcDbVertex
100
AcDb2dVertex
 42
-2.5504498E-002
 10
9.3103637E+001
 20
1.9632585E+002
 70
1
  0
VERTEX
  5
500
100
AcDbEntity
  8
2
100
AcDbVertex
100
AcDb2dVertex
 42
-4.184779E-002
 10
9.3259025E+001
 20
1.9634287E+002
 70
0
  0
VERTEX
  5
501
100
AcDbEntity
  8
2
100
AcDbVertex
100
AcDb2dVertex
 42
-1.8433222E-002
 10
9.3513732E+001
 20
1.963401E+002
 70
1
  0
VERTEX
  5
502
100
AcDbEntity
  8
2
100
AcDbVertex
100
AcDb2dVertex
 42
-9.0060883E-003
 10
9.3856637E+001
 20
1.9631919E+002
 70
0
  0
SEQEND
  5
503
100
AcDbEntity
  0
POLYLINE
  5
504
100
AcDbEntity
  8
2
100
AcDb2dPolyline
  6
CONTINUOUS
 62
6
 66
1
 40
0.0
 41
0.0
 70
2
  0
VERTEX
  5
505
100
AcDbEntity
  8
2
100
AcDbVertex
100
AcDb2dVertex
 42
0.0
 10
9.6708263E+001
 20
1.9329459E+002
 70
0
  0
VERTEX
  5
506
100
AcDbEntity
  8
2
100
AcDbVertex
100
AcDb2dVertex
 42
-1.4317117E-002
 10
9.6719415E+001
 20
1.9316182E+002
 70
1
  0
VERTEX
  5
507
100
AcDbEntity
  8
2
100
AcDbVertex
100
AcDb2dVertex
 42
-1.4293705E-002
 10
9.6723037E+001
 20
1.9302958E+002
 70
0
  0
VERTEX
  5
508
100
AcDbEntity
  8
2
100
AcDbVertex
100
AcDb2dVertex
 42
-1.4658363E-002
 10
9.6718866E+001
 20
1.9289779E+002
 70
1
  0
VERTEX
  5
509
100
AcDbEntity
  8
2
100
AcDbVertex
100
AcDb2dVertex
 42
-1.5793072E-002
 10
9.6706879E+001
 20
1.927672E+002
 70
0
  0
VERTEX
  5
50a
100
AcDbEntity
  8
2
100
AcDbVertex
100
AcDb2dVertex
 42
-1.6724493E-002
 10
9.6686369E+001
 20
1.9263881E+002
 70
1
  0
VERTEX
  5
50b
100
AcDbEntity
  8
2
100
AcDbVertex
100
AcDb2dVertex
 42
-1.7515743E-002
 10
9.665753E+001
 20
1.9251327E+002
 70
0
  0
VERTEX
  5
50c
100
AcDbEntity
  8
2
100
AcDbVertex
100
AcDb2dVertex
 42
-1.8277002E-002
 10
9.6619936E+001
 20
1.9239142E+002
 70
1
  0
VERTEX
  5
50d
100
AcDbEntity
  8
2
100
AcDbVertex
100
AcDb2dVertex
 42
-1.9093826E-002
 10
9.6573951E+001
 20
1.9227384E+002
 70
0
  0
VERTEX
  5
50e
100
AcDbEntity
  8
2
100
AcDbVertex
100
AcDb2dVertex
 42
-1.9785087E-002
 10
9.6519296E+001
 20
1.9216147E+002
 70
1
  0
VERTEX
  5
50f
100
AcDbEntity
  8
2
100
AcDbVertex
100
AcDb2dVertex
 42
-2.0366159E-002
 10
9.6456521E+001
 20
1.9205475E+002
 70
0
  0
VERTEX
  5
510
100
AcDbEntity
  8
2
100
AcDbVertex
100
AcDb2dVertex
 42
-2.0799828E-002
 10
9.6385557E+001
 20
1.9195457E+002
 70
1
  0
VERTEX
  5
511
100
AcDbEntity
  8
2
100
AcDbVertex
100
AcDb2dVertex
 42
-2.1059273E-002
 10
9.6307114E+001
 20
1.9186119E+002
 70
0
  0
VERTEX
  5
512
100
AcDbEntity
  8
2
100
AcDbVertex
100
AcDb2dVertex
 42
-2.1169515E-002
 10
9.6221328E+001
 20
1.9177543E+002
 70
1
  0
VERTEX
  5
513
100
AcDbEntity
  8
2
100
AcDbVertex
100
AcDb2dVertex
 42
-2.10687E-002
 10
9.6129013E+001
 20
1.9169733E+002
 70
0
  0
VERTEX
  5
514
100
AcDbEntity
  8
2
100
AcDbVertex
100
AcDb2dVertex
 42
-2.0774054E-002
 10
9.6030485E+001
 20
1.9162757E+002
 70
1
  0
VERTEX
  5
515
100
AcDbEntity
  8
2
100
AcDbVertex
100
AcDb2dVertex
 42
-2.0206458E-002
 10
9.5926671E+001
 20
1.9156598E+002
 70
0
  0
VERTEX
  5
516
100
AcDbEntity
  8
2
100
AcDbVertex
100
AcDb2dVertex
 42
-1.9757971E-002
 10
9.5818053E+001
 20
1.9151304E+002
 70
1
  0
VERTEX
  5
517
100
AcDbEntity
  8
2
100
AcDbVertex
100
AcDb2dVertex
 42
-1.9264594E-002
 10
9.5705361E+001
 20
1.9146847E+002
 70
0
  0
VERTEX
  5
518
100
AcDbEntity
  8
2
100
AcDbVertex
100
AcDb2dVertex
 42
-1.8140821E-002
 10
9.5589107E+001
 20
1.9143259E+002
 70
1
  0
VERTEX
  5
519
100
AcDbEntity
  8
2
100
AcDbVertex
100
AcDb2dVertex
 42
-1.6443209E-002
 10
9.5470757E+001
 20
1.9140469E+002
 70
0
  0
VERTEX
  5
51a
100
AcDbEntity
  8
2
100
AcDbVertex
100
AcDb2dVertex
 42
-1.6832663E-002
 10
9.5351145E+001
 20
1.9138486E+002
 70
1
  0
VERTEX
  5
51b
100
AcDbEntity
  8
2
100
AcDbVertex
100
AcDb2dVertex
 42
-1.8208399E-002
 10
9.5228528E+001
 20
1.9137319E+002
 70
0
  0
VERTEX
  5
51c
100
AcDbEntity
  8
2
100
AcDbVertex
100
AcDb2dVertex
 42
-1.3894114E-002
 10
9.5102674E+001
 20
1.9136992E+002
 70
1
  0
VERTEX
  5
51d
100
AcDbEntity
  8
2
100
AcDbVertex
100
AcDb2dVertex
 42
-6.3290776E-003
 10
9.4983979E+001
 20
1.9137148E+002
 70
0
  0
VERTEX
  5
51e
100
AcDbEntity
  8
2
100
AcDbVertex
100
AcDb2dVertex
 42
-1.6714677E-002
 10
9.48764E+001
 20
1.9137676E+002
 70
1
  0
VERTEX
  5
51f
100
AcDbEntity
  8
2
100
AcDbVertex
100
AcDb2dVertex
 42
-2.5786392E-002
 10
9.4741784E+001
 20
1.9139632E+002
 70
0
  0
VERTEX
  5
520
100
AcDbEntity
  8
2
100
AcDbVertex
100
AcDb2dVertex
 42
-1.2728147E-002
 10
9.4540059E+001
 20
1.9144186E+002
 70
1
  0
VERTEX
  5
521
100
AcDbEntity
  8
2
100
AcDbVertex
100
AcDb2dVertex
 42
-6.9655854E-003
 10
9.4279167E+001
 20
1.9151084E+002
 70
0
  0
SEQEND
  5
522
100
AcDbEntity
  0
POLYLINE
  5
523
100
AcDbEntity
  8
2
100
AcDb2dPolyline
  6
CONTINUOUS
 62
6
 66
1
 40
0.0
 41
0.0
 70
2
  0
VERTEX
  5
524
100
AcDbEntity
  8
2
100
AcDbVertex
100
AcDb2dVertex
 42
0.0
 10
9.4433516E+001
 20
1.9165636E+002
 70
0
  0
VERTEX
  5
525
100
AcDbEntity
  8
2
100
AcDbVertex
100
AcDb2dVertex
 42
-8.4493511E-003
 10
9.4344663E+001
 20
1.9168803E+002
 70
1
  0
VERTEX
  5
526
100
AcDbEntity
  8
2
100
AcDbVertex
100
AcDb2dVertex
 42
-7.7690834E-003
 10
9.4254266E+001
 20
1.9172353E+002
 70
0
  0
VERTEX
  5
527
100
AcDbEntity
  8
2
100
AcDbVertex
100
AcDb2dVertex
 42
-7.5036987E-003
 10
9.4162234E+001
 20
1.9176302E+002
 70
1
  0
VERTEX
  5
528
100
AcDbEntity
  8
2
100
AcDbVertex
100
AcDb2dVertex
 42
-7.718253E-003
 10
9.406881E+001
 20
1.9180647E+002
 70
0
  0
VERTEX
  5
529
100
AcDbEntity
  8
2
100
AcDbVertex
100
AcDb2dVertex
 42
-7.740885E-003
 10
9.3974162E+001
 20
1.918542E+002
 70
1
  0
VERTEX
  5
52a
100
AcDbEntity
  8
2
100
AcDbVertex
100
AcDb2dVertex
 42
-7.7391877E-003
 10
9.3878541E+001
 20
1.9190613E+002
 70
0
  0
VERTEX
  5
52b
100
AcDbEntity
  8
2
100
AcDbVertex
100
AcDb2dVertex
 42
-7.7017089E-003
 10
9.3782125E+001
 20
1.9196252E+002
 70
1
  0
VERTEX
  5
52c
100
AcDbEntity
  8
2
100
AcDbVertex
100
AcDb2dVertex
 42
-7.7593487E-003
 10
9.3685194E+001
 20
1.9202324E+002
 70
0
  0
VERTEX
  5
52d
100
AcDbEntity
  8
2
100
AcDbVertex
100
AcDb2dVertex
 42
-7.7507047E-003
 10
9.3587999E+001
 20
1.9208853E+002
 70
1
  0
VERTEX
  5
52e
100
AcDbEntity
  8
2
100
AcDbVertex
100
AcDb2dVertex
 42
-7.8028806E-003
 10
9.3490837E+001
 20
1.921582E+002
 70
0
  0
VERTEX
  5
52f
100
AcDbEntity
  8
2
100
AcDbVertex
100
AcDb2dVertex
 42
-7.8048262E-003
 10
9.3394017E+001
 20
1.9223243E+002
 70
1
  0
VERTEX
  5
530
100
AcDbEntity
  8
2
100
AcDbVertex
100
AcDb2dVertex
 42
-7.8700968E-003
 10
9.3297846E+001
 20
1.92311E+002
 70
0
  0
VERTEX
  5
531
100
AcDbEntity
  8
2
100
AcDbVertex
100
AcDb2dVertex
 42
-7.8906169E-003
 10
9.320269E+001
 20
1.9239401E+002
 70
1
  0
VERTEX
  5
532
100
AcDbEntity
  8
2
100
AcDbVertex
100
AcDb2dVertex
 42
-7.9669702E-003
 10
9.3108853E+001
 20
1.9248117E+002
 70
0
  0
VERTEX
  5
533
100
AcDbEntity
  8
2
100
AcDbVertex
100
AcDb2dVertex
 42
-8.007493E-003
 10
9.3016749E+001
 20
1.9257252E+002
 70
1
  0
VERTEX
  5
534
100
AcDbEntity
  8
2
100
AcDbVertex
100
AcDb2dVertex
 42
-8.0977999E-003
 10
9.2926665E+001
 20
1.9266772E+002
 70
0
  0
VERTEX
  5
535
100
AcDbEntity
  8
2
100
AcDbVertex
100
AcDb2dVertex
 42
-8.1612108E-003
 10
9.2839051E+001
 20
1.9276673E+002
 70
1
  0
VERTEX
  5
536
100
AcDbEntity
  8
2
100
AcDbVertex
100
AcDb2dVertex
 42
-8.266902E-003
 10
9.275416E+001
 20
1.9286915E+002
 70
0
  0
VERTEX
  5
537
100
AcDbEntity
  8
2
100
AcDbVertex
100
AcDb2dVertex
 42
-8.3554794E-003
 10
9.2672464E+001
 20
1.9297486E+002
 70
1
  0
VERTEX
  5
538
100
AcDbEntity
  8
2
100
AcDbVertex
100
AcDb2dVertex
 42
-8.4779924E-003
 10
9.2594164E+001
 20
1.9308342E+002
 70
0
  0
VERTEX
  5
539
100
AcDbEntity
  8
2
100
AcDbVertex
100
AcDb2dVertex
 42
-8.5937791E-003
 10
9.2519735E+001
 20
1.9319463E+002
 70
1
  0
VERTEX
  5
53a
100
AcDbEntity
  8
2
100
AcDbVertex
100
AcDb2dVertex
 42
-8.7340417E-003
 10
9.2449316E+001
 20
1.9330803E+002
 70
0
  0
VERTEX
  5
53b
100
AcDbEntity
  8
2
100
AcDbVertex
100
AcDb2dVertex
 42
-8.878515E-003
 10
9.2383361E+001
 20
1.9342334E+002
 70
1
  0
VERTEX
  5
53c
100
AcDbEntity
  8
2
100
AcDbVertex
100
AcDb2dVertex
 42
-9.036785E-003
 10
9.2321935E+001
 20
1.935401E+002
 70
0
  0
VERTEX
  5
53d
100
AcDbEntity
  8
2
100
AcDbVertex
100
AcDb2dVertex
 42
-9.2106584E-003
 10
9.2265456E+001
 20
1.9365797E+002
 70
1
  0
VERTEX
  5
53e
100
AcDbEntity
  8
2
100
AcDbVertex
100
AcDb2dVertex
 42
-9.3863559E-003
 10
9.2213905E+001
 20
1.937765E+002
 70
0
  0
VERTEX
  5
53f
100
AcDbEntity
  8
2
100
AcDbVertex
100
AcDb2dVertex
 42
-9.588981E-003
 10
9.2167649E+001
 20
1.9389529E+002
 70
1
  0
VERTEX
  5
540
100
AcDbEntity
  8
2
100
AcDbVertex
100
AcDb2dVertex
 42
-9.7796978E-003
 10
9.2126582E+001
 20
1.9401395E+002
 70
0
  0
VERTEX
  5
541
100
AcDbEntity
  8
2
100
AcDbVertex
100
AcDb2dVertex
 42
-1.0009372E-002
 10
9.2091008E+001
 20
1.9413206E+002
 70
1
  0
VERTEX
  5
542
100
AcDbEntity
  8
2
100
AcDbVertex
100
AcDb2dVertex
 42
-1.021275E-002
 10
9.2060739E+001
 20
1.9424925E+002
 70
0
  0
VERTEX
  5
543
100
AcDbEntity
  8
2
100
AcDbVertex
100
AcDb2dVertex
 42
-1.046306E-002
 10
9.2036006E+001
 20
1.9436509E+002
 70
1
  0
VERTEX
  5
544
100
AcDbEntity
  8
2
100
AcDbVertex
100
AcDb2dVertex
 42
-1.066723E-002
 10
9.2016548E+001
 20
1.9447931E+002
 70
0
  0
VERTEX
  5
545
100
AcDbEntity
  8
2
100
AcDbVertex
100
AcDb2dVertex
 42
-1.0938499E-002
 10
9.2002521E+001
 20
1.9459147E+002
 70
1
  0
VERTEX
  5
546
100
AcDbEntity
  8
2
100
AcDbVertex
100
AcDb2dVertex
 42
-1.1156463E-002
 10
9.1993609E+001
 20
1.9470137E+002
 70
0
  0
VERTEX
  5
547
100
AcDbEntity
  8
2
100
AcDbVertex
100
AcDb2dVertex
 42
-1.1409117E-002
 10
9.1989898E+001
 20
1.9480862E+002
 70
1
  0
VERTEX
  5
548
100
AcDbEntity
  8
2
100
AcDbVertex
100
AcDb2dVertex
 42
-1.154707E-002
 10
9.1991006E+001
 20
1.9491306E+002
 70
0
  0
VERTEX
  5
549
100
AcDbEntity
  8
2
100
AcDbVertex
100
AcDb2dVertex
 42
-1.1878059E-002
 10
9.1996947E+001
 20
1.9501434E+002
 70
1
  0
VERTEX
  5
54a
100
AcDbEntity
  8
2
100
AcDbVertex
100
AcDb2dVertex
 42
-1.2223491E-002
 10
9.2007393E+001
 20
1.9511246E+002
 70
0
  0
VERTEX
  5
54b
100
AcDbEntity
  8
2
100
AcDbVertex
100
AcDb2dVertex
 42
-1.2205238E-002
 10
9.2022332E+001
 20
1.9520715E+002
 70
1
  0
VERTEX
  5
54c
100
AcDbEntity
  8
2
100
AcDbVertex
100
AcDb2dVertex
 42
-1.1669274E-002
 10
9.2041097E+001
 20
1.9529811E+002
 70
0
  0
VERTEX
  5
54d
100
AcDbEntity
  8
2
100
AcDbVertex
100
AcDb2dVertex
 42
-1.2779229E-002
 10
9.2063518E+001
 20
1.9538496E+002
 70
1
  0
VERTEX
  5
54e
100
AcDbEntity
  8
2
100
AcDbVertex
100
AcDb2dVertex
 42
-1.4941188E-002
 10
9.209022E+001
 20
1.9546904E+002
 70
0
  0
VERTEX
  5
54f
100
AcDbEntity
  8
2
100
AcDbVertex
100
AcDb2dVertex
 42
-1.2027301E-002
 10
9.2121445E+001
 20
1.9555058E+002
 70
1
  0
VERTEX
  5
550
100
AcDbEntity
  8
2
100
AcDbVertex
100
AcDb2dVertex
 42
-5.1780698E-003
 10
9.2152747E+001
 20
1.9562475E+002
 70
0
  0
VERTEX
  5
551
100
AcDbEntity
  8
2
100
AcDbVertex
100
AcDb2dVertex
 42
-1.6002188E-002
 10
9.218259E+001
 20
1.9568968E+002
 70
1
  0
VERTEX
  5
552
100
AcDbEntity
  8
2
100
AcDbVertex
100
AcDb2dVertex
 42
-2.7642237E-002
 10
9.222663E+001
 20
1.9576509E+002
 70
0
  0
VERTEX
  5
553
100
AcDbEntity
  8
2
100
AcDbVertex
100
AcDb2dVertex
 42
-1.4307384E-002
 10
9.2301564E+001
 20
1.9587136E+002
 70
1
  0
VERTEX
  5
554
100
AcDbEntity
  8
2
100
AcDbVertex
100
AcDb2dVertex
 42
-7.9521092E-003
 10
9.2403984E+001
 20
1.9600457E+002
 70
0
  0
SEQEND
  5
555
100
AcDbEntity
  0
POLYLINE
  5
556
100
AcDbEntity
  8
2
100
AcDb2dPolyline
  6
CONTINUOUS
 62
6
 66
1
 40
0.0
 41
0.0
 70
2
  0
VERTEX
  5
557
100
AcDbEntity
  8
2
100
AcDbVertex
100
AcDb2dVertex
 42
0.0
 10
9.6308732E+001
 20
1.9186296E+002
 70
0
  0
VERTEX
  5
558
100
AcDbEntity
  8
2
100
AcDbVertex
100
AcDb2dVertex
 42
-1.1128744E-002
 10
9.6256867E+001
 20
1.9182287E+002
 70
1
  0
VERTEX
  5
559
100
AcDbEntity
  8
2
100
AcDbVertex
100
AcDb2dVertex
 42
-1.1246132E-002
 10
9.6203387E+001
 20
1.9178517E+002
 70
0
  0
VERTEX
  5
55a
100
AcDbEntity
  8
2
100
AcDbVertex
100
AcDb2dVertex
 42
-1.1175756E-002
 10
9.6148208E+001
 20
1.9174997E+002
 70
1
  0
VERTEX
  5
55b
100
AcDbEntity
  8
2
100
AcDbVertex
100
AcDb2dVertex
 42
-1.097303E-002
 10
9.6091513E+001
 20
1.9171719E+002
 70
0
  0
VERTEX
  5
55c
100
AcDbEntity
  8
2
100
AcDbVertex
100
AcDb2dVertex
 42
-1.0802542E-002
 10
9.6033379E+001
 20
1.9168696E+002
 70
1
  0
VERTEX
  5
55d
100
AcDbEntity
  8
2
100
AcDbVertex
100
AcDb2dVertex
 42
-1.0607399E-002
 10
9.5973973E+001
 20
1.9165918E+002
 70
0
  0
VERTEX
  5
55e
100
AcDbEntity
  8
2
100
AcDbVertex
100
AcDb2dVertex
 42
-1.0409841E-002
 10
9.5913349E+001
 20
1.9163396E+002
 70
1
  0
VERTEX
  5
55f
100
AcDbEntity
  8
2
100
AcDbVertex
100
AcDb2dVertex
 42
-1.017355E-002
 10
9.5851668E+001
 20
1.9161118E+002
 70
0
  0
VERTEX
  5
560
100
AcDbEntity
  8
2
100
AcDbVertex
100
AcDb2dVertex
 42
-9.9515212E-003
 10
9.5789005E+001
 20
1.9159094E+002
 70
1
  0
VERTEX
  5
561
100
AcDbEntity
  8
2
100
AcDbVertex
100
AcDb2dVertex
 42
-9.6964011E-003
 10
9.5725513E+001
 20
1.9157312E+002
 70
0
  0
VERTEX
  5
562
100
AcDbEntity
  8
2
100
AcDbVertex
100
AcDb2dVertex
 42
-9.4585801E-003
 10
9.5661272E+001
 20
1.9155777E+002
 70
1
  0
VERTEX
  5
563
100
AcDbEntity
  8
2
100
AcDbVertex
100
AcDb2dVertex
 42
-9.1880704E-003
 10
9.5596423E+001
 20
1.9154478E+002
 70
0
  0
VERTEX
  5
564
100
AcDbEntity
  8
2
100
AcDbVertex
100
AcDb2dVertex
 42
-8.951534E-003
 10
9.5531057E+001
 20
1.915342E+002
 70
1
  0
VERTEX
  5
565
100
AcDbEntity
  8
2
100
AcDbVertex
100
AcDb2dVertex
 42
-8.6931346E-003
 10
9.5465293E+001
 20
1.9152588E+002
 70
0
  0
VERTEX
  5
566
100
AcDbEntity
  8
2
100
AcDbVertex
100
AcDb2dVertex
 42
-8.4380546E-003
 10
9.5399222E+001
 20
1.9151988E+002
 70
1
  0
VERTEX
  5
567
100
AcDbEntity
  8
2
100
AcDbVertex
100
AcDb2dVertex
 42
-8.13448E-003
 10
9.5332979E+001
 20
1.9151604E+002
 70
0
  0
VERTEX
  5
568
100
AcDbEntity
  8
2
100
AcDbVertex
100
AcDb2dVertex
 42
-7.9573887E-003
 10
9.5266665E+001
 20
1.9151438E+002
 70
1
  0
VERTEX
  5
569
100
AcDbEntity
  8
2
100
AcDbVertex
100
AcDb2dVertex
 42
-7.8234361E-003
 10
9.5200292E+001
 20
1.9151478E+002
 70
0
  0
VERTEX
  5
56a
100
AcDbEntity
  8
2
100
AcDbVertex
100
AcDb2dVertex
 42
-7.425374E-003
 10
9.5133925E+001
 20
1.9151727E+002
 70
1
  0
VERTEX
  5
56b
100
AcDbEntity
  8
2
100
AcDbVertex
100
AcDb2dVertex
 42
-6.792677E-003
 10
9.5067983E+001
 20
1.915216E+002
 70
0
  0
VERTEX
  5
56c
100
AcDbEntity
  8
2
100
AcDbVertex
100
AcDb2dVertex
 42
-7.160323E-003
 10
9.5002676E+001
 20
1.9152772E+002
 70
1
  0
VERTEX
  5
56d
100
AcDbEntity
  8
2
100
AcDbVertex
100
AcDb2dVertex
 42
-8.0601461E-003
 10
9.4936736E+001
 20
1.9153592E+002
 70
0
  0
VERTEX
  5
56e
100
AcDbEntity
  8
2
100
AcDbVertex
100
AcDb2dVertex
 42
-6.1554606E-003
 10
9.4869794E+001
 20
1.9154634E+002
 70
1
  0
VERTEX
  5
56f
100
AcDbEntity
  8
2
100
AcDbVertex
100
AcDb2dVertex
 42
-2.53758E-003
 10
9.4807164E+001
 20
1.9155717E+002
 70
0
  0
VERTEX
  5
570
100
AcDbEntity
  8
2
100
AcDbVertex
100
AcDb2dVertex
 42
-7.9452073E-003
 10
9.4750745E+001
 20
1.9156784E+002
 70
1
  0
VERTEX
  5
571
100
AcDbEntity
  8
2
100
AcDbVertex
100
AcDb2dVertex
 42
-1.2897386E-002
 10
9.4679805E+001
 20
1.9158473E+002
 70
0
  0
VERTEX
  5
572
100
AcDbEntity
  8
2
100
AcDbVertex
100
AcDb2dVertex
 42
-6.3624427E-003
 10
9.4572629E+001
 20
1.9161471E+002
 70
1
  0
VERTEX
  5
573
100
AcDbEntity
  8
2
100
AcDbVertex
100
AcDb2dVertex
 42
-3.449414E-003
 10
9.4433516E+001
 20
1.9165636E+002
 70
0
  0
SEQEND
  5
574
100
AcDbEntity
  0
POLYLINE
  5
575
100
AcDbEntity
  8
2
100
AcDb2dPolyline
  6
CONTINUOUS
 62
6
 66
1
 40
0.0
 41
0.0
 70
2
  0
VERTEX
  5
576
100
AcDbEntity
  8
2
100
AcDbVertex
100
AcDb2dVertex
 42
0.0
 10
9.2967577E+001
 20
1.9262369E+002
 70
0
  0
VERTEX
  5
577
100
AcDbEntity
  8
2
100
AcDbVertex
100
AcDb2dVertex
 42
-3.82649E-004
 10
9.2967551E+001
 20
1.9262372E+002
 70
1
  0
VERTEX
  5
578
100
AcDbEntity
  8
2
100
AcDbVertex
100
AcDb2dVertex
 42
-3.822601E-004
 10
9.2967525E+001
 20
1.9262374E+002
 70
0
  0
VERTEX
  5
579
100
AcDbEntity
  8
2
100
AcDbVertex
100
AcDb2dVertex
 42
-3.818552E-004
 10
9.2967499E+001
 20
1.9262377E+002
 70
1
  0
VERTEX
  5
57a
100
AcDbEntity
  8
2
100
AcDbVertex
100
AcDb2dVertex
 42
-3.814673E-004
 10
9.2967474E+001
 20
1.926238E+002
 70
0
  0
VERTEX
  5
57b
100
AcDbEntity
  8
2
100
AcDbVertex
100
AcDb2dVertex
 42
-3.810636E-004
 10
9.2967448E+001
 20
1.9262383E+002
 70
1
  0
VERTEX
  5
57c
100
AcDbEntity
  8
2
100
AcDbVertex
100
AcDb2dVertex
 42
-3.806774E-004
 10
9.2967422E+001
 20
1.9262386E+002
 70
0
  0
VERTEX
  5
57d
100
AcDbEntity
  8
2
100
AcDbVertex
100
AcDb2dVertex
 42
-3.802633E-004
 10
9.2967397E+001
 20
1.9262388E+002
 70
1
  0
VERTEX
  5
57e
100
AcDbEntity
  8
2
100
AcDbVertex
100
AcDb2dVertex
 42
-3.798552E-004
 10
9.2967371E+001
 20
1.9262391E+002
 70
0
  0
VERTEX
  5
57f
100
AcDbEntity
  8
2
100
AcDbVertex
100
AcDb2dVertex
 42
-3.794663E-004
 10
9.2967345E+001
 20
1.9262394E+002
 70
1
  0
VERTEX
  5
580
100
AcDbEntity
  8
2
100
AcDbVertex
100
AcDb2dVertex
 42
-3.79127E-004
 10
9.296732E+001
 20
1.9262397E+002
 70
0
  0
VERTEX
  5
581
100
AcDbEntity
  8
2
100
AcDbVertex
100
AcDb2dVertex
 42
-3.786386E-004
 10
9.2967294E+001
 20
1.9262399E+002
 70
1
  0
VERTEX
  5
582
100
AcDbEntity
  8
2
100
AcDbVertex
100
AcDb2dVertex
 42
-3.780478E-004
 10
9.2967269E+001
 20
1.9262402E+002
 70
0
  0
VERTEX
  5
583
100
AcDbEntity
  8
2
100
AcDbVertex
100
AcDb2dVertex
 42
-3.779019E-004
 10
9.2967243E+001
 20
1.9262405E+002
 70
1
  0
VERTEX
  5
584
100
AcDbEntity
  8
2
100
AcDbVertex
100
AcDb2dVertex
 42
-3.78176E-004
 10
9.2967218E+001
 20
1.9262408E+002
 70
0
  0
VERTEX
  5
585
100
AcDbEntity
  8
2
100
AcDbVertex
100
AcDb2dVertex
 42
-3.768174E-004
 10
9.2967192E+001
 20
1.9262411E+002
 70
1
  0
VERTEX
  5
586
100
AcDbEntity
  8
2
100
AcDbVertex
100
AcDb2dVertex
 42
-3.741216E-004
 10
9.2967167E+001
 20
1.9262414E+002
 70
0
  0
VERTEX
  5
587
100
AcDbEntity
  8
2
100
AcDbVertex
100
AcDb2dVertex
 42
-3.769459E-004
 10
9.2967142E+001
 20
1.9262416E+002
 70
1
  0
VERTEX
  5
588
100
AcDbEntity
  8
2
100
AcDbVertex
100
AcDb2dVertex
 42
-3.841649E-004
 10
9.2967116E+001
 20
1.9262419E+002
 70
0
  0
VERTEX
  5
589
100
AcDbEntity
  8
2
100
AcDbVertex
100
AcDb2dVertex
 42
-3.728272E-004
 10
9.2967091E+001
 20
1.9262422E+002
 70
1
  0
VERTEX
  5
58a
100
AcDbEntity
  8
2
100
AcDbVertex
100
AcDb2dVertex
 42
-3.477676E-004
 10
9.2967066E+001
 20
1.9262425E+002
 70
0
  0
VERTEX
  5
58b
100
AcDbEntity
  8
2
100
AcDbVertex
100
AcDb2dVertex
 42
-3.834111E-004
 10
9.2967041E+001
 20
1.9262428E+002
 70
1
  0
VERTEX
  5
58c
100
AcDbEntity
  8
2
100
AcDbVertex
100
AcDb2dVertex
 42
-4.564507E-004
 10
9.2967015E+001
 20
1.9262431E+002
 70
0
  0
VERTEX
  5
58d
100
AcDbEntity
  8
2
100
AcDbVertex
100
AcDb2dVertex
 42
-3.460437E-004
 10
9.2966989E+001
 20
1.9262434E+002
 70
1
  0
VERTEX
  5
58e
100
AcDbEntity
  8
2
100
AcDbVertex
100
AcDb2dVertex
 42
-1.187538E-004
 10
9.2966965E+001
 20
1.9262436E+002
 70
0
  0
VERTEX
  5
58f
100
AcDbEntity
  8
2
100
AcDbVertex
100
AcDb2dVertex
 42
-4.874258E-004
 10
9.2966943E+001
 20
1.9262439E+002
 70
1
  0
VERTEX
  5
590
100
AcDbEntity
  8
2
100
AcDbVertex
100
AcDb2dVertex
 42
-8.36865E-004
 10
9.2966914E+001
 20
1.9262442E+002
 70
0
  0
VERTEX
  5
591
100
AcDbEntity
  8
2
100
AcDbVertex
100
AcDb2dVertex
 42
-4.08399E-004
 10
9.2966871E+001
 20
1.9262447E+002
 70
1
  0
VERTEX
  5
592
100
AcDbEntity
  8
2
100
AcDbVertex
100
AcDb2dVertex
 42
-2.162356E-004
 10
9.2966814E+001
 20
1.9262454E+002
 70
0
  0
SEQEND
  5
593
100
AcDbEntity
  0
POLYLINE
  5
594
100
AcDbEntity
  8
2
100
AcDb2dPolyline
  6
CONTINUOUS
 62
6
 66
1
 40
0.0
 41
0.0
 70
2
  0
VERTEX
  5
595
100
AcDbEntity
  8
2
100
AcDbVertex
100
AcDb2dVertex
 42
0.0
 10
9.3738943E+001
 20
1.4684306E+002
 70
0
  0
VERTEX
  5
596
100
AcDbEntity
  8
2
100
AcDbVertex
100
AcDb2dVertex
 42
-8.5187602E-003
 10
9.3616424E+001
 20
1.4688674E+002
 70
1
  0
VERTEX
  5
597
100
AcDbEntity
  8
2
100
AcDbVertex
100
AcDb2dVertex
 42
-7.8283187E-003
 10
9.3491762E+001
 20
1.4693575E+002
 70
0
  0
VERTEX
  5
598
100
AcDbEntity
  8
2
100
AcDbVertex
100
AcDb2dVertex
 42
-7.5590112E-003
 10
9.3364832E+001
 20
1.469903E+002
 70
1
  0
VERTEX
  5
599
100
AcDbEntity
  8
2
100
AcDbVertex
100
AcDb2dVertex
 42
-7.7768118E-003
 10
9.3235972E+001
 20
1.4705035E+002
 70
0
  0
VERTEX
  5
59a
100
AcDbEntity
  8
2
100
AcDbVertex
100
AcDb2dVertex
 42
-7.799846E-003
 10
9.3105421E+001
 20
1.4711636E+002
 70
1
  0
VERTEX
  5
59b
100
AcDbEntity
  8
2
100
AcDbVertex
100
AcDb2dVertex
 42
-7.7982536E-003
 10
9.2973531E+001
 20
1.4718822E+002
 70
0
  0
VERTEX
  5
59c
100
AcDbEntity
  8
2
100
AcDbVertex
100
AcDb2dVertex
 42
-7.7604316E-003
 10
9.2840551E+001
 20
1.4726626E+002
 70
1
  0
VERTEX
  5
59d
100
AcDbEntity
  8
2
100
AcDbVertex
100
AcDb2dVertex
 42
-7.8191437E-003
 10
9.2706873E+001
 20
1.4735034E+002
 70
0
  0
VERTEX
  5
59e
100
AcDbEntity
  8
2
100
AcDbVertex
100
AcDb2dVertex
 42
-7.8107502E-003
 10
9.2572853E+001
 20
1.4744075E+002
 70
1
  0
VERTEX
  5
59f
100
AcDbEntity
  8
2
100
AcDbVertex
100
AcDb2dVertex
 42
-7.8640519E-003
 10
9.2438907E+001
 20
1.4753726E+002
 70
0
  0
VERTEX
  5
5a0
100
AcDbEntity
  8
2
100
AcDbVertex
100
AcDb2dVertex
 42
-7.8666248E-003
 10
9.230547E+001
 20
1.476401E+002
 70
1
  0
VERTEX
  5
5a1
100
AcDbEntity
  8
2
100
AcDbVertex
100
AcDb2dVertex
 42
-7.9333732E-003
 10
9.2172972E+001
 20
1.4774895E+002
 70
0
  0
VERTEX
  5
5a2
100
AcDbEntity
  8
2
100
AcDbVertex
100
AcDb2dVertex
 42
-7.9550549E-003
 10
9.2041928E+001
 20
1.4786396E+002
 70
1
  0
VERTEX
  5
5a3
100
AcDbEntity
  8
2
100
AcDbVertex
100
AcDb2dVertex
 42
-8.0332362E-003
 10
9.1912763E+001
 20
1.4798472E+002
 70
0
  0
VERTEX
  5
5a4
100
AcDbEntity
  8
2
100
AcDbVertex
100
AcDb2dVertex
 42
-8.0755153E-003
 10
9.1786062E+001
 20
1.4811128E+002
 70
1
  0
VERTEX
  5
5a5
100
AcDbEntity
  8
2
100
AcDbVertex
100
AcDb2dVertex
 42
-8.168062E-003
 10
9.166222E+001
 20
1.4824317E+002
 70
0
  0
VERTEX
  5
5a6
100
AcDbEntity
  8
2
100
AcDbVertex
100
AcDb2dVertex
 42
-8.2338991E-003
 10
9.1541873E+001
 20
1.483803E+002
 70
1
  0
VERTEX
  5
5a7
100
AcDbEntity
  8
2
100
AcDbVertex
100
AcDb2dVertex
 42
-8.3422742E-003
 10
9.142537E+001
 20
1.4852212E+002
 70
0
  0
VERTEX
  5
5a8
100
AcDbEntity
  8
2
100
AcDbVertex
100
AcDb2dVertex
 42
-8.4340032E-003
 10
9.1313373E+001
 20
1.4866846E+002
 70
1
  0
VERTEX
  5
5a9
100
AcDbEntity
  8
2
100
AcDbVertex
100
AcDb2dVertex
 42
-8.5596619E-003
 10
9.1206158E+001
 20
1.488187E+002
 70
0
  0
VERTEX
  5
5aa
100
AcDbEntity
  8
2
100
AcDbVertex
100
AcDb2dVertex
 42
-8.6793582E-003
 10
9.1104388E+001
 20
1.4897254E+002
 70
1
  0
VERTEX
  5
5ab
100
AcDbEntity
  8
2
100
AcDbVertex
100
AcDb2dVertex
 42
-8.823215E-003
 10
9.100825E+001
 20
1.4912935E+002
 70
0
  0
VERTEX
  5
5ac
100
AcDbEntity
  8
2
100
AcDbVertex
100
AcDb2dVertex
 42
-8.9723504E-003
 10
9.0918378E+001
 20
1.4928872E+002
 70
1
  0
VERTEX
  5
5ad
100
AcDbEntity
  8
2
100
AcDbVertex
100
AcDb2dVertex
 42
-9.1346044E-003
 10
9.0834851E+001
 20
1.4945002E+002
 70
0
  0
VERTEX
  5
5ae
100
AcDbEntity
  8
2
100
AcDbVertex
100
AcDb2dVertex
 42
-9.3138277E-003
 10
9.075825E+001
 20
1.4961275E+002
 70
1
  0
VERTEX
  5
5af
100
AcDbEntity
  8
2
100
AcDbVertex
100
AcDb2dVertex
 42
-9.4937749E-003
 10
9.0688537E+001
 20
1.4977629E+002
 70
0
  0
VERTEX
  5
5b0
100
AcDbEntity
  8
2
100
AcDbVertex
100
AcDb2dVertex
 42
-9.7022839E-003
 10
9.0626216E+001
 20
1.4994009E+002
 70
1
  0
VERTEX
  5
5b1
100
AcDbEntity
  8
2
100
AcDbVertex
100
AcDb2dVertex
 42
-9.8972912E-003
 10
9.057113E+001
 20
1.5010358E+002
 70
0
  0
VERTEX
  5
5b2
100
AcDbEntity
  8
2
100
AcDbVertex
100
AcDb2dVertex
 42
-1.0133122E-002
 10
9.0523691E+001
 20
1.5026619E+002
 70
1
  0
VERTEX
  5
5b3
100
AcDbEntity
  8
2
100
AcDbVertex
100
AcDb2dVertex
 42
-1.0340519E-002
 10
9.0483627E+001
 20
1.5042741E+002
 70
0
  0
VERTEX
  5
5b4
100
AcDbEntity
  8
2
100
AcDbVertex
100
AcDb2dVertex
 42
-1.0596805E-002
 10
9.0451248E+001
 20
1.5058665E+002
 70
1
  0
VERTEX
  5
5b5
100
AcDbEntity
  8
2
100
AcDbVertex
100
AcDb2dVertex
 42
-1.0804133E-002
 10
9.0426179E+001
 20
1.507435E+002
 70
0
  0
VERTEX
  5
5b6
100
AcDbEntity
  8
2
100
AcDbVertex
100
AcDb2dVertex
 42
-1.1080761E-002
 10
9.0408625E+001
 20
1.508974E+002
 70
1
  0
VERTEX
  5
5b7
100
AcDbEntity
  8
2
100
AcDbVertex
100
AcDb2dVertex
 42
-1.1300874E-002
 10
9.0398136E+001
 20
1.5104806E+002
 70
0
  0
VERTEX
  5
5b8
100
AcDbEntity
  8
2
100
AcDbVertex
100
AcDb2dVertex
 42
-1.155694E-002
 10
9.0394818E+001
 20
1.5119494E+002
 70
1
  0
VERTEX
  5
5b9
100
AcDbEntity
  8
2
100
AcDbVertex
100
AcDb2dVertex
 42
-1.1693496E-002
 10
9.0398133E+001
 20
1.5133783E+002
 70
0
  0
VERTEX
  5
5ba
100
AcDbEntity
  8
2
100
AcDbVertex
100
AcDb2dVertex
 42
-1.2027559E-002
 10
9.0408086E+001
 20
1.5147623E+002
 70
1
  0
VERTEX
  5
5bb
100
AcDbEntity
  8
2
100
AcDbVertex
100
AcDb2dVertex
 42
-1.2374324E-002
 10
9.0424217E+001
 20
1.516102E+002
 70
0
  0
VERTEX
  5
5bc
100
AcDbEntity
  8
2
100
AcDbVertex
100
AcDb2dVertex
 42
-1.234869E-002
 10
9.04465E+001
 20
1.5173933E+002
 70
1
  0
VERTEX
  5
5bd
100
AcDbEntity
  8
2
100
AcDbVertex
100
AcDb2dVertex
 42
-1.1790926E-002
 10
9.0473995E+001
 20
1.5186324E+002
 70
0
  0
VERTEX
  5
5be
100
AcDbEntity
  8
2
100
AcDbVertex
100
AcDb2dVertex
 42
-1.2917579E-002
 10
9.0506454E+001
 20
1.5198141E+002
 70
1
  0
VERTEX
  5
5bf
100
AcDbEntity
  8
2
100
AcDbVertex
100
AcDb2dVertex
 42
-1.5119469E-002
 10
9.0544776E+001
 20
1.520957E+002
 70
0
  0
VERTEX
  5
5c0
100
AcDbEntity
  8
2
100
AcDbVertex
100
AcDb2dVertex
 42
-1.2125325E-002
 10
9.05893E+001
 20
1.5220639E+002
 70
1
  0
VERTEX
  5
5c1
100
AcDbEntity
  8
2
100
AcDbVertex
100
AcDb2dVertex
 42
-5.092753E-003
 10
9.0633725E+001
 20
1.5230693E+002
 70
0
  0
VERTEX
  5
5c2
100
AcDbEntity
  8
2
100
AcDbVertex
100
AcDb2dVertex
 42
-1.6176562E-002
 10
9.0675872E+001
 20
1.5239476E+002
 70
1
  0
VERTEX
  5
5c3
100
AcDbEntity
  8
2
100
AcDbVertex
100
AcDb2dVertex
 42
-2.8039573E-002
 10
9.0737981E+001
 20
1.5249684E+002
 70
0
  0
VERTEX
  5
5c4
100
AcDbEntity
  8
2
100
AcDbVertex
100
AcDb2dVertex
 42
-1.4380318E-002
 10
9.0843766E+001
 20
1.52641E+002
 70
1
  0
VERTEX
  5
5c5
100
AcDbEntity
  8
2
100
AcDbVertex
100
AcDb2dVertex
 42
-7.9504551E-003
 10
9.098839E+001
 20
1.5282187E+002
 70
0
  0
SEQEND
  5
5c6
100
AcDbEntity
  0
POLYLINE
  5
5c7
100
AcDbEntity
  8
2
100
AcDb2dPolyline
  6
CONTINUOUS
 62
6
 66
1
 40
0.0
 41
0.0
 70
2
  0
VERTEX
  5
5c8
100
AcDbEntity
  8
2
100
AcDbVertex
100
AcDb2dVertex
 42
0.0
 10
9.6335187E+001
 20
1.4715074E+002
 70
0
  0
VERTEX
  5
5c9
100
AcDbEntity
  8
2
100
AcDbVertex
100
AcDb2dVertex
 42
-1.1332114E-002
 10
9.6264257E+001
 20
1.4709366E+002
 70
1
  0
VERTEX
  5
5ca
100
AcDbEntity
  8
2
100
AcDbVertex
100
AcDb2dVertex
 42
-1.1455622E-002
 10
9.6190993E+001
 20
1.4703993E+002
 70
0
  0
VERTEX
  5
5cb
100
AcDbEntity
  8
2
100
AcDbVertex
100
AcDb2dVertex
 42
-1.1390091E-002
 10
9.6115276E+001
 20
1.469897E+002
 70
1
  0
VERTEX
  5
5cc
100
AcDbEntity
  8
2
100
AcDbVertex
100
AcDb2dVertex
 42
-1.1194138E-002
 10
9.6037364E+001
 20
1.4694286E+002
 70
0
  0
VERTEX
  5
5cd
100
AcDbEntity
  8
2
100
AcDbVertex
100
AcDb2dVertex
 42
-1.1027781E-002
 10
9.5957367E+001
 20
1.468996E+002
 70
1
  0
VERTEX
  5
5ce
100
AcDbEntity
  8
2
100
AcDbVertex
100
AcDb2dVertex
 42
-1.0833435E-002
 10
9.587552E+001
 20
1.4685979E+002
 70
0
  0
VERTEX
  5
5cf
100
AcDbEntity
  8
2
100
AcDbVertex
100
AcDb2dVertex
 42
-1.0635338E-002
 10
9.5791901E+001
 20
1.4682359E+002
 70
1
  0
VERTEX
  5
5d0
100
AcDbEntity
  8
2
100
AcDbVertex
100
AcDb2dVertex
 42
-1.0397073E-002
 10
9.570674E+001
 20
1.4679083E+002
 70
0
  0
VERTEX
  5
5d1
100
AcDbEntity
  8
2
100
AcDbVertex
100
AcDb2dVertex
 42
-1.0171884E-002
 10
9.5620145E+001
 20
1.4676165E+002
 70
1
  0
VERTEX
  5
5d2
100
AcDbEntity
  8
2
100
AcDbVertex
100
AcDb2dVertex
 42
-9.9118298E-003
 10
9.5532331E+001
 20
1.4673589E+002
 70
0
  0
VERTEX
  5
5d3
100
AcDbEntity
  8
2
100
AcDbVertex
100
AcDb2dVertex
 42
-9.6685214E-003
 10
9.5443416E+001
 20
1.4671363E+002
 70
1
  0
VERTEX
  5
5d4
100
AcDbEntity
  8
2
100
AcDbVertex
100
AcDb2dVertex
 42
-9.3911372E-003
 10
9.5353603E+001
 20
1.466947E+002
 70
0
  0
VERTEX
  5
5d5
100
AcDbEntity
  8
2
100
AcDbVertex
100
AcDb2dVertex
 42
-9.1478388E-003
 10
9.5263017E+001
 20
1.4667918E+002
 70
1
  0
VERTEX
  5
5d6
100
AcDbEntity
  8
2
100
AcDbVertex
100
AcDb2dVertex
 42
-8.8816378E-003
 10
9.5171836E+001
 20
1.4666687E+002
 70
0
  0
VERTEX
  5
5d7
100
AcDbEntity
  8
2
100
AcDbVertex
100
AcDb2dVertex
 42
-8.6186884E-003
 10
9.5080188E+001
 20
1.4665784E+002
 70
1
  0
VERTEX
  5
5d8
100
AcDbEntity
  8
2
100
AcDbVertex
100
AcDb2dVertex
 42
-8.3059271E-003
 10
9.4988266E+001
 20
1.4665186E+002
 70
0
  0
VERTEX
  5
5d9
100
AcDbEntity
  8
2
100
AcDbVertex
100
AcDb2dVertex
 42
-8.1220294E-003
 10
9.4896215E+001
 20
1.4664898E+002
 70
1
  0
VERTEX
  5
5da
100
AcDbEntity
  8
2
100
AcDbVertex
100
AcDb2dVertex
 42
-7.9816033E-003
 10
9.4804058E+001
 20
1.4664901E+002
 70
0
  0
VERTEX
  5
5db
100
AcDbEntity
  8
2
100
AcDbVertex
100
AcDb2dVertex
 42
-7.5729132E-003
 10
9.4711888E+001
 20
1.4665201E+002
 70
1
  0
VERTEX
  5
5dc
100
AcDbEntity
  8
2
100
AcDbVertex
100
AcDb2dVertex
 42
-6.9255271E-003
 10
9.4620292E+001
 20
1.4665761E+002
 70
0
  0
VERTEX
  5
5dd
100
AcDbEntity
  8
2
100
AcDbVertex
100
AcDb2dVertex
 42
-7.2957094E-003
 10
9.4529567E+001
 20
1.4666576E+002
 70
1
  0
VERTEX
  5
5de
100
AcDbEntity
  8
2
100
AcDbVertex
100
AcDb2dVertex
 42
-8.2059767E-003
 10
9.4437955E+001
 20
1.4667684E+002
 70
0
  0
VERTEX
  5
5df
100
AcDbEntity
  8
2
100
AcDbVertex
100
AcDb2dVertex
 42
-6.2668168E-003
 10
9.4344949E+001
 20
1.4669104E+002
 70
1
  0
VERTEX
  5
5e0
100
AcDbEntity
  8
2
100
AcDbVertex
100
AcDb2dVertex
 42
-2.5887997E-003
 10
9.425793E+001
 20
1.4670587E+002
 70
0
  0
VERTEX
  5
5e1
100
AcDbEntity
  8
2
100
AcDbVertex
100
AcDb2dVertex
 42
-8.0786702E-003
 10
9.417954E+001
 20
1.4672051E+002
 70
1
  0
VERTEX
  5
5e2
100
AcDbEntity
  8
2
100
AcDbVertex
100
AcDb2dVertex
 42
-1.3102513E-002
 10
9.4080992E+001
 20
1.4674383E+002
 70
0
  0
VERTEX
  5
5e3
100
AcDbEntity
  8
2
100
AcDbVertex
100
AcDb2dVertex
 42
-6.4640271E-003
 10
9.3932137E+001
 20
1.4678533E+002
 70
1
  0
VERTEX
  5
5e4
100
AcDbEntity
  8
2
100
AcDbVertex
100
AcDb2dVertex
 42
-3.5053477E-003
 10
9.3738943E+001
 20
1.4684306E+002
 70
0
  0
SEQEND
  5
5e5
100
AcDbEntity
  0
POLYLINE
  5
5e6
100
AcDbEntity
  8
2
100
AcDb2dPolyline
  6
CONTINUOUS
 62
6
 66
1
 40
0.0
 41
0.0
 70
2
  0
VERTEX
  5
5e7
100
AcDbEntity
  8
2
100
AcDbVertex
100
AcDb2dVertex
 42
0.0
 10
9.4279167E+001
 20
1.482182E+002
 70
0
  0
VERTEX
  5
5e8
100
AcDbEntity
  8
2
100
AcDbVertex
100
AcDb2dVertex
 42
-1.1951695E-002
 10
9.41567E+001
 20
1.4826257E+002
 70
1
  0
VERTEX
  5
5e9
100
AcDbEntity
  8
2
100
AcDbVertex
100
AcDb2dVertex
 42
-1.0689298E-002
 10
9.4031533E+001
 20
1.4831435E+002
 70
0
  0
VERTEX
  5
5ea
100
AcDbEntity
  8
2
100
AcDbVertex
100
AcDb2dVertex
 42
-1.0199322E-002
 10
9.3903477E+001
 20
1.4837378E+002
 70
1
  0
VERTEX
  5
5eb
100
AcDbEntity
  8
2
100
AcDbVertex
100
AcDb2dVertex
 42
-1.0603038E-002
 10
9.3773162E+001
 20
1.4844087E+002
 70
0
  0
VERTEX
  5
5ec
100
AcDbEntity
  8
2
100
AcDbVertex
100
AcDb2dVertex
 42
-1.0652232E-002
 10
9.3641156E+001
 20
1.4851632E+002
 70
1
  0
VERTEX
  5
5ed
100
AcDbEntity
  8
2
100
AcDbVertex
100
AcDb2dVertex
 42
-1.066313E-002
 10
9.3508145E+001
 20
1.4859993E+002
 70
0
  0
VERTEX
  5
5ee
100
AcDbEntity
  8
2
100
AcDbVertex
100
AcDb2dVertex
 42
-1.0615883E-002
 10
9.3374754E+001
 20
1.4869213E+002
 70
1
  0
VERTEX
  5
5ef
100
AcDbEntity
  8
2
100
AcDbVertex
100
AcDb2dVertex
 42
-1.0746276E-002
 10
9.3241763E+001
 20
1.4879257E+002
 70
0
  0
VERTEX
  5
5f0
100
AcDbEntity
  8
2
100
AcDbVertex
100
AcDb2dVertex
 42
-1.0770253E-002
 10
9.3110025E+001
 20
1.4890152E+002
 70
1
  0
VERTEX
  5
5f1
100
AcDbEntity
  8
2
100
AcDbVertex
100
AcDb2dVertex
 42
-1.0904498E-002
 10
9.2980356E+001
 20
1.4901842E+002
 70
0
  0
VERTEX
  5
5f2
100
AcDbEntity
  8
2
100
AcDbVertex
100
AcDb2dVertex
 42
-1.0971202E-002
 10
9.2853762E+001
 20
1.491433E+002
 70
1
  0
VERTEX
  5
5f3
100
AcDbEntity
  8
2
100
AcDbVertex
100
AcDb2dVertex
 42
-1.1145912E-002
 10
9.2731032E+001
 20
1.4927538E+002
 70
0
  0
VERTEX
  5
5f4
100
AcDbEntity
  8
2
100
AcDbVertex
100
AcDb2dVertex
 42
-1.1274197E-002
 10
9.2613278E+001
 20
1.4941442E+002
 70
1
  0
VERTEX
  5
5f5
100
AcDbEntity
  8
2
100
AcDbVertex
100
AcDb2dVertex
 42
-1.1487672E-002
 10
9.2501192E+001
 20
1.4955946E+002
 70
0
  0
VERTEX
  5
5f6
100
AcDbEntity
  8
2
100
AcDbVertex
100
AcDb2dVertex
 42
-1.1683523E-002
 10
9.2395908E+001
 20
1.4970999E+002
 70
1
  0
VERTEX
  5
5f7
100
AcDbEntity
  8
2
100
AcDbVertex
100
AcDb2dVertex
 42
-1.1941621E-002
 10
9.229794E+001
 20
1.4986491E+002
 70
0
  0
VERTEX
  5
5f8
100
AcDbEntity
  8
2
100
AcDbVertex
100
AcDb2dVertex
 42
-1.2211883E-002
 10
9.2208359E+001
 20
1.5002346E+002
 70
1
  0
VERTEX
  5
5f9
100
AcDbEntity
  8
2
100
AcDbVertex
100
AcDb2dVertex
 42
-1.2515436E-002
 10
9.2127435E+001
 20
1.5018449E+002
 70
0
  0
VERTEX
  5
5fa
100
AcDbEntity
  8
2
100
AcDbVertex
100
AcDb2dVertex
 42
-1.2862511E-002
 10
9.2056089E+001
 20
1.5034707E+002
 70
1
  0
VERTEX
  5
5fb
100
AcDbEntity
  8
2
100
AcDbVertex
100
AcDb2dVertex
 42
-1.3208378E-002
 10
9.1994309E+001
 20
1.5051007E+002
 70
0
  0
VERTEX
  5
5fc
100
AcDbEntity
  8
2
100
AcDbVertex
100
AcDb2dVertex
 42
-1.3628431E-002
 10
9.1942799E+001
 20
1.5067246E+002
 70
1
  0
VERTEX
  5
5fd
100
AcDbEntity
  8
2
100
AcDbVertex
100
AcDb2dVertex
 42
-1.4005784E-002
 10
9.1901259E+001
 20
1.5083326E+002
 70
0
  0
VERTEX
  5
5fe
100
AcDbEntity
  8
2
100
AcDbVertex
100
AcDb2dVertex
 42
-1.448551E-002
 10
9.1870137E+001
 20
1.5099139E+002
 70
1
  0
VERTEX
  5
5ff
100
AcDbEntity
  8
2
100
AcDbVertex
100
AcDb2dVertex
 42
-1.4874214E-002
 10
9.1848878E+001
 20
1.5114611E+002
 70
0
  0
VERTEX
  5
600
100
AcDbEntity
  8
2
100
AcDbVertex
100
AcDb2dVertex
 42
-1.5385455E-002
 10
9.183767E+001
 20
1.5129641E+002
 70
1
  0
VERTEX
  5
601
100
AcDbEntity
  8
2
100
AcDbVertex
100
AcDb2dVertex
 42
-1.5748124E-002
 10
9.1835757E+001
 20
1.5144177E+002
 70
0
  0
VERTEX
  5
602
100
AcDbEntity
  8
2
100
AcDbVertex
100
AcDb2dVertex
 42
-1.6252773E-002
 10
9.1843094E+001
 20
1.5158134E+002
 70
1
  0
VERTEX
  5
603
100
AcDbEntity
  8
2
100
AcDbVertex
100
AcDb2dVertex
 42
-1.655556E-002
 10
9.1858803E+001
 20
1.5171486E+002
 70
0
  0
VERTEX
  5
604
100
AcDbEntity
  8
2
100
AcDbVertex
100
AcDb2dVertex
 42
-1.6980346E-002
 10
9.1882655E+001
 20
1.5184164E+002
 70
1
  0
VERTEX
  5
605
100
AcDbEntity
  8
2
100
AcDbVertex
100
AcDb2dVertex
 42
-1.7122208E-002
 10
9.1913701E+001
 20
1.5196167E+002
 70
0
  0
VERTEX
  5
606
100
AcDbEntity
  8
2
100
AcDbVertex
100
AcDb2dVertex
 42
-1.7471751E-002
 10
9.1951579E+001
 20
1.5207443E+002
 70
1
  0
VERTEX
  5
607
100
AcDbEntity
  8
2
100
AcDbVertex
100
AcDb2dVertex
 42
-1.75674E-002
 10
9.1995426E+001
 20
1.5218016E+002
 70
0
  0
VERTEX
  5
608
100
AcDbEntity
  8
2
100
AcDbVertex
100
AcDb2dVertex
 42
-1.7560624E-002
 10
9.2044831E+001
 20
1.5227855E+002
 70
1
  0
VERTEX
  5
609
100
AcDbEntity
  8
2
100
AcDbVertex
100
AcDb2dVertex
 42
-1.706595E-002
 10
9.209871E+001
 20
1.5236978E+002
 70
0
  0
VERTEX
  5
60a
100
AcDbEntity
  8
2
100
AcDbVertex
100
AcDb2dVertex
 42
-1.7620568E-002
 10
9.2156708E+001
 20
1.5245379E+002
 70
1
  0
VERTEX
  5
60b
100
AcDbEntity
  8
2
100
AcDbVertex
100
AcDb2dVertex
 42
-1.7631374E-002
 10
9.2219933E+001
 20
1.525329E+002
 70
0
  0
VERTEX
  5
60c
100
AcDbEntity
  8
2
100
AcDbVertex
100
AcDb2dVertex
 42
-1.7646286E-002
 10
9.2290143E+001
 20
1.5260889E+002
 70
1
  0
VERTEX
  5
60d
100
AcDbEntity
  8
2
100
AcDbVertex
100
AcDb2dVertex
 42
-1.9099587E-002
 10
9.2367713E+001
 20
1.5268152E+002
 70
0
  0
VERTEX
  5
60e
100
AcDbEntity
  8
2
100
AcDbVertex
100
AcDb2dVertex
 42
-1.8835037E-002
 10
9.245321E+001
 20
1.5274979E+002
 70
1
  0
VERTEX
  5
60f
100
AcDbEntity
  8
2
100
AcDbVertex
100
AcDb2dVertex
 42
-1.7634173E-002
 10
9.2545578E+001
 20
1.5281328E+002
 70
0
  0
VERTEX
  5
610
100
AcDbEntity
  8
2
100
AcDbVertex
100
AcDb2dVertex
 42
-1.9907216E-002
 10
9.2644897E+001
 20
1.5287111E+002
 70
1
  0
VERTEX
  5
611
100
AcDbEntity
  8
2
100
AcDbVertex
100
AcDb2dVertex
 42
-2.4375155E-002
 10
9.2754163E+001
 20
1.5292244E+002
 70
0
  0
VERTEX
  5
612
100
AcDbEntity
  8
2
100
AcDbVertex
100
AcDb2dVertex
 42
-1.7533049E-002
 10
9.2874727E+001
 20
1.5296613E+002
 70
1
  0
VERTEX
  5
613
100
AcDbEntity
  8
2
100
AcDbVertex
100
AcDb2dVertex
 42
-4.8265324E-003
 10
9.2992754E+001
 20
1.5300323E+002
 70
0
  0
VERTEX
  5
614
100
AcDbEntity
  8
2
100
AcDbVertex
100
AcDb2dVertex
 42
-2.5504498E-002
 10
9.3103637E+001
 20
1.5303324E+002
 70
1
  0
VERTEX
  5
615
100
AcDbEntity
  8
2
100
AcDbVertex
100
AcDb2dVertex
 42
-4.184779E-002
 10
9.3259025E+001
 20
1.5305026E+002
 70
0
  0
VERTEX
  5
616
100
AcDbEntity
  8
2
100
AcDbVertex
100
AcDb2dVertex
 42
-1.8433222E-002
 10
9.3513732E+001
 20
1.5304749E+002
 70
1
  0
VERTEX
  5
617
100
AcDbEntity
  8
2
100
AcDbVertex
100
AcDb2dVertex
 42
-9.0060883E-003
 10
9.3856637E+001
 20
1.5302658E+002
 70
0
  0
SEQEND
  5
618
100
AcDbEntity
  0
POLYLINE
  5
619
100
AcDbEntity
  8
2
100
AcDb2dPolyline
  6
CONTINUOUS
 62
6
 66
1
 40
0.0
 41
0.0
 70
2
  0
VERTEX
  5
61a
100
AcDbEntity
  8
2
100
AcDbVertex
100
AcDb2dVertex
 42
0.0
 10
9.6708263E+001
 20
1.5000198E+002
 70
0
  0
VERTEX
  5
61b
100
AcDbEntity
  8
2
100
AcDbVertex
100
AcDb2dVertex
 42
-1.4317129E-002
 10
9.6719415E+001
 20
1.4986921E+002
 70
1
  0
VERTEX
  5
61c
100
AcDbEntity
  8
2
100
AcDbVertex
100
AcDb2dVertex
 42
-1.4293693E-002
 10
9.6723037E+001
 20
1.4973697E+002
 70
0
  0
VERTEX
  5
61d
100
AcDbEntity
  8
2
100
AcDbVertex
100
AcDb2dVertex
 42
-1.4658326E-002
 10
9.6718866E+001
 20
1.4960518E+002
 70
1
  0
VERTEX
  5
61e
100
AcDbEntity
  8
2
100
AcDbVertex
100
AcDb2dVertex
 42
-1.5793005E-002
 10
9.6706879E+001
 20
1.4947459E+002
 70
0
  0
VERTEX
  5
61f
100
AcDbEntity
  8
2
100
AcDbVertex
100
AcDb2dVertex
 42
-1.6724391E-002
 10
9.6686369E+001
 20
1.493462E+002
 70
1
  0
VERTEX
  5
620
100
AcDbEntity
  8
2
100
AcDbVertex
100
AcDb2dVertex
 42
-1.7515606E-002
 10
9.665753E+001
 20
1.4922066E+002
 70
0
  0
VERTEX
  5
621
100
AcDbEntity
  8
2
100
AcDbVertex
100
AcDb2dVertex
 42
-1.8276827E-002
 10
9.6619936E+001
 20
1.4909881E+002
 70
1
  0
VERTEX
  5
622
100
AcDbEntity
  8
2
100
AcDbVertex
100
AcDb2dVertex
 42
-1.9093614E-002
 10
9.6573951E+001
 20
1.4898123E+002
 70
0
  0
VERTEX
  5
623
100
AcDbEntity
  8
2
100
AcDbVertex
100
AcDb2dVertex
 42
-1.978484E-002
 10
9.6519296E+001
 20
1.4886885E+002
 70
1
  0
VERTEX
  5
624
100
AcDbEntity
  8
2
100
AcDbVertex
100
AcDb2dVertex
 42
-2.0365883E-002
 10
9.6456521E+001
 20
1.4876214E+002
 70
0
  0
VERTEX
  5
625
100
AcDbEntity
  8
2
100
AcDbVertex
100
AcDb2dVertex
 42
-2.079953E-002
 10
9.6385557E+001
 20
1.4866195E+002
 70
1
  0
VERTEX
  5
626
100
AcDbEntity
  8
2
100
AcDbVertex
100
AcDb2dVertex
 42
-2.1058964E-002
 10
9.6307114E+001
 20
1.4856858E+002
 70
0
  0
VERTEX
  5
627
100
AcDbEntity
  8
2
100
AcDbVertex
100
AcDb2dVertex
 42
-2.1169206E-002
 10
9.6221328E+001
 20
1.4848281E+002
 70
1
  0
VERTEX
  5
628
100
AcDbEntity
  8
2
100
AcDbVertex
100
AcDb2dVertex
 42
-2.1068402E-002
 10
9.6129013E+001
 20
1.4840471E+002
 70
0
  0
VERTEX
  5
629
100
AcDbEntity
  8
2
100
AcDbVertex
100
AcDb2dVertex
 42
-2.0773779E-002
 10
9.6030485E+001
 20
1.4833495E+002
 70
1
  0
VERTEX
  5
62a
100
AcDbEntity
  8
2
100
AcDbVertex
100
AcDb2dVertex
 42
-2.0206214E-002
 10
9.5926671E+001
 20
1.4827336E+002
 70
0
  0
VERTEX
  5
62b
100
AcDbEntity
  8
2
100
AcDbVertex
100
AcDb2dVertex
 42
-1.9757764E-002
 10
9.5818053E+001
 20
1.4822042E+002
 70
1
  0
VERTEX
  5
62c
100
AcDbEntity
  8
2
100
AcDbVertex
100
AcDb2dVertex
 42
-1.9264424E-002
 10
9.5705361E+001
 20
1.4817585E+002
 70
0
  0
VERTEX
  5
62d
100
AcDbEntity
  8
2
100
AcDbVertex
100
AcDb2dVertex
 42
-1.8140695E-002
 10
9.5589107E+001
 20
1.4813996E+002
 70
1
  0
VERTEX
  5
62e
100
AcDbEntity
  8
2
100
AcDbVertex
100
AcDb2dVertex
 42
-1.6443126E-002
 10
9.5470757E+001
 20
1.4811206E+002
 70
0
  0
VERTEX
  5
62f
100
AcDbEntity
  8
2
100
AcDbVertex
100
AcDb2dVertex
 42
-1.6832609E-002
 10
9.5351145E+001
 20
1.4809223E+002
 70
1
  0
VERTEX
  5
630
100
AcDbEntity
  8
2
100
AcDbVertex
100
AcDb2dVertex
 42
-1.8208378E-002
 10
9.5228528E+001
 20
1.4808056E+002
 70
0
  0
VERTEX
  5
631
100
AcDbEntity
  8
2
100
AcDbVertex
100
AcDb2dVertex
 42
-1.3894126E-002
 10
9.5102674E+001
 20
1.4807728E+002
 70
1
  0
VERTEX
  5
632
100
AcDbEntity
  8
2
100
AcDbVertex
100
AcDb2dVertex
 42
-6.3290902E-003
 10
9.4983979E+001
 20
1.4807884E+002
 70
0
  0
VERTEX
  5
633
100
AcDbEntity
  8
2
100
AcDbVertex
100
AcDb2dVertex
 42
-1.6714727E-002
 10
9.48764E+001
 20
1.4808412E+002
 70
1
  0
VERTEX
  5
634
100
AcDbEntity
  8
2
100
AcDbVertex
100
AcDb2dVertex
 42
-2.5786538E-002
 10
9.4741784E+001
 20
1.4810368E+002
 70
0
  0
VERTEX
  5
635
100
AcDbEntity
  8
2
100
AcDbVertex
100
AcDb2dVertex
 42
-1.2728245E-002
 10
9.4540059E+001
 20
1.4814921E+002
 70
1
  0
VERTEX
  5
636
100
AcDbEntity
  8
2
100
AcDbVertex
100
AcDb2dVertex
 42
-6.9656456E-003
 10
9.4279167E+001
 20
1.482182E+002
 70
0
  0
SEQEND
  5
637
100
AcDbEntity
  0
POLYLINE
  5
638
100
AcDbEntity
  8
2
100
AcDb2dPolyline
  6
CONTINUOUS
 62
6
 66
1
 40
0.0
 41
0.0
 70
2
  0
VERTEX
  5
639
100
AcDbEntity
  8
2
100
AcDbVertex
100
AcDb2dVertex
 42
0.0
 10
9.4433516E+001
 20
1.4836372E+002
 70
0
  0
VERTEX
  5
63a
100
AcDbEntity
  8
2
100
AcDbVertex
100
AcDb2dVertex
 42
-8.4493482E-003
 10
9.4344663E+001
 20
1.4839538E+002
 70
1
  0
VERTEX
  5
63b
100
AcDbEntity
  8
2
100
AcDbVertex
100
AcDb2dVertex
 42
-7.7690763E-003
 10
9.4254266E+001
 20
1.4843089E+002
 70
0
  0
VERTEX
  5
63c
100
AcDbEntity
  8
2
100
AcDbVertex
100
AcDb2dVertex
 42
-7.5036876E-003
 10
9.4162234E+001
 20
1.4847038E+002
 70
1
  0
VERTEX
  5
63d
100
AcDbEntity
  8
2
100
AcDbVertex
100
AcDb2dVertex
 42
-7.7182374E-003
 10
9.406881E+001
 20
1.4851382E+002
 70
0
  0
VERTEX
  5
63e
100
AcDbEntity
  8
2
100
AcDbVertex
100
AcDb2dVertex
 42
-7.740865E-003
 10
9.3974162E+001
 20
1.4856155E+002
 70
1
  0
VERTEX
  5
63f
100
AcDbEntity
  8
2
100
AcDbVertex
100
AcDb2dVertex
 42
-7.7391638E-003
 10
9.3878541E+001
 20
1.4861349E+002
 70
0
  0
VERTEX
  5
640
100
AcDbEntity
  8
2
100
AcDbVertex
100
AcDb2dVertex
 42
-7.7016809E-003
 10
9.3782125E+001
 20
1.4866988E+002
 70
1
  0
VERTEX
  5
641
100
AcDbEntity
  8
2
100
AcDbVertex
100
AcDb2dVertex
 42
-7.7593167E-003
 10
9.3685194E+001
 20
1.487306E+002
 70
0
  0
VERTEX
  5
642
100
AcDbEntity
  8
2
100
AcDbVertex
100
AcDb2dVertex
 42
-7.7506688E-003
 10
9.3587999E+001
 20
1.4879589E+002
 70
1
  0
VERTEX
  5
643
100
AcDbEntity
  8
2
100
AcDbVertex
100
AcDb2dVertex
 42
-7.8028408E-003
 10
9.3490837E+001
 20
1.4886556E+002
 70
0
  0
VERTEX
  5
644
100
AcDbEntity
  8
2
100
AcDbVertex
100
AcDb2dVertex
 42
-7.8047829E-003
 10
9.3394017E+001
 20
1.489398E+002
 70
1
  0
VERTEX
  5
645
100
AcDbEntity
  8
2
100
AcDbVertex
100
AcDb2dVertex
 42
-7.8700497E-003
 10
9.3297846E+001
 20
1.4901836E+002
 70
0
  0
VERTEX
  5
646
100
AcDbEntity
  8
2
100
AcDbVertex
100
AcDb2dVertex
 42
-7.8905661E-003
 10
9.320269E+001
 20
1.4910137E+002
 70
1
  0
VERTEX
  5
647
100
AcDbEntity
  8
2
100
AcDbVertex
100
AcDb2dVertex
 42
-7.966916E-003
 10
9.3108853E+001
 20
1.4918853E+002
 70
0
  0
VERTEX
  5
648
100
AcDbEntity
  8
2
100
AcDbVertex
100
AcDb2dVertex
 42
-8.0074354E-003
 10
9.3016749E+001
 20
1.4927989E+002
 70
1
  0
VERTEX
  5
649
100
AcDbEntity
  8
2
100
AcDbVertex
100
AcDb2dVertex
 42
-8.097739E-003
 10
9.2926665E+001
 20
1.4937509E+002
 70
0
  0
VERTEX
  5
64a
100
AcDbEntity
  8
2
100
AcDbVertex
100
AcDb2dVertex
 42
-8.1611468E-003
 10
9.2839051E+001
 20
1.494741E+002
 70
1
  0
VERTEX
  5
64b
100
AcDbEntity
  8
2
100
AcDbVertex
100
AcDb2dVertex
 42
-8.2668349E-003
 10
9.275416E+001
 20
1.4957652E+002
 70
0
  0
VERTEX
  5
64c
100
AcDbEntity
  8
2
100
AcDbVertex
100
AcDb2dVertex
 42
-8.3554097E-003
 10
9.2672464E+001
 20
1.4968223E+002
 70
1
  0
VERTEX
  5
64d
100
AcDbEntity
  8
2
100
AcDbVertex
100
AcDb2dVertex
 42
-8.4779198E-003
 10
9.2594164E+001
 20
1.4979079E+002
 70
0
  0
VERTEX
  5
64e
100
AcDbEntity
  8
2
100
AcDbVertex
100
AcDb2dVertex
 42
-8.593704E-003
 10
9.2519735E+001
 20
1.49902E+002
 70
1
  0
VERTEX
  5
64f
100
AcDbEntity
  8
2
100
AcDbVertex
100
AcDb2dVertex
 42
-8.733964E-003
 10
9.2449316E+001
 20
1.5001541E+002
 70
0
  0
VERTEX
  5
650
100
AcDbEntity
  8
2
100
AcDbVertex
100
AcDb2dVertex
 42
-8.8784352E-003
 10
9.2383361E+001
 20
1.5013072E+002
 70
1
  0
VERTEX
  5
651
100
AcDbEntity
  8
2
100
AcDbVertex
100
AcDb2dVertex
 42
-9.0367033E-003
 10
9.2321935E+001
 20
1.5024748E+002
 70
0
  0
VERTEX
  5
652
100
AcDbEntity
  8
2
100
AcDbVertex
100
AcDb2dVertex
 42
-9.2105751E-003
 10
9.2265456E+001
 20
1.5036535E+002
 70
1
  0
VERTEX
  5
653
100
AcDbEntity
  8
2
100
AcDbVertex
100
AcDb2dVertex
 42
-9.3862714E-003
 10
9.2213905E+001
 20
1.5048388E+002
 70
0
  0
VERTEX
  5
654
100
AcDbEntity
  8
2
100
AcDbVertex
100
AcDb2dVertex
 42
-9.5888957E-003
 10
9.2167649E+001
 20
1.5060268E+002
 70
1
  0
VERTEX
  5
655
100
AcDbEntity
  8
2
100
AcDbVertex
100
AcDb2dVertex
 42
-9.7796122E-003
 10
9.2126582E+001
 20
1.5072134E+002
 70
0
  0
VERTEX
  5
656
100
AcDbEntity
  8
2
100
AcDbVertex
100
AcDb2dVertex
 42
-1.0009287E-002
 10
9.2091008E+001
 20
1.5083944E+002
 70
1
  0
VERTEX
  5
657
100
AcDbEntity
  8
2
100
AcDbVertex
100
AcDb2dVertex
 42
-1.0212666E-002
 10
9.2060739E+001
 20
1.5095663E+002
 70
0
  0
VERTEX
  5
658
100
AcDbEntity
  8
2
100
AcDbVertex
100
AcDb2dVertex
 42
-1.0462977E-002
 10
9.2036006E+001
 20
1.5107248E+002
 70
1
  0
VERTEX
  5
659
100
AcDbEntity
  8
2
100
AcDbVertex
100
AcDb2dVertex
 42
-1.0667149E-002
 10
9.2016548E+001
 20
1.511867E+002
 70
0
  0
VERTEX
  5
65a
100
AcDbEntity
  8
2
100
AcDbVertex
100
AcDb2dVertex
 42
-1.0938422E-002
 10
9.2002521E+001
 20
1.5129886E+002
 70
1
  0
VERTEX
  5
65b
100
AcDbEntity
  8
2
100
AcDbVertex
100
AcDb2dVertex
 42
-1.115639E-002
 10
9.1993609E+001
 20
1.5140876E+002
 70
0
  0
VERTEX
  5
65c
100
AcDbEntity
  8
2
100
AcDbVertex
100
AcDb2dVertex
 42
-1.1409049E-002
 10
9.1989898E+001
 20
1.5151601E+002
 70
1
  0
VERTEX
  5
65d
100
AcDbEntity
  8
2
100
AcDbVertex
100
AcDb2dVertex
 42
-1.1547009E-002
 10
9.1991006E+001
 20
1.5162045E+002
 70
0
  0
VERTEX
  5
65e
100
AcDbEntity
  8
2
100
AcDbVertex
100
AcDb2dVertex
 42
-1.1878005E-002
 10
9.1996947E+001
 20
1.5172173E+002
 70
1
  0
VERTEX
  5
65f
100
AcDbEntity
  8
2
100
AcDbVertex
100
AcDb2dVertex
 42
-1.2223444E-002
 10
9.2007393E+001
 20
1.5181985E+002
 70
0
  0
VERTEX
  5
660
100
AcDbEntity
  8
2
100
AcDbVertex
100
AcDb2dVertex
 42
-1.2205202E-002
 10
9.2022332E+001
 20
1.5191454E+002
 70
1
  0
VERTEX
  5
661
100
AcDbEntity
  8
2
100
AcDbVertex
100
AcDb2dVertex
 42
-1.166925E-002
 10
9.2041097E+001
 20
1.520055E+002
 70
0
  0
VERTEX
  5
662
100
AcDbEntity
  8
2
100
AcDbVertex
100
AcDb2dVertex
 42
-1.2779213E-002
 10
9.2063518E+001
 20
1.5209235E+002
 70
1
  0
VERTEX
  5
663
100
AcDbEntity
  8
2
100
AcDbVertex
100
AcDb2dVertex
 42
-1.4941183E-002
 10
9.209022E+001
 20
1.5217644E+002
 70
0
  0
VERTEX
  5
664
100
AcDbEntity
  8
2
100
AcDbVertex
100
AcDb2dVertex
 42
-1.2027311E-002
 10
9.2121445E+001
 20
1.5225797E+002
 70
1
  0
VERTEX
  5
665
100
AcDbEntity
  8
2
100
AcDbVertex
100
AcDb2dVertex
 42
-5.1780812E-003
 10
9.2152747E+001
 20
1.5233214E+002
 70
0
  0
VERTEX
  5
666
100
AcDbEntity
  8
2
100
AcDbVertex
100
AcDb2dVertex
 42
-1.6002218E-002
 10
9.218259E+001
 20
1.5239707E+002
 70
1
  0
VERTEX
  5
667
100
AcDbEntity
  8
2
100
AcDbVertex
100
AcDb2dVertex
 42
-2.7642317E-002
 10
9.222663E+001
 20
1.5247248E+002
 70
0
  0
VERTEX
  5
668
100
AcDbEntity
  8
2
100
AcDbVertex
100
AcDb2dVertex
 42
-1.4307441E-002
 10
9.2301564E+001
 20
1.5257876E+002
 70
1
  0
VERTEX
  5
669
100
AcDbEntity
  8
2
100
AcDbVertex
100
AcDb2dVertex
 42
-7.9521464E-003
 10
9.2403984E+001
 20
1.5271196E+002
 70
0
  0
SEQEND
  5
66a
100
AcDbEntity
  0
POLYLINE
  5
66b
100
AcDbEntity
  8
2
100
AcDb2dPolyline
  6
CONTINUOUS
 62
6
 66
1
 40
0.0
 41
0.0
 70
2
  0
VERTEX
  5
66c
100
AcDbEntity
  8
2
100
AcDbVertex
100
AcDb2dVertex
 42
0.0
 10
9.6308732E+001
 20
1.4857035E+002
 70
0
  0
VERTEX
  5
66d
100
AcDbEntity
  8
2
100
AcDbVertex
100
AcDb2dVertex
 42
-1.1128407E-002
 10
9.6256867E+001
 20
1.4853026E+002
 70
1
  0
VERTEX
  5
66e
100
AcDbEntity
  8
2
100
AcDbVertex
100
AcDb2dVertex
 42
-1.1245771E-002
 10
9.6203387E+001
 20
1.4849257E+002
 70
0
  0
VERTEX
  5
66f
100
AcDbEntity
  8
2
100
AcDbVertex
100
AcDb2dVertex
 42
-1.1175378E-002
 10
9.6148208E+001
 20
1.4845737E+002
 70
1
  0
VERTEX
  5
670
100
AcDbEntity
  8
2
100
AcDbVertex
100
AcDb2dVertex
 42
-1.0972644E-002
 10
9.6091513E+001
 20
1.4842459E+002
 70
0
  0
VERTEX
  5
671
100
AcDbEntity
  8
2
100
AcDbVertex
100
AcDb2dVertex
 42
-1.0802151E-002
 10
9.6033379E+001
 20
1.4839435E+002
 70
1
  0
VERTEX
  5
672
100
AcDbEntity
  8
2
100
AcDbVertex
100
AcDb2dVertex
 42
-1.0607007E-002
 10
9.5973973E+001
 20
1.4836657E+002
 70
0
  0
VERTEX
  5
673
100
AcDbEntity
  8
2
100
AcDbVertex
100
AcDb2dVertex
 42
-1.0409452E-002
 10
9.5913349E+001
 20
1.4834135E+002
 70
1
  0
VERTEX
  5
674
100
AcDbEntity
  8
2
100
AcDbVertex
100
AcDb2dVertex
 42
-1.0173168E-002
 10
9.5851668E+001
 20
1.4831857E+002
 70
0
  0
VERTEX
  5
675
100
AcDbEntity
  8
2
100
AcDbVertex
100
AcDb2dVertex
 42
-9.9511476E-003
 10
9.5789005E+001
 20
1.4829833E+002
 70
1
  0
VERTEX
  5
676
100
AcDbEntity
  8
2
100
AcDbVertex
100
AcDb2dVertex
 42
-9.6960398E-003
 10
9.5725513E+001
 20
1.482805E+002
 70
0
  0
VERTEX
  5
677
100
AcDbEntity
  8
2
100
AcDbVertex
100
AcDb2dVertex
 42
-9.4582324E-003
 10
9.5661272E+001
 20
1.4826516E+002
 70
1
  0
VERTEX
  5
678
100
AcDbEntity
  8
2
100
AcDbVertex
100
AcDb2dVertex
 42
-9.1877389E-003
 10
9.5596423E+001
 20
1.4825217E+002
 70
0
  0
VERTEX
  5
679
100
AcDbEntity
  8
2
100
AcDbVertex
100
AcDb2dVertex
 42
-8.951219E-003
 10
9.5531057E+001
 20
1.4824158E+002
 70
1
  0
VERTEX
  5
67a
100
AcDbEntity
  8
2
100
AcDbVertex
100
AcDb2dVertex
 42
-8.6928373E-003
 10
9.5465293E+001
 20
1.4823327E+002
 70
0
  0
VERTEX
  5
67b
100
AcDbEntity
  8
2
100
AcDbVertex
100
AcDb2dVertex
 42
-8.437776E-003
 10
9.5399222E+001
 20
1.4822726E+002
 70
1
  0
VERTEX
  5
67c
100
AcDbEntity
  8
2
100
AcDbVertex
100
AcDb2dVertex
 42
-8.1342217E-003
 10
9.5332979E+001
 20
1.4822342E+002
 70
0
  0
VERTEX
  5
67d
100
AcDbEntity
  8
2
100
AcDbVertex
100
AcDb2dVertex
 42
-7.957147E-003
 10
9.5266665E+001
 20
1.4822175E+002
 70
1
  0
VERTEX
  5
67e
100
AcDbEntity
  8
2
100
AcDbVertex
100
AcDb2dVertex
 42
-7.82321E-003
 10
9.5200292E+001
 20
1.4822216E+002
 70
0
  0
VERTEX
  5
67f
100
AcDbEntity
  8
2
100
AcDbVertex
100
AcDb2dVertex
 42
-7.4251709E-003
 10
9.5133925E+001
 20
1.4822465E+002
 70
1
  0
VERTEX
  5
680
100
AcDbEntity
  8
2
100
AcDbVertex
100
AcDb2dVertex
 42
-6.7925013E-003
 10
9.5067983E+001
 20
1.4822897E+002
 70
0
  0
VERTEX
  5
681
100
AcDbEntity
  8
2
100
AcDbVertex
100
AcDb2dVertex
 42
-7.160149E-003
 10
9.5002676E+001
 20
1.4823509E+002
 70
1
  0
VERTEX
  5
682
100
AcDbEntity
  8
2
100
AcDbVertex
100
AcDb2dVertex
 42
-8.0599647E-003
 10
9.4936736E+001
 20
1.4824329E+002
 70
0
  0
VERTEX
  5
683
100
AcDbEntity
  8
2
100
AcDbVertex
100
AcDb2dVertex
 42
-6.1553336E-003
 10
9.4869794E+001
 20
1.4825371E+002
 70
1
  0
VERTEX
  5
684
100
AcDbEntity
  8
2
100
AcDbVertex
100
AcDb2dVertex
 42
-2.5375302E-003
 10
9.4807164E+001
 20
1.4826454E+002
 70
0
  0
VERTEX
  5
685
100
AcDbEntity
  8
2
100
AcDbVertex
100
AcDb2dVertex
 42
-7.94506E-003
 10
9.4750745E+001
 20
1.482752E+002
 70
1
  0
VERTEX
  5
686
100
AcDbEntity
  8
2
100
AcDbVertex
100
AcDb2dVertex
 42
-1.2897186E-002
 10
9.4679805E+001
 20
1.482921E+002
 70
0
  0
VERTEX
  5
687
100
AcDbEntity
  8
2
100
AcDbVertex
100
AcDb2dVertex
 42
-6.3623618E-003
 10
9.4572629E+001
 20
1.4832207E+002
 70
1
  0
VERTEX
  5
688
100
AcDbEntity
  8
2
100
AcDbVertex
100
AcDb2dVertex
 42
-3.4493747E-003
 10
9.4433516E+001
 20
1.4836372E+002
 70
0
  0
SEQEND
  5
689
100
AcDbEntity
  0
POLYLINE
  5
68a
100
AcDbEntity
  8
2
100
AcDb2dPolyline
  6
CONTINUOUS
 62
6
 66
1
 40
0.0
 41
0.0
 70
2
  0
VERTEX
  5
68b
100
AcDbEntity
  8
2
100
AcDbVertex
100
AcDb2dVertex
 42
0.0
 10
9.2967577E+001
 20
1.4933108E+002
 70
0
  0
VERTEX
  5
68c
100
AcDbEntity
  8
2
100
AcDbVertex
100
AcDb2dVertex
 42
3.505E-006
 10
9.2967551E+001
 20
1.4933111E+002
 70
1
  0
VERTEX
  5
68d
100
AcDbEntity
  8
2
100
AcDbVertex
100
AcDb2dVertex
 42
3.513E-006
 10
9.2967525E+001
 20
1.4933114E+002
 70
0
  0
VERTEX
  5
68e
100
AcDbEntity
  8
2
100
AcDbVertex
100
AcDb2dVertex
 42
3.521E-006
 10
9.2967499E+001
 20
1.4933116E+002
 70
1
  0
VERTEX
  5
68f
100
AcDbEntity
  8
2
100
AcDbVertex
100
AcDb2dVertex
 42
3.5286E-006
 10
9.2967474E+001
 20
1.4933119E+002
 70
0
  0
VERTEX
  5
690
100
AcDbEntity
  8
2
100
AcDbVertex
100
AcDb2dVertex
 42
3.537E-006
 10
9.2967448E+001
 20
1.4933122E+002
 70
1
  0
VERTEX
  5
691
100
AcDbEntity
  8
2
100
AcDbVertex
100
AcDb2dVertex
 42
3.5447E-006
 10
9.2967422E+001
 20
1.4933125E+002
 70
0
  0
VERTEX
  5
692
100
AcDbEntity
  8
2
100
AcDbVertex
100
AcDb2dVertex
 42
3.5522E-006
 10
9.2967397E+001
 20
1.4933127E+002
 70
1
  0
VERTEX
  5
693
100
AcDbEntity
  8
2
100
AcDbVertex
100
AcDb2dVertex
 42
3.5606E-006
 10
9.2967371E+001
 20
1.493313E+002
 70
0
  0
VERTEX
  5
694
100
AcDbEntity
  8
2
100
AcDbVertex
100
AcDb2dVertex
 42
3.5693E-006
 10
9.2967345E+001
 20
1.4933133E+002
 70
1
  0
VERTEX
  5
695
100
AcDbEntity
  8
2
100
AcDbVertex
100
AcDb2dVertex
 42
3.5771E-006
 10
9.296732E+001
 20
1.4933135E+002
 70
0
  0
VERTEX
  5
696
100
AcDbEntity
  8
2
100
AcDbVertex
100
AcDb2dVertex
 42
3.585E-006
 10
9.2967294E+001
 20
1.4933138E+002
 70
1
  0
VERTEX
  5
697
100
AcDbEntity
  8
2
100
AcDbVertex
100
AcDb2dVertex
 42
3.591E-006
 10
9.2967269E+001
 20
1.4933141E+002
 70
0
  0
VERTEX
  5
698
100
AcDbEntity
  8
2
100
AcDbVertex
100
AcDb2dVertex
 42
3.6022E-006
 10
9.2967243E+001
 20
1.4933144E+002
 70
1
  0
VERTEX
  5
699
100
AcDbEntity
  8
2
100
AcDbVertex
100
AcDb2dVertex
 42
3.617E-006
 10
9.2967218E+001
 20
1.4933146E+002
 70
0
  0
VERTEX
  5
69a
100
AcDbEntity
  8
2
100
AcDbVertex
100
AcDb2dVertex
 42
3.6161E-006
 10
9.2967192E+001
 20
1.4933149E+002
 70
1
  0
VERTEX
  5
69b
100
AcDbEntity
  8
2
100
AcDbVertex
100
AcDb2dVertex
 42
3.6024E-006
 10
9.2967167E+001
 20
1.4933152E+002
 70
0
  0
VERTEX
  5
69c
100
AcDbEntity
  8
2
100
AcDbVertex
100
AcDb2dVertex
 42
3.6426E-006
 10
9.2967142E+001
 20
1.4933154E+002
 70
1
  0
VERTEX
  5
69d
100
AcDbEntity
  8
2
100
AcDbVertex
100
AcDb2dVertex
 42
3.724E-006
 10
9.2967116E+001
 20
1.4933157E+002
 70
0
  0
VERTEX
  5
69e
100
AcDbEntity
  8
2
100
AcDbVertex
100
AcDb2dVertex
 42
3.627E-006
 10
9.2967091E+001
 20
1.493316E+002
 70
1
  0
VERTEX
  5
69f
100
AcDbEntity
  8
2
100
AcDbVertex
100
AcDb2dVertex
 42
3.394E-006
 10
9.2967066E+001
 20
1.4933162E+002
 70
0
  0
VERTEX
  5
6a0
100
AcDbEntity
  8
2
100
AcDbVertex
100
AcDb2dVertex
 42
3.754E-006
 10
9.2967041E+001
 20
1.4933165E+002
 70
1
  0
VERTEX
  5
6a1
100
AcDbEntity
  8
2
100
AcDbVertex
100
AcDb2dVertex
 42
4.4868E-006
 10
9.2967015E+001
 20
1.4933168E+002
 70
0
  0
VERTEX
  5
6a2
100
AcDbEntity
  8
2
100
AcDbVertex
100
AcDb2dVertex
 42
3.415E-006
 10
9.2966989E+001
 20
1.4933171E+002
 70
1
  0
VERTEX
  5
6a3
100
AcDbEntity
  8
2
100
AcDbVertex
100
AcDb2dVertex
 42
1.174E-006
 10
9.2966965E+001
 20
1.4933173E+002
 70
0
  0
VERTEX
  5
6a4
100
AcDbEntity
  8
2
100
AcDbVertex
100
AcDb2dVertex
 42
4.8293E-006
 10
9.2966943E+001
 20
1.4933175E+002
 70
1
  0
VERTEX
  5
6a5
100
AcDbEntity
  8
2
100
AcDbVertex
100
AcDb2dVertex
 42
8.347E-006
 10
9.2966914E+001
 20
1.4933178E+002
 70
0
  0
VERTEX
  5
6a6
100
AcDbEntity
  8
2
100
AcDbVertex
100
AcDb2dVertex
 42
4.0976E-006
 10
9.2966871E+001
 20
1.4933183E+002
 70
1
  0
VERTEX
  5
6a7
100
AcDbEntity
  8
2
100
AcDbVertex
100
AcDb2dVertex
 42
2.1756E-006
 10
9.2966814E+001
 20
1.4933189E+002
 70
0
  0
SEQEND
  5
6a8
100
AcDbEntity
  0
ELLIPSE
  5
6a9
100
AcDbEntity
  8
2
100
AcDbEllipse
  6
CONTINUOUS
 10
9.3584614E+001
 20
1.9320615E+002
 11
2.6753782
 21
-2.8376666
 40
7.0710678E-001
 41
0.0
 42
6.2831853
 62
6
  0
POLYLINE
  5
6aa
100
AcDbEntity
  8
2
100
AcDb2dPolyline
  6
CONTINUOUS
 62
6
 66
1
 40
0.0
 41
0.0
 70
2
  0
VERTEX
  5
6ab
100
AcDbEntity
  8
2
100
AcDbVertex
100
AcDb2dVertex
 42
0.0
 10
9.2004453E+001
 20
1.9457294E+002
 70
0
  0
VERTEX
  5
6ac
100
AcDbEntity
  8
2
100
AcDbVertex
100
AcDb2dVertex
 42
8.1587594E-003
 10
9.2054876E+001
 20
1.9443637E+002
 70
1
  0
VERTEX
  5
6ad
100
AcDbEntity
  8
2
100
AcDbVertex
100
AcDb2dVertex
 42
7.9987377E-003
 10
9.2110172E+001
 20
1.9430011E+002
 70
0
  0
VERTEX
  5
6ae
100
AcDbEntity
  8
2
100
AcDbVertex
100
AcDb2dVertex
 42
7.8217637E-003
 10
9.2170566E+001
 20
1.9416413E+002
 70
1
  0
VERTEX
  5
6af
100
AcDbEntity
  8
2
100
AcDbVertex
100
AcDb2dVertex
 42
7.7199814E-003
 10
9.2235713E+001
 20
1.9402877E+002
 70
0
  0
VERTEX
  5
6b0
100
AcDbEntity
  8
2
100
AcDbVertex
100
AcDb2dVertex
 42
7.6108063E-003
 10
9.2305627E+001
 20
1.9389448E+002
 70
1
  0
VERTEX
  5
6b1
100
AcDbEntity
  8
2
100
AcDbVertex
100
AcDb2dVertex
 42
7.4893959E-003
 10
9.2379946E+001
 20
1.9376153E+002
 70
0
  0
VERTEX
  5
6b2
100
AcDbEntity
  8
2
100
AcDbVertex
100
AcDb2dVertex
 42
7.3793398E-003
 10
9.2458663E+001
 20
1.9363029E+002
 70
1
  0
VERTEX
  5
6b3
100
AcDbEntity
  8
2
100
AcDbVertex
100
AcDb2dVertex
 42
7.2801481E-003
 10
9.2541386E+001
 20
1.9350098E+002
 70
0
  0
VERTEX
  5
6b4
100
AcDbEntity
  8
2
100
AcDbVertex
100
AcDb2dVertex
 42
7.1933484E-003
 10
9.2628044E+001
 20
1.9337399E+002
 70
1
  0
VERTEX
  5
6b5
100
AcDbEntity
  8
2
100
AcDbVertex
100
AcDb2dVertex
 42
7.101751E-003
 10
9.2718234E+001
 20
1.9324949E+002
 70
0
  0
VERTEX
  5
6b6
100
AcDbEntity
  8
2
100
AcDbVertex
100
AcDb2dVertex
 42
7.0283632E-003
 10
9.2811838E+001
 20
1.9312787E+002
 70
1
  0
VERTEX
  5
6b7
100
AcDbEntity
  8
2
100
AcDbVertex
100
AcDb2dVertex
 42
6.9451357E-003
 10
9.2908448E+001
 20
1.9300924E+002
 70
0
  0
VERTEX
  5
6b8
100
AcDbEntity
  8
2
100
AcDbVertex
100
AcDb2dVertex
 42
6.8922504E-003
 10
9.3007902E+001
 20
1.9289397E+002
 70
1
  0
VERTEX
  5
6b9
100
AcDbEntity
  8
2
100
AcDbVertex
100
AcDb2dVertex
 42
6.8296946E-003
 10
9.3109812E+001
 20
1.927821E+002
 70
0
  0
VERTEX
  5
6ba
100
AcDbEntity
  8
2
100
AcDbVertex
100
AcDb2dVertex
 42
6.7754944E-003
 10
9.3213988E+001
 20
1.9267397E+002
 70
1
  0
VERTEX
  5
6bb
100
AcDbEntity
  8
2
100
AcDbVertex
100
AcDb2dVertex
 42
6.682462E-003
 10
9.3320014E+001
 20
1.925696E+002
 70
0
  0
VERTEX
  5
6bc
100
AcDbEntity
  8
2
100
AcDbVertex
100
AcDb2dVertex
 42
6.696808E-003
 10
9.3427659E+001
 20
1.924693E+002
 70
1
  0
VERTEX
  5
6bd
100
AcDbEntity
  8
2
100
AcDbVertex
100
AcDb2dVertex
 42
6.7478296E-003
 10
9.3536724E+001
 20
1.9237294E+002
 70
0
  0
VERTEX
  5
6be
100
AcDbEntity
  8
2
100
AcDbVertex
100
AcDb2dVertex
 42
6.582773E-003
 10
9.3647026E+001
 20
1.9228076E+002
 70
1
  0
VERTEX
  5
6bf
100
AcDbEntity
  8
2
100
AcDbVertex
100
AcDb2dVertex
 42
6.18466E-003
 10
9.3757662E+001
 20
1.9219292E+002
 70
0
  0
VERTEX
  5
6c0
100
AcDbEntity
  8
2
100
AcDbVertex
100
AcDb2dVertex
 42
6.6840326E-003
 10
9.3868183E+001
 20
1.9210975E+002
 70
1
  0
VERTEX
  5
6c1
100
AcDbEntity
  8
2
100
AcDbVertex
100
AcDb2dVertex
 42
7.7340939E-003
 10
9.3980657E+001
 20
1.9203003E+002
 70
0
  0
VERTEX
  5
6c2
100
AcDbEntity
  8
2
100
AcDbVertex
100
AcDb2dVertex
 42
6.13191E-003
 10
9.4095645E+001
 20
1.919536E+002
 70
1
  0
VERTEX
  5
6c3
100
AcDbEntity
  8
2
100
AcDbVertex
100
AcDb2dVertex
 42
2.6384029E-003
 10
9.42037E+001
 20
1.918844E+002
 70
0
  0
VERTEX
  5
6c4
100
AcDbEntity
  8
2
100
AcDbVertex
100
AcDb2dVertex
 42
8.1540277E-003
 10
9.430141E+001
 20
1.9182403E+002
 70
1
  0
VERTEX
  5
6c5
100
AcDbEntity
  8
2
100
AcDbVertex
100
AcDb2dVertex
 42
1.3961649E-002
 10
9.4424977E+001
 20
1.9175588E+002
 70
0
  0
VERTEX
  5
6c6
100
AcDbEntity
  8
2
100
AcDbVertex
100
AcDb2dVertex
 42
7.2972874E-003
 10
9.4612377E+001
 20
1.916629E+002
 70
1
  0
VERTEX
  5
6c7
100
AcDbEntity
  8
2
100
AcDbVertex
100
AcDb2dVertex
 42
4.0732399E-003
 10
9.4856078E+001
 20
1.9154833E+002
 70
0
  0
SEQEND
  5
6c8
100
AcDbEntity
  0
ELLIPSE
  5
6c9
100
AcDbEntity
  8
2
100
AcDbEllipse
  6
CONTINUOUS
 10
9.3584614E+001
 20
1.4991355E+002
 11
2.6753782
 21
-2.8376666
 40
7.0710678E-001
 41
0.0
 42
6.2831853
 62
6
  0
POLYLINE
  5
6ca
100
AcDbEntity
  8
2
100
AcDb2dPolyline
  6
CONTINUOUS
 62
6
 66
1
 40
0.0
 41
0.0
 70
2
  0
VERTEX
  5
6cb
100
AcDbEntity
  8
2
100
AcDbVertex
100
AcDb2dVertex
 42
0.0
 10
9.2004453E+001
 20
1.5128033E+002
 70
0
  0
VERTEX
  5
6cc
100
AcDbEntity
  8
2
100
AcDbVertex
100
AcDb2dVertex
 42
8.1587594E-003
 10
9.2054876E+001
 20
1.5114376E+002
 70
1
  0
VERTEX
  5
6cd
100
AcDbEntity
  8
2
100
AcDbVertex
100
AcDb2dVertex
 42
7.9987377E-003
 10
9.2110172E+001
 20
1.510075E+002
 70
0
  0
VERTEX
  5
6ce
100
AcDbEntity
  8
2
100
AcDbVertex
100
AcDb2dVertex
 42
7.8217637E-003
 10
9.2170566E+001
 20
1.5087152E+002
 70
1
  0
VERTEX
  5
6cf
100
AcDbEntity
  8
2
100
AcDbVertex
100
AcDb2dVertex
 42
7.7199814E-003
 10
9.2235713E+001
 20
1.5073616E+002
 70
0
  0
VERTEX
  5
6d0
100
AcDbEntity
  8
2
100
AcDbVertex
100
AcDb2dVertex
 42
7.6108063E-003
 10
9.2305627E+001
 20
1.5060187E+002
 70
1
  0
VERTEX
  5
6d1
100
AcDbEntity
  8
2
100
AcDbVertex
100
AcDb2dVertex
 42
7.4893959E-003
 10
9.2379946E+001
 20
1.5046893E+002
 70
0
  0
VERTEX
  5
6d2
100
AcDbEntity
  8
2
100
AcDbVertex
100
AcDb2dVertex
 42
7.3793398E-003
 10
9.2458663E+001
 20
1.5033768E+002
 70
1
  0
VERTEX
  5
6d3
100
AcDbEntity
  8
2
100
AcDbVertex
100
AcDb2dVertex
 42
7.2801481E-003
 10
9.2541386E+001
 20
1.5020837E+002
 70
0
  0
VERTEX
  5
6d4
100
AcDbEntity
  8
2
100
AcDbVertex
100
AcDb2dVertex
 42
7.1933484E-003
 10
9.2628044E+001
 20
1.5008138E+002
 70
1
  0
VERTEX
  5
6d5
100
AcDbEntity
  8
2
100
AcDbVertex
100
AcDb2dVertex
 42
7.101751E-003
 10
9.2718234E+001
 20
1.4995688E+002
 70
0
  0
VERTEX
  5
6d6
100
AcDbEntity
  8
2
100
AcDbVertex
100
AcDb2dVertex
 42
7.0283632E-003
 10
9.2811838E+001
 20
1.4983526E+002
 70
1
  0
VERTEX
  5
6d7
100
AcDbEntity
  8
2
100
AcDbVertex
100
AcDb2dVertex
 42
6.9451357E-003
 10
9.2908448E+001
 20
1.4971663E+002
 70
0
  0
VERTEX
  5
6d8
100
AcDbEntity
  8
2
100
AcDbVertex
100
AcDb2dVertex
 42
6.8922504E-003
 10
9.3007902E+001
 20
1.4960136E+002
 70
1
  0
VERTEX
  5
6d9
100
AcDbEntity
  8
2
100
AcDbVertex
100
AcDb2dVertex
 42
6.8296946E-003
 10
9.3109812E+001
 20
1.4948949E+002
 70
0
  0
VERTEX
  5
6da
100
AcDbEntity
  8
2
100
AcDbVertex
100
AcDb2dVertex
 42
6.7754944E-003
 10
9.3213988E+001
 20
1.4938136E+002
 70
1
  0
VERTEX
  5
6db
100
AcDbEntity
  8
2
100
AcDbVertex
100
AcDb2dVertex
 42
6.682462E-003
 10
9.3320014E+001
 20
1.49277E+002
 70
0
  0
VERTEX
  5
6dc
100
AcDbEntity
  8
2
100
AcDbVertex
100
AcDb2dVertex
 42
6.696808E-003
 10
9.3427659E+001
 20
1.4917669E+002
 70
1
  0
VERTEX
  5
6dd
100
AcDbEntity
  8
2
100
AcDbVertex
100
AcDb2dVertex
 42
6.7478296E-003
 10
9.3536724E+001
 20
1.4908033E+002
 70
0
  0
VERTEX
  5
6de
100
AcDbEntity
  8
2
100
AcDbVertex
100
AcDb2dVertex
 42
6.582773E-003
 10
9.3647026E+001
 20
1.4898815E+002
 70
1
  0
VERTEX
  5
6df
100
AcDbEntity
  8
2
100
AcDbVertex
100
AcDb2dVertex
 42
6.18466E-003
 10
9.3757662E+001
 20
1.4890032E+002
 70
0
  0
VERTEX
  5
6e0
100
AcDbEntity
  8
2
100
AcDbVertex
100
AcDb2dVertex
 42
6.6840326E-003
 10
9.3868183E+001
 20
1.4881714E+002
 70
1
  0
VERTEX
  5
6e1
100
AcDbEntity
  8
2
100
AcDbVertex
100
AcDb2dVertex
 42
7.7340939E-003
 10
9.3980657E+001
 20
1.4873742E+002
 70
0
  0
VERTEX
  5
6e2
100
AcDbEntity
  8
2
100
AcDbVertex
100
AcDb2dVertex
 42
6.13191E-003
 10
9.4095645E+001
 20
1.4866099E+002
 70
1
  0
VERTEX
  5
6e3
100
AcDbEntity
  8
2
100
AcDbVertex
100
AcDb2dVertex
 42
2.6384029E-003
 10
9.42037E+001
 20
1.4859179E+002
 70
0
  0
VERTEX
  5
6e4
100
AcDbEntity
  8
2
100
AcDbVertex
100
AcDb2dVertex
 42
8.1540277E-003
 10
9.430141E+001
 20
1.4853142E+002
 70
1
  0
VERTEX
  5
6e5
100
AcDbEntity
  8
2
100
AcDbVertex
100
AcDb2dVertex
 42
1.3961649E-002
 10
9.4424977E+001
 20
1.4846327E+002
 70
0
  0
VERTEX
  5
6e6
100
AcDbEntity
  8
2
100
AcDbVertex
100
AcDb2dVertex
 42
7.2972874E-003
 10
9.4612377E+001
 20
1.4837029E+002
 70
1
  0
VERTEX
  5
6e7
100
AcDbEntity
  8
2
100
AcDbVertex
100
AcDb2dVertex
 42
4.0732399E-003
 10
9.4856078E+001
 20
1.4825572E+002
 70
0
  0
SEQEND
  5
6e8
100
AcDbEntity
  0
INSERT
  5
6e9
100
AcDbEntity
100
AcDbBlockReference
  2
*D127
  8
2
 62
3
 10
0.0
 20
0.0
  0
INSERT
  5
6ea
100
AcDbEntity
100
AcDbBlockReference
  2
*D128
  8
2
 62
3
 10
0.0
 20
0.0
  0
INSERT
  5
6eb
100
AcDbEntity
100
AcDbBlockReference
  2
*D129
  8
2
 62
3
 10
0.0
 20
0.0
  0
INSERT
  5
6ec
100
AcDbEntity
100
AcDbBlockReference
  2
*D130
  8
2
 62
3
 10
0.0
 20
0.0
  0
INSERT
  5
6ed
100
AcDbEntity
100
AcDbBlockReference
  2
*D131
  8
2
 62
3
 10
0.0
 20
0.0
  0
INSERT
  5
6ee
100
AcDbEntity
100
AcDbBlockReference
  2
*D132
  8
2
 62
3
 10
0.0
 20
0.0
  0
INSERT
  5
6ef
100
AcDbEntity
100
AcDbBlockReference
  2
*D133
  8
2
 62
3
 10
0.0
 20
0.0
  0
INSERT
  5
6f0
100
AcDbEntity
100
AcDbBlockReference
  2
*D134
  8
2
 62
3
 10
0.0
 20
0.0
  0
INSERT
  5
6f1
100
AcDbEntity
100
AcDbBlockReference
  2
*D135
  8
2
 62
3
 10
0.0
 20
0.0
  0
INSERT
  5
6f2
100
AcDbEntity
100
AcDbBlockReference
  2
*D136
  8
2
 62
3
 10
0.0
 20
0.0
  0
INSERT
  5
6f3
100
AcDbEntity
100
AcDbBlockReference
  2
*D137
  8
2
 62
3
 10
0.0
 20
0.0
  0
INSERT
  5
6f4
100
AcDbEntity
100
AcDbBlockReference
  2
*D138
  8
2
 62
3
 10
0.0
 20
0.0
  0
INSERT
  5
6f5
100
AcDbEntity
100
AcDbBlockReference
  2
*D139
  8
2
 62
3
 10
0.0
 20
0.0
  0
INSERT
  5
6f6
100
AcDbEntity
100
AcDbBlockReference
  2
*D140
  8
2
 62
3
 10
0.0
 20
0.0
  0
TEXT
  5
6f7
100
AcDbEntity
  8
2
100
AcDbText
  6
CONTINUOUS
 62
3
 10
1.155464E+002
 20
2.4933941E+002
 40
3.5
  1
3
 41
7.5E-001
 50
4.0E+001
 51
4.0E+001
100
AcDbText
  0
TEXT
  5
6f8
100
AcDbEntity
  8
2
100
AcDbText
  6
CONTINUOUS
 62
3
 10
9.5790925E+001
 20
2.6185687E+002
 40
3.5
  1
34
 41
7.5E-001
 50
-2.0E+001
 51
-2.0E+001
100
AcDbText
  0
TEXT
  5
6f9
100
AcDbEntity
  8
2
100
AcDbText
  6
CONTINUOUS
 62
3
 10
7.3342287E+001
 20
2.4500104E+002
 40
3.5
  1
7
 41
7.5E-001
 50
9.0E+001
 51
2.0E+001
100
AcDbText
  0
TEXT
  5
6fa
100
AcDbEntity
  8
2
100
AcDbText
  6
CONTINUOUS
 62
3
 10
9.8422008E+001
 20
2.0440429E+002
 40
3.5
  1
21.7
 41
7.5E-001
 50
-2.0E+001
 51
-2.0E+001
100
AcDbText
  0
TEXT
  5
6fb
100
AcDbEntity
  8
2
100
AcDbText
  6
CONTINUOUS
 62
3
 10
1.006095E+002
 20
1.6000315E+002
 40
3.5
  1
X
 41
7.5E-001
 50
-2.0E+001
 51
-2.0E+001
100
AcDbText
  0
TEXT
  5
6fc
100
AcDbEntity
  8
2
100
AcDbText
  6
CONTINUOUS
 62
3
 10
1.1657513E+002
 20
6.7190919E+001
 40
3.5
  1
13
 41
7.5E-001
 50
-2.0E+001
 51
-2.0E+001
100
AcDbText
  0
TEXT
  5
6fd
100
AcDbEntity
  8
2
100
AcDbText
  6
CONTINUOUS
 62
3
 10
1.1626781E+002
 20
4.373248E+001
 40
3.5
  1
14
 41
7.5E-001
 50
-2.0E+001
 51
-2.0E+001
100
AcDbText
  0
TEXT
  5
6fe
100
AcDbEntity
  8
2
100
AcDbText
  6
CONTINUOUS
 62
3
 10
1.0264455E+002
 20
2.4614997E+001
 40
3.5
  1
17
 41
7.5E-001
 50
-2.0E+001
 51
-2.0E+001
100
AcDbText
  0
TEXT
  5
6ff
100
AcDbEntity
  8
2
100
AcDbText
  6
CONTINUOUS
 62
3
 10
1.2187434E+002
 20
1.1687854E+002
 40
3.5
  1
99
 41
7.5E-001
 50
9.0E+001
 51
2.0E+001
100
AcDbText
  0
TEXT
  5
700
100
AcDbEntity
  8
2
100
AcDbText
  6
CONTINUOUS
 62
3
 10
1.2199052E+002
 20
1.941392E+002
 40
3.5
  1
86
 41
7.5E-001
 50
9.0E+001
 51
2.0E+001
100
AcDbText
  0
TEXT
  5
701
100
AcDbEntity
  8
2
100
AcDbText
  6
CONTINUOUS
 62
3
 10
7.3373581E+001
 20
1.3993467E+002
 40
3.5
  1
40
 41
7.5E-001
 50
9.0E+001
 51
2.0E+001
100
AcDbText
  0
TEXT
  5
702
100
AcDbEntity
  8
2
100
AcDbText
  6
CONTINUOUS
 62
3
 10
7.3373581E+001
 20
9.2448476E+001
 40
3.5
  1
74
 41
7.5E-001
 50
9.0E+001
 51
2.0E+001
100
AcDbText
  0
TEXT
  5
703
100
AcDbEntity
  8
2
100
AcDbText
  6
CONTINUOUS
 62
3
 10
6.4222435E+001
 20
1.4003958E+002
 40
3.5
  1
236
 41
7.5E-001
 50
9.0E+001
 51
2.0E+001
100
AcDbText
  0
TEXT
  5
704
100
AcDbEntity
  8
2
100
AcDbText
  6
CONTINUOUS
 62
3
 10
5.5178112E+001
 20
1.4387482E+002
 40
3.5
  1
250
 41
7.5E-001
 50
9.0E+001
 51
2.0E+001
100
AcDbText
  0
VIEWPORT
  5
705
100
AcDbEntity
 67
1
  8
0
  6
CONTINUOUS
 62
3
100
AcDbViewport
 10
1.05E+002
 20
1.485E+002
 30
0.0
 40
2.97E+002
 41
2.97E+002
 68
1
 69
1
1001
ACAD
1000
MVIEW
1002
{
1070
16
1010
0.0
1020
0.0
1030
0.0
1010
0.0
1020
0.0
1030
1.0
1040
0.0
1040
2.97E+002
1040
5.775E+001
1040
1.485E+002
1040
5.0E+001
1040
0.0
1040
0.0
1070
0
1070
1000
1070
1
1070
0
1070
0
1070
0
1070
0
1070
0
1040
0.0
1040
0.0
1040
0.0
1040
5.0E-001
1040
5.0E-001
1040
5.0E-001
1040
5.0E-001
1070
0
1002
{
1002
}
1002
}
  0
VIEWPORT
  5
706
100
AcDbEntity
 67
1
  8
0
  6
CONTINUOUS
 62
3
100
AcDbViewport
 10
1.05E+002
 20
1.485E+002
 30
0.0
 40
2.1E+002
 41
2.97E+002
 68
2
 69
2
1001
ACAD
1000
MVIEW
1002
{
1070
16
1010
0.0
1020
0.0
1030
0.0
1010
0.0
1020
0.0
1030
1.0
1040
0.0
1040
2.97E+002
1040
1.05E+002
1040
1.485E+002
1040
5.0E+001
1040
0.0
1040
0.0
1070
0
1070
1000
1070
1
1070
0
1070
0
1070
0
1070
0
1070
0
1040
0.0
1040
0.0
1040
0.0
1040
5.0E-001
1040
5.0E-001
1040
5.0E-001
1040
5.0E-001
1070
0
1002
{
1003
2
1002
}
1002
}
  0
VIEWPORT
  5
707
100
AcDbEntity
 67
1
  8
0
  6
CONTINUOUS
 62
3
100
AcDbViewport
 10
1.0652543E+002
 20
1.4643271E+002
 30
0.0
 40
1.6980471E+002
 41
2.7951E+002
 68
3
 69
3
1001
ACAD
1000
MVIEW
1002
{
1070
16
1010
0.0
1020
0.0
1030
0.0
1010
0.0
1020
0.0
1030
1.0
1040
0.0
1040
2.7951E+002
1040
1.0652543E+002
1040
1.4643271E+002
1040
5.0E+001
1040
0.0
1040
0.0
1070
0
1070
1000
1070
1
1070
0
1070
0
1070
0
1070
0
1070
0
1040
0.0
1040
0.0
1040
0.0
1040
5.0E-001
1040
5.0E-001
1040
5.0E-001
1040
5.0E-001
1070
0
1002
{
1003
1
1002
}
1002
}
  0
ENDSEC
  0
SECTION
  2
OBJECTS
  0
DICTIONARY
  5
708
100
AcDbDictionary
  3
ACAD_GROUP
350
709
  3
ACAD_MLINESTYLE
350
70a
  0
DICTIONARY
  5
709
102
{ACAD_REACTORS
330
708
102
}
100
AcDbDictionary
  0
DICTIONARY
  5
70a
102
{ACAD_REACTORS
330
708
102
}
100
AcDbDictionary
  3
STANDARD
350
70b
  0
MLINESTYLE
  5
70b
102
{ACAD_REACTORS
330
70a
102
}
100
AcDbMlineStyle
  2
STANDARD
 70
0
  3

 62
256
 51
9.0E+001
 52
9.0E+001
 71
2
 49
5.0E-001
 62
256
  6
BYLAYER
 49
-5.0E-001
 62
256
  6
BYLAYER
  0
ENDSEC
  0
EOF
