  0
SECTION
  2
HEADER
  9
$ACADVER
  1
AC1032
  9
$ACADMAINTVER
 90
       55
  9
$DWGCODEPAGE
  3
ANSI_1252
  9
$LASTSAVEDBY
  1
chrwyd
  9
$REQUIREDVERSIONS
160
                 0
  9
$INSBASE
 10
0.0
 20
0.0
 30
0.0
  9
$EXTMIN
 10
53.11258930229999
 20
49.05209438669999
 30
0.0
  9
$EXTMAX
 10
242.8980970029
 20
360.9453748209
 30
0.0
  9
$LIMMIN
 10
0.0
 20
0.0
  9
$LIMMAX
 10
297.0
 20
420.0
  9
$ORTHOMODE
 70
     0
  9
$REGENMODE
 70
     1
  9
$FILLMODE
 70
     1
  9
$QTEXTMODE
 70
     0
  9
$MIRRTEXT
 70
     1
  9
$LTSCALE
 40
1.0
  9
$ATTMODE
 70
     1
  9
$TEXTSIZE
 40
2.5
  9
$TRACEWID
 40
1.0
  9
$TEXTSTYLE
  7
STANDARD
  9
$CLAYER
  8
0
  9
$CELTYPE
  6
ByLayer
  9
$CECOLOR
 62
   256
  9
$CELTSCALE
 40
1.0
  9
$DISPSILH
 70
     0
  9
$DIMSCALE
 40
1.0
  9
$DIMASZ
 40
2.5
  9
$DIMEXO
 40
0.0
  9
$DIMDLI
 40
3.75
  9
$DIMRND
 40
0.0
  9
$DIMDLE
 40
0.0
  9
$DIMEXE
 40
1.0
  9
$DIMTP
 40
0.0
  9
$DIMTM
 40
0.0
  9
$DIMTXT
 40
2.5
  9
$DIMCEN
 40
2.5
  9
$DIMTSZ
 40
0.0
  9
$DIMTOL
 70
     0
  9
$DIMLIM
 70
     0
  9
$DIMTIH
 70
     1
  9
$DIMTOH
 70
     1
  9
$DIMSE1
 70
     0
  9
$DIMSE2
 70
     0
  9
$DIMTAD
 70
     1
  9
$DIMZIN
 70
     0
  9
$DIMBLK
  1

  9
$DIMASO
 70
     1
  9
$DIMSHO
 70
     1
  9
$DIMPOST
  1

  9
$DIMAPOST
  1

  9
$DIMALT
 70
     0
  9
$DIMALTD
 70
     3
  9
$DIMALTF
 40
0.0393700787
  9
$DIMLFAC
 40
1.0
  9
$DIMTOFL
 70
     1
  9
$DIMTVP
 40
0.0
  9
$DIMTIX
 70
     0
  9
$DIMSOXD
 70
     0
  9
$DIMSAH
 70
     0
  9
$DIMBLK1
  1

  9
$DIMBLK2
  1

  9
$DIMSTYLE
  2
ISO-25
  9
$DIMCLRD
 70
     0
  9
$DIMCLRE
 70
     0
  9
$DIMCLRT
 70
     0
  9
$DIMTFAC
 40
1.0
  9
$DIMGAP
 40
2.0
  9
$DIMJUST
 70
     0
  9
$DIMSD1
 70
     0
  9
$DIMSD2
 70
     0
  9
$DIMTOLJ
 70
     1
  9
$DIMTZIN
 70
     0
  9
$DIMALTZ
 70
     0
  9
$DIMALTTZ
 70
     0
  9
$DIMUPT
 70
     0
  9
$DIMDEC
 70
     2
  9
$DIMTDEC
 70
     2
  9
$DIMALTU
 70
     2
  9
$DIMALTTD
 70
     2
  9
$DIMTXSTY
  7
STANDARD
  9
$DIMAUNIT
 70
     0
  9
$DIMADEC
 70
     0
  9
$DIMALTRND
 40
0.0
  9
$DIMAZIN
 70
     0
  9
$DIMDSEP
 70
    46
  9
$DIMATFIT
 70
     3
  9
$DIMFRAC
 70
     0
  9
$DIMLDRBLK
  1

  9
$DIMLUNIT
 70
     2
  9
$DIMLWD
 70
    -2
  9
$DIMLWE
 70
    -2
  9
$DIMTMOVE
 70
     2
  9
$DIMFXL
 40
1.0
  9
$DIMFXLON
 70
     0
  9
$DIMJOGANG
 40
0.7853981633974483
  9
$DIMTFILL
 70
     0
  9
$DIMTFILLCLR
 70
     0
  9
$DIMARCSYM
 70
     0
  9
$DIMLTYPE
  6

  9
$DIMLTEX1
  6

  9
$DIMLTEX2
  6

  9
$DIMTXTDIRECTION
 70
     0
  9
$LUNITS
 70
     2
  9
$LUPREC
 70
     2
  9
$SKETCHINC
 40
1.0
  9
$FILLETRAD
 40
0.0
  9
$AUNITS
 70
     0
  9
$AUPREC
 70
     1
  9
$MENU
  1
.
  9
$ELEVATION
 40
0.0
  9
$PELEVATION
 40
0.0
  9
$THICKNESS
 40
0.0
  9
$LIMCHECK
 70
     0
  9
$CHAMFERA
 40
0.0
  9
$CHAMFERB
 40
0.0
  9
$CHAMFERC
 40
0.0
  9
$CHAMFERD
 40
0.0
  9
$SKPOLY
 70
     0
  9
$TDCREATE
 40
2460255.712137859
  9
$TDUCREATE
 40
2460255.670471192
  9
$TDUPDATE
 40
2460255.714127708
  9
$TDUUPDATE
 40
2460255.672461042
  9
$TDINDWG
 40
0.0005614931
  9
$TDUSRTIMER
 40
0.0005614815
  9
$USRTIMER
 70
     1
  9
$ANGBASE
 50
0.0
  9
$ANGDIR
 70
     0
  9
$PDMODE
 70
     0
  9
$PDSIZE
 40
-1.0
  9
$PLINEWID
 40
0.0
  9
$SPLFRAME
 70
     0
  9
$SPLINETYPE
 70
     6
  9
$SPLINESEGS
 70
     8
  9
$HANDSEED
  5
53B
  9
$SURFTAB1
 70
     6
  9
$SURFTAB2
 70
     6
  9
$SURFTYPE
 70
     6
  9
$SURFU
 70
     6
  9
$SURFV
 70
     6
  9
$UCSBASE
  2

  9
$UCSNAME
  2

  9
$UCSORG
 10
0.0
 20
0.0
 30
0.0
  9
$UCSXDIR
 10
1.0
 20
0.0
 30
0.0
  9
$UCSYDIR
 10
0.0
 20
1.0
 30
0.0
  9
$UCSORTHOREF
  2

  9
$UCSORTHOVIEW
 70
     0
  9
$UCSORGTOP
 10
0.0
 20
0.0
 30
0.0
  9
$UCSORGBOTTOM
 10
0.0
 20
0.0
 30
0.0
  9
$UCSORGLEFT
 10
0.0
 20
0.0
 30
0.0
  9
$UCSORGRIGHT
 10
0.0
 20
0.0
 30
0.0
  9
$UCSORGFRONT
 10
0.0
 20
0.0
 30
0.0
  9
$UCSORGBACK
 10
0.0
 20
0.0
 30
0.0
  9
$PUCSBASE
  2

  9
$PUCSNAME
  2

  9
$PUCSORG
 10
0.0
 20
0.0
 30
0.0
  9
$PUCSXDIR
 10
1.0
 20
0.0
 30
0.0
  9
$PUCSYDIR
 10
0.0
 20
1.0
 30
0.0
  9
$PUCSORTHOREF
  2

  9
$PUCSORTHOVIEW
 70
     0
  9
$PUCSORGTOP
 10
0.0
 20
0.0
 30
0.0
  9
$PUCSORGBOTTOM
 10
0.0
 20
0.0
 30
0.0
  9
$PUCSORGLEFT
 10
0.0
 20
0.0
 30
0.0
  9
$PUCSORGRIGHT
 10
0.0
 20
0.0
 30
0.0
  9
$PUCSORGFRONT
 10
0.0
 20
0.0
 30
0.0
  9
$PUCSORGBACK
 10
0.0
 20
0.0
 30
0.0
  9
$USERI1
 70
     0
  9
$USERI2
 70
     0
  9
$USERI3
 70
     0
  9
$USERI4
 70
     0
  9
$USERI5
 70
     0
  9
$USERR1
 40
0.0
  9
$USERR2
 40
0.0
  9
$USERR3
 40
0.0
  9
$USERR4
 40
0.0
  9
$USERR5
 40
0.0
  9
$WORLDVIEW
 70
     1
  9
$SHADEDGE
 70
     3
  9
$SHADEDIF
 70
    70
  9
$TILEMODE
 70
     1
  9
$MAXACTVP
 70
    64
  9
$PINSBASE
 10
0.0
 20
0.0
 30
0.0
  9
$PLIMCHECK
 70
     0
  9
$PEXTMIN
 10
1.000000000000000E+20
 20
1.000000000000000E+20
 30
1.000000000000000E+20
  9
$PEXTMAX
 10
-1.000000000000000E+20
 20
-1.000000000000000E+20
 30
-1.000000000000000E+20
  9
$PLIMMIN
 10
0.0
 20
0.0
  9
$PLIMMAX
 10
0.0
 20
0.0
  9
$UNITMODE
 70
     0
  9
$VISRETAIN
 70
     1
  9
$PLINEGEN
 70
     0
  9
$PSLTSCALE
 70
     1
  9
$TREEDEPTH
 70
  3020
  9
$CMLSTYLE
  2
Standard
  9
$CMLJUST
 70
     0
  9
$CMLSCALE
 40
1.0
  9
$PROXYGRAPHICS
 70
     1
  9
$MEASUREMENT
 70
     0
  9
$CELWEIGHT
370
    -1
  9
$ENDCAPS
280
     0
  9
$JOINSTYLE
280
     0
  9
$LWDISPLAY
290
     0
  9
$INSUNITS
 70
     0
  9
$HYPERLINKBASE
  1

  9
$STYLESHEET
  1

  9
$XEDIT
290
     1
  9
$CEPSNTYPE
380
     0
  9
$PSTYLEMODE
290
     0
  9
$FINGERPRINTGUID
  2
{75ecd0fe-f66a-4f3e-8a07-4ff6ba4dcad9}
  9
$VERSIONGUID
  2
{FAEB1C32-E019-11D5-929B-00C0DF256EC4}
  9
$EXTNAMES
290
     1
  9
$PSVPSCALE
 40
0.0
  9
$OLESTARTUP
290
     0
  9
$SORTENTS
280
   127
  9
$INDEXCTL
280
     0
  9
$HIDETEXT
280
     1
  9
$XCLIPFRAME
280
     2
  9
$HALOGAP
280
     0
  9
$OBSCOLOR
 70
   257
  9
$OBSLTYPE
280
     0
  9
$INTERSECTIONDISPLAY
280
     0
  9
$INTERSECTIONCOLOR
 70
   257
  9
$DIMASSOC
280
     2
  9
$PROJECTNAME
  1

  9
$CAMERADISPLAY
290
     0
  9
$LENSLENGTH
 40
50.0
  9
$CAMERAHEIGHT
 40
0.0
  9
$STEPSPERSEC
 40
2.0
  9
$STEPSIZE
 40
6.0
  9
$3DDWFPREC
 40
2.0
  9
$PSOLWIDTH
 40
0.25
  9
$PSOLHEIGHT
 40
4.0
  9
$LOFTANG1
 40
1.570796326794897
  9
$LOFTANG2
 40
1.570796326794897
  9
$LOFTMAG1
 40
0.0
  9
$LOFTMAG2
 40
0.0
  9
$LOFTPARAM
 70
     7
  9
$LOFTNORMALS
280
     1
  9
$LATITUDE
 40
37.795
  9
$LONGITUDE
 40
-122.394
  9
$NORTHDIRECTION
 40
0.0
  9
$TIMEZONE
 70
 -8000
  9
$LIGHTGLYPHDISPLAY
280
     1
  9
$TILEMODELIGHTSYNCH
280
     1
  9
$SOLIDHIST
280
     0
  9
$SHOWHIST
280
     1
  9
$DWFFRAME
280
     2
  9
$DGNFRAME
280
     2
  9
$REALWORLDSCALE
290
     1
  9
$INTERFERECOLOR
 62
   256
  9
$CSHADOW
280
     0
  9
$SHADOWPLANELOCATION
 40
0.0
  0
ENDSEC
  0
SECTION
  2
CLASSES
  0
CLASS
  1
ACDBDICTIONARYWDFLT
  2
AcDbDictionaryWithDefault
  3
ObjectDBX Classes
 90
        0
 91
        3
280
     0
281
     0
  0
CLASS
  1
MATERIAL
  2
AcDbMaterial
  3
ObjectDBX Classes
 90
     1153
 91
        3
280
     0
281
     0
  0
CLASS
  1
SCALE
  2
AcDbScale
  3
ObjectDBX Classes
 90
     1153
 91
        3
280
     0
281
     0
  0
CLASS
  1
VISUALSTYLE
  2
AcDbVisualStyle
  3
ObjectDBX Classes
 90
     4095
 91
        3
280
     0
281
     0
  0
CLASS
  1
TABLESTYLE
  2
AcDbTableStyle
  3
ObjectDBX Classes
 90
     4095
 91
        3
280
     0
281
     0
  0
CLASS
  1
MLEADERSTYLE
  2
AcDbMLeaderStyle
  3
ACDB_MLEADERSTYLE_CLASS
 90
     4095
 91
        3
280
     0
281
     0
  0
CLASS
  1
DICTIONARYVAR
  2
AcDbDictionaryVar
  3
ObjectDBX Classes
 90
        0
 91
        3
280
     0
281
     0
  0
CLASS
  1
CELLSTYLEMAP
  2
AcDbCellStyleMap
  3
ObjectDBX Classes
 90
     1152
 91
        3
280
     0
281
     0
  0
ENDSEC
  0
SECTION
  2
TABLES
  0
TABLE
  2
VPORT
  5
45A
330
0
100
AcDbSymbolTable
 70
     1
  0
VPORT
  5
471
330
45A
100
AcDbSymbolTableRecord
100
AcDbViewportTableRecord
  2
*ACTIVE
 70
     0
 10
0.0
 20
0.0
 11
1.0
 21
1.0
 12
148.0053431526
 22
204.9987346038
 13
0.0
 23
0.0
 14
10.0
 24
10.0
 15
10.0
 25
10.0
 16
0.0
 26
0.0
 36
1.0
 17
0.0
 27
0.0
 37
0.0
 40
318.131146042884
 41
1.718213058419244
 42
50.0
 43
0.0
 44
0.0
 50
0.0
 51
0.0
 71
    16
 72
  2000
 73
     1
 74
     3
 75
     0
 76
     0
 77
     0
 78
     0
281
     0
 65
     0
110
0.0
120
0.0
130
0.0
111
1.0
121
0.0
131
0.0
112
0.0
122
1.0
132
0.0
 79
     0
146
0.0
348
513
 60
     3
 61
     5
292
     1
282
     1
141
0.0
142
0.0
 63
   256
  0
ENDTAB
  0
TABLE
  2
LTYPE
  5
457
330
0
100
AcDbSymbolTable
 70
     6
  0
LTYPE
  5
465
330
457
100
AcDbSymbolTableRecord
100
AcDbLinetypeTableRecord
  2
ByBlock
 70
     0
  3

 72
    65
 73
     0
 40
0.0
  0
LTYPE
  5
466
330
457
100
AcDbSymbolTableRecord
100
AcDbLinetypeTableRecord
  2
ByLayer
 70
     0
  3

 72
    65
 73
     0
 40
0.0
  0
LTYPE
  5
467
330
457
100
AcDbSymbolTableRecord
100
AcDbLinetypeTableRecord
  2
CONTINUOUS
 70
     0
  3
Solid line
 72
    65
 73
     0
 40
0.0
  0
LTYPE
  5
473
330
457
100
AcDbSymbolTableRecord
100
AcDbLinetypeTableRecord
  2
HIDDEN
 70
     0
  3
Hidden __ __ __ __ __ __ __ __ __ __ __ __ __ __
 72
    65
 73
     2
 40
1.905
 49
1.27
 74
     0
 49
-0.635
 74
     0
  0
LTYPE
  5
474
330
457
100
AcDbSymbolTableRecord
100
AcDbLinetypeTableRecord
  2
PHANTOM
 70
     0
  3
Phantom ______  __  __  ______  __  __  ______
 72
    65
 73
     6
 40
12.7
 49
6.35
 74
     0
 49
-1.27
 74
     0
 49
1.27
 74
     0
 49
-1.27
 74
     0
 49
1.27
 74
     0
 49
-1.27
 74
     0
  0
LTYPE
  5
475
330
457
100
AcDbSymbolTableRecord
100
AcDbLinetypeTableRecord
  2
CENTER
 70
     0
  3
Center ____ _ ____ _ ____ _ ____ _ ____ _ ____
 72
    65
 73
     4
 40
10.16
 49
6.35
 74
     0
 49
-1.27
 74
     0
 49
1.27
 74
     0
 49
-1.27
 74
     0
  0
LTYPE
  5
476
330
457
100
AcDbSymbolTableRecord
100
AcDbLinetypeTableRecord
  2
CENTERX2
 70
     0
  3
Center (2x) ________  __  ________  __  _____
 72
    65
 73
     4
 40
20.32
 49
12.7
 74
     0
 49
-2.54
 74
     0
 49
2.54
 74
     0
 49
-2.54
 74
     0
  0
LTYPE
  5
477
330
457
100
AcDbSymbolTableRecord
100
AcDbLinetypeTableRecord
  2
DOT2
 70
     0
  3
Dot (.5x) ........................................
 72
    65
 73
     2
 40
0.635
 49
0.0
 74
     0
 49
-0.635
 74
     0
  0
ENDTAB
  0
TABLE
  2
LAYER
  5
455
330
0
100
AcDbSymbolTable
 70
     3
  0
LAYER
  5
462
330
455
100
AcDbSymbolTableRecord
100
AcDbLayerTableRecord
  2
0
 70
     0
 62
     7
  6
CONTINUOUS
370
    -3
390
461
347
47C
348
0
  0
LAYER
  5
47D
330
455
100
AcDbSymbolTableRecord
100
AcDbLayerTableRecord
  2
REVISIONNOTES
 70
     0
 62
     1
  6
CONTINUOUS
370
    -3
390
461
347
47C
348
0
  0
LAYER
  5
52C
330
455
100
AcDbSymbolTableRecord
100
AcDbLayerTableRecord
  2
Defpoints
 70
     0
 62
     7
  6
CONTINUOUS
290
     0
370
    -3
390
461
347
47C
348
0
  0
ENDTAB
  0
TABLE
  2
STYLE
  5
456
330
0
100
AcDbSymbolTable
 70
     1
  0
STYLE
  5
463
330
456
100
AcDbSymbolTableRecord
100
AcDbTextStyleTableRecord
  2
STANDARD
 70
     0
 40
0.0
 41
1.0
 50
0.0
 71
     0
 42
2.5
  3
txt
  4

  0
ENDTAB
  0
TABLE
  2
VIEW
  5
458
330
0
100
AcDbSymbolTable
 70
     0
  0
ENDTAB
  0
TABLE
  2
UCS
  5
459
330
0
100
AcDbSymbolTable
 70
     0
  0
ENDTAB
  0
TABLE
  2
APPID
  5
45B
330
0
100
AcDbSymbolTable
 70
     2
  0
APPID
  5
464
330
45B
100
AcDbSymbolTableRecord
100
AcDbRegAppTableRecord
  2
ACAD
 70
     0
  0
APPID
  5
52E
330
45B
100
AcDbSymbolTableRecord
100
AcDbRegAppTableRecord
  2
FX_DIMP_FAV_VERSION
 70
     0
  0
ENDTAB
  0
TABLE
  2
DIMSTYLE
  5
45C
330
0
100
AcDbSymbolTable
 70
     4
100
AcDbDimStyleTable
  0
DIMSTYLE
105
480
330
45C
100
AcDbSymbolTableRecord
100
AcDbDimStyleTableRecord
  2
ISO-25
 70
     0
 41
2.5
 42
0.625
 43
3.75
 44
1.25
 73
     0
 74
     0
 77
     1
 78
     8
140
2.5
141
2.5
143
0.0393700787
147
0.625
171
     3
172
     1
178
     0
340
463
  0
DIMSTYLE
105
481
330
45C
100
AcDbSymbolTableRecord
100
AcDbDimStyleTableRecord
  2
SLDDIMSTYLE0
 70
     0
 41
2.5
 44
0.0
 45
0.000000001
 73
     0
 74
     0
 77
     1
 78
    12
140
2.5
147
0.625
173
     1
178
     0
340
463
  0
DIMSTYLE
105
482
330
45C
100
AcDbSymbolTableRecord
100
AcDbDimStyleTableRecord
  2
SLDDIMSTYLE1
 70
     0
 41
2.5
 44
0.0
 45
0.000000001
 73
     0
 74
     0
 77
     1
 78
    12
140
2.5
141
0.0
147
0.625
172
     1
173
     1
178
     0
340
463
  0
DIMSTYLE
105
483
330
45C
100
AcDbSymbolTableRecord
100
AcDbDimStyleTableRecord
  2
SLDDIMSTYLE2
 70
     0
 41
2.5
 44
0.0
 45
0.000000001
 73
     0
 74
     0
 77
     1
 78
    12
140
2.5
147
0.625
172
     1
173
     1
178
     0
340
463
  0
ENDTAB
  0
TABLE
  2
BLOCK_RECORD
  5
454
330
0
100
AcDbSymbolTable
 70
    51
  0
BLOCK_RECORD
  5
46E
102
{ACAD_XDICTIONARY
360
52F
102
}
330
454
100
AcDbSymbolTableRecord
100
AcDbBlockTableRecord
  2
*Model_Space
340
46F
 70
     0
280
     1
281
     0
  0
BLOCK_RECORD
  5
46C
330
454
100
AcDbSymbolTableRecord
100
AcDbBlockTableRecord
  2
*Paper_Space
340
46D
 70
     0
280
     1
281
     0
  0
BLOCK_RECORD
  5
487
330
454
100
AcDbSymbolTableRecord
100
AcDbBlockTableRecord
  2
_D
340
0
 70
     0
280
     1
281
     0
  0
BLOCK_RECORD
  5
489
330
454
100
AcDbSymbolTableRecord
100
AcDbBlockTableRecord
  2
_D_1
340
0
 70
     0
280
     1
281
     0
  0
BLOCK_RECORD
  5
48B
330
454
100
AcDbSymbolTableRecord
100
AcDbBlockTableRecord
  2
_D_2
340
0
 70
     0
280
     1
281
     0
  0
BLOCK_RECORD
  5
48D
330
454
100
AcDbSymbolTableRecord
100
AcDbBlockTableRecord
  2
_D_3
340
0
 70
     0
280
     1
281
     0
  0
BLOCK_RECORD
  5
48F
330
454
100
AcDbSymbolTableRecord
100
AcDbBlockTableRecord
  2
_D_4
340
0
 70
     0
280
     1
281
     0
  0
BLOCK_RECORD
  5
491
330
454
100
AcDbSymbolTableRecord
100
AcDbBlockTableRecord
  2
_D_5
340
0
 70
     0
280
     1
281
     0
  0
BLOCK_RECORD
  5
493
330
454
100
AcDbSymbolTableRecord
100
AcDbBlockTableRecord
  2
_D_6
340
0
 70
     0
280
     1
281
     0
  0
BLOCK_RECORD
  5
495
330
454
100
AcDbSymbolTableRecord
100
AcDbBlockTableRecord
  2
_D_7
340
0
 70
     0
280
     1
281
     0
  0
BLOCK_RECORD
  5
497
330
454
100
AcDbSymbolTableRecord
100
AcDbBlockTableRecord
  2
_D_8
340
0
 70
     0
280
     1
281
     0
  0
BLOCK_RECORD
  5
499
330
454
100
AcDbSymbolTableRecord
100
AcDbBlockTableRecord
  2
_D_9
340
0
 70
     0
280
     1
281
     0
  0
BLOCK_RECORD
  5
49B
330
454
100
AcDbSymbolTableRecord
100
AcDbBlockTableRecord
  2
_D_10
340
0
 70
     0
280
     1
281
     0
  0
BLOCK_RECORD
  5
49D
330
454
100
AcDbSymbolTableRecord
100
AcDbBlockTableRecord
  2
_D_11
340
0
 70
     0
280
     1
281
     0
  0
BLOCK_RECORD
  5
49F
330
454
100
AcDbSymbolTableRecord
100
AcDbBlockTableRecord
  2
_D_12
340
0
 70
     0
280
     1
281
     0
  0
BLOCK_RECORD
  5
4A1
330
454
100
AcDbSymbolTableRecord
100
AcDbBlockTableRecord
  2
_D_13
340
0
 70
     0
280
     1
281
     0
  0
BLOCK_RECORD
  5
4A3
330
454
100
AcDbSymbolTableRecord
100
AcDbBlockTableRecord
  2
_D_14
340
0
 70
     0
280
     1
281
     0
  0
BLOCK_RECORD
  5
4A5
330
454
100
AcDbSymbolTableRecord
100
AcDbBlockTableRecord
  2
_D_15
340
0
 70
     0
280
     1
281
     0
  0
BLOCK_RECORD
  5
4A7
330
454
100
AcDbSymbolTableRecord
100
AcDbBlockTableRecord
  2
_D_16
340
0
 70
     0
280
     1
281
     0
  0
BLOCK_RECORD
  5
4A9
330
454
100
AcDbSymbolTableRecord
100
AcDbBlockTableRecord
  2
_D_17
340
0
 70
     0
280
     1
281
     0
  0
BLOCK_RECORD
  5
4AB
330
454
100
AcDbSymbolTableRecord
100
AcDbBlockTableRecord
  2
_D_18
340
0
 70
     0
280
     1
281
     0
  0
BLOCK_RECORD
  5
4AD
330
454
100
AcDbSymbolTableRecord
100
AcDbBlockTableRecord
  2
_D_19
340
0
 70
     0
280
     1
281
     0
  0
BLOCK_RECORD
  5
4AF
330
454
100
AcDbSymbolTableRecord
100
AcDbBlockTableRecord
  2
_D_20
340
0
 70
     0
280
     1
281
     0
  0
BLOCK_RECORD
  5
4B1
330
454
100
AcDbSymbolTableRecord
100
AcDbBlockTableRecord
  2
_D_21
340
0
 70
     0
280
     1
281
     0
  0
BLOCK_RECORD
  5
4B3
330
454
100
AcDbSymbolTableRecord
100
AcDbBlockTableRecord
  2
_D_22
340
0
 70
     0
280
     1
281
     0
  0
BLOCK_RECORD
  5
4B5
330
454
100
AcDbSymbolTableRecord
100
AcDbBlockTableRecord
  2
_D_23
340
0
 70
     0
280
     1
281
     0
  0
BLOCK_RECORD
  5
4B7
330
454
100
AcDbSymbolTableRecord
100
AcDbBlockTableRecord
  2
_D_24
340
0
 70
     0
280
     1
281
     0
  0
BLOCK_RECORD
  5
4B9
330
454
100
AcDbSymbolTableRecord
100
AcDbBlockTableRecord
  2
_D_25
340
0
 70
     0
280
     1
281
     0
  0
BLOCK_RECORD
  5
4BB
330
454
100
AcDbSymbolTableRecord
100
AcDbBlockTableRecord
  2
_D_26
340
0
 70
     0
280
     1
281
     0
  0
BLOCK_RECORD
  5
4BD
330
454
100
AcDbSymbolTableRecord
100
AcDbBlockTableRecord
  2
SW_SYMBOL_MOD_BOX
340
0
102
{BLKREFS
331
216
102
}
 70
     0
280
     1
281
     0
  0
BLOCK_RECORD
  5
4BF
330
454
100
AcDbSymbolTableRecord
100
AcDbBlockTableRecord
  2
_D_27
340
0
 70
     0
280
     1
281
     0
  0
BLOCK_RECORD
  5
4C1
330
454
100
AcDbSymbolTableRecord
100
AcDbBlockTableRecord
  2
SW_NOTE_0
340
0
102
{BLKREFS
331
0
102
}
 70
     0
280
     1
281
     0
  0
BLOCK_RECORD
  5
4C3
330
454
100
AcDbSymbolTableRecord
100
AcDbBlockTableRecord
  2
SW_CENTERMARKSYMBOL_0
340
0
102
{BLKREFS
331
236
102
}
 70
     0
280
     1
281
     0
  0
BLOCK_RECORD
  5
4C5
330
454
100
AcDbSymbolTableRecord
100
AcDbBlockTableRecord
  2
SW_CENTERMARKSYMBOL_1
340
0
102
{BLKREFS
331
242
102
}
 70
     0
280
     1
281
     0
  0
BLOCK_RECORD
  5
4C7
330
454
100
AcDbSymbolTableRecord
100
AcDbBlockTableRecord
  2
SW_CENTERMARKSYMBOL_2
340
0
102
{BLKREFS
331
24E
102
}
 70
     0
280
     1
281
     0
  0
BLOCK_RECORD
  5
4C9
330
454
100
AcDbSymbolTableRecord
100
AcDbBlockTableRecord
  2
SW_CENTERMARKSYMBOL_3
340
0
102
{BLKREFS
331
0
102
}
 70
     0
280
     1
281
     0
  0
BLOCK_RECORD
  5
4CB
330
454
100
AcDbSymbolTableRecord
100
AcDbBlockTableRecord
  2
SW_CENTERMARKSYMBOL_4
340
0
102
{BLKREFS
331
266
102
}
 70
     0
280
     1
281
     0
  0
BLOCK_RECORD
  5
4CD
330
454
100
AcDbSymbolTableRecord
100
AcDbBlockTableRecord
  2
SW_CENTERMARKSYMBOL_5
340
0
102
{BLKREFS
331
272
102
}
 70
     0
280
     1
281
     0
  0
BLOCK_RECORD
  5
4CF
330
454
100
AcDbSymbolTableRecord
100
AcDbBlockTableRecord
  2
SW_CENTERMARKSYMBOL_6
340
0
102
{BLKREFS
331
27E
102
}
 70
     0
280
     1
281
     0
  0
BLOCK_RECORD
  5
4D1
330
454
100
AcDbSymbolTableRecord
100
AcDbBlockTableRecord
  2
SW_CENTERMARKSYMBOL_7
340
0
102
{BLKREFS
331
28A
102
}
 70
     0
280
     1
281
     0
  0
BLOCK_RECORD
  5
4D3
330
454
100
AcDbSymbolTableRecord
100
AcDbBlockTableRecord
  2
SW_CENTERMARKSYMBOL_8
340
0
102
{BLKREFS
331
296
102
}
 70
     0
280
     1
281
     0
  0
BLOCK_RECORD
  5
4D5
330
454
100
AcDbSymbolTableRecord
100
AcDbBlockTableRecord
  2
SW_CENTERMARKSYMBOL_9
340
0
102
{BLKREFS
331
2A2
102
}
 70
     0
280
     1
281
     0
  0
BLOCK_RECORD
  5
4D7
330
454
100
AcDbSymbolTableRecord
100
AcDbBlockTableRecord
  2
SW_CENTERMARKSYMBOL_10
340
0
102
{BLKREFS
331
2AE
102
}
 70
     0
280
     1
281
     0
  0
BLOCK_RECORD
  5
4D9
330
454
100
AcDbSymbolTableRecord
100
AcDbBlockTableRecord
  2
_D_28
340
0
 70
     0
280
     1
281
     0
  0
BLOCK_RECORD
  5
4DB
330
454
100
AcDbSymbolTableRecord
100
AcDbBlockTableRecord
  2
_D_29
340
0
 70
     0
280
     1
281
     0
  0
BLOCK_RECORD
  5
4DD
330
454
100
AcDbSymbolTableRecord
100
AcDbBlockTableRecord
  2
_D_30
340
0
 70
     0
280
     1
281
     0
  0
BLOCK_RECORD
  5
4DF
330
454
100
AcDbSymbolTableRecord
100
AcDbBlockTableRecord
  2
_D_31
340
0
 70
     0
280
     1
281
     0
  0
BLOCK_RECORD
  5
4E1
330
454
100
AcDbSymbolTableRecord
100
AcDbBlockTableRecord
  2
_D_32
340
0
 70
     0
280
     1
281
     0
  0
BLOCK_RECORD
  5
4E3
330
454
100
AcDbSymbolTableRecord
100
AcDbBlockTableRecord
  2
_D_33
340
0
 70
     0
280
     1
281
     0
  0
BLOCK_RECORD
  5
4E5
330
454
100
AcDbSymbolTableRecord
100
AcDbBlockTableRecord
  2
SW_CENTERMARKSYMBOL_11
340
0
102
{BLKREFS
331
3F7
102
}
 70
     0
280
     1
281
     0
  0
BLOCK_RECORD
  5
4E7
330
454
100
AcDbSymbolTableRecord
100
AcDbBlockTableRecord
  2
SW_CENTERMARKSYMBOL_12
340
0
102
{BLKREFS
331
403
102
}
 70
     0
280
     1
281
     0
  0
BLOCK_RECORD
  5
4E9
330
454
100
AcDbSymbolTableRecord
100
AcDbBlockTableRecord
  2
_D_34
340
0
 70
     0
280
     1
281
     0
  0
BLOCK_RECORD
  5
4EB
330
454
100
AcDbSymbolTableRecord
100
AcDbBlockTableRecord
  2
_D_35
340
0
 70
     0
280
     1
281
     0
  0
ENDTAB
  0
ENDSEC
  0
SECTION
  2
BLOCKS
  0
BLOCK
  5
484
330
46E
100
AcDbEntity
  8
0
100
AcDbBlockBegin
  2
*Model_Space
 70
     0
 10
0.0
 20
0.0
 30
0.0
  3
*Model_Space
  1

  0
ENDBLK
  5
21
330
46E
100
AcDbEntity
  8
0
100
AcDbBlockEnd
  0
BLOCK
  5
485
330
46C
100
AcDbEntity
 67
     1
  8
0
100
AcDbBlockBegin
  2
*Paper_Space
 70
     0
 10
0.0
 20
0.0
 30
0.0
  3
*Paper_Space
  1

  0
ENDBLK
  5
1D
330
46C
100
AcDbEntity
 67
     1
  8
0
100
AcDbBlockEnd
  0
BLOCK
  5
486
330
487
100
AcDbEntity
  8
0
100
AcDbBlockBegin
  2
_D
 70
     0
 10
0.0
 20
0.0
 30
0.0
  3
_D
  1

  0
SOLID
  5
F0
330
487
100
AcDbEntity
  8
0
  6
Continuous
 62
     7
100
AcDbTrace
 10
23.7302031589
 20
360.9453748209
 30
0.0
 11
23.3455877742
 21
358.4453748209
 31
0.0
 12
24.1148185435
 22
358.4453748209
 32
0.0
 13
24.1148185435
 23
358.4453748209
 33
0.0
  0
SOLID
  5
F1
330
487
100
AcDbEntity
  8
0
  6
Continuous
 62
     7
100
AcDbTrace
 10
23.7302031589
 20
130.9453748209
 30
0.0
 11
24.1148185435
 21
133.4453748209
 31
0.0
 12
23.3455877742
 22
133.4453748209
 32
0.0
 13
23.3455877742
 23
133.4453748209
 33
0.0
  0
LINE
  5
F2
330
487
100
AcDbEntity
  8
0
  6
Continuous
 62
     7
100
AcDbLine
 10
80.0847689631
 20
360.9453748209
 30
0.0
 11
22.7302031589
 21
360.9453748209
 31
0.0
  0
LINE
  5
F3
330
487
100
AcDbEntity
  8
0
  6
Continuous
 62
     7
100
AcDbLine
 10
77.0847689631
 20
130.9453748209
 30
0.0
 11
22.7302031589
 21
130.9453748209
 31
0.0
  0
LINE
  5
F4
330
487
100
AcDbEntity
  8
0
  6
Continuous
 62
     7
100
AcDbLine
 10
23.7302031589
 20
360.9453748209
 30
0.0
 11
23.7302031589
 21
130.9453748209
 31
0.0
  0
TEXT
  5
F5
330
487
100
AcDbEntity
  8
0
  6
Continuous
 62
     7
100
AcDbText
 10
-3196.4391460964
 20
243.0807914255
 30
8.1457613325
 40
2.5
  1
230
 50
90.0
 41
0.7
 11
-3198.9391460964
 21
243.0807914255
 31
8.1457613325
100
AcDbText
 73
     3
  0
ENDBLK
  5
EF
330
487
100
AcDbEntity
  8
0
100
AcDbBlockEnd
  0
BLOCK
  5
488
330
489
100
AcDbEntity
  8
0
100
AcDbBlockBegin
  2
_D_1
 70
     0
 10
0.0
 20
0.0
 30
0.0
  3
_D_1
  1

  0
SOLID
  5
FA
330
489
100
AcDbEntity
  8
0
  6
Continuous
 62
     7
100
AcDbTrace
 10
194.2569239789
 20
325.9453748209
 30
0.0
 11
193.8723085943
 21
323.4453748209
 31
0.0
 12
194.6415393635
 22
323.4453748209
 32
0.0
 13
194.6415393635
 23
323.4453748209
 33
0.0
  0
SOLID
  5
FB
330
489
100
AcDbEntity
  8
0
  6
Continuous
 62
     7
100
AcDbTrace
 10
194.2569239789
 20
165.9453748209
 30
0.0
 11
194.6415393635
 21
168.4453748209
 31
0.0
 12
193.8723085943
 22
168.4453748209
 32
0.0
 13
193.8723085943
 23
168.4453748209
 33
0.0
  0
LINE
  5
FC
330
489
100
AcDbEntity
  8
0
  6
Continuous
 62
     7
100
AcDbLine
 10
149.6705554007
 20
325.9453748209
 30
0.0
 11
195.2569239789
 21
325.9453748209
 31
0.0
  0
LINE
  5
FD
330
489
100
AcDbEntity
  8
0
  6
Continuous
 62
     7
100
AcDbLine
 10
149.6705554007
 20
165.9453748209
 30
0.0
 11
195.2569239789
 21
165.9453748209
 31
0.0
  0
LINE
  5
FE
330
489
100
AcDbEntity
  8
0
  6
Continuous
 62
     7
100
AcDbLine
 10
194.2569239789
 20
325.9453748209
 30
0.0
 11
194.2569239789
 21
165.9453748209
 31
0.0
  0
TEXT
  5
FF
330
489
100
AcDbEntity
  8
0
  6
Continuous
 62
     7
100
AcDbText
 10
-3025.9124252764
 20
243.0807914255
 30
8.1457613325
 40
2.5
  1
160
 50
90.0
 41
0.7
 11
-3028.4124252764
 21
243.0807914255
 31
8.1457613325
100
AcDbText
 73
     3
  0
ENDBLK
  5
F9
330
489
100
AcDbEntity
  8
0
100
AcDbBlockEnd
  0
BLOCK
  5
48A
330
48B
100
AcDbEntity
  8
0
100
AcDbBlockBegin
  2
_D_2
 70
     0
 10
0.0
 20
0.0
 30
0.0
  3
_D_2
  1

  0
SOLID
  5
104
330
48B
100
AcDbEntity
  8
0
  6
Continuous
 62
     7
100
AcDbTrace
 10
194.2569239789
 20
360.9453748209
 30
0.0
 11
193.8723085943
 21
358.4453748209
 31
0.0
 12
194.6415393635
 22
358.4453748209
 32
0.0
 13
194.6415393635
 23
358.4453748209
 33
0.0
  0
SOLID
  5
105
330
48B
100
AcDbEntity
  8
0
  6
Continuous
 62
     7
100
AcDbTrace
 10
194.2569239789
 20
325.9453748209
 30
0.0
 11
194.6415393635
 21
328.4453748209
 31
0.0
 12
193.8723085943
 22
328.4453748209
 32
0.0
 13
193.8723085943
 23
328.4453748209
 33
0.0
  0
LINE
  5
106
330
48B
100
AcDbEntity
  8
0
  6
Continuous
 62
     7
100
AcDbLine
 10
80.0847689631
 20
360.9453748209
 30
0.0
 11
195.2569239789
 21
360.9453748209
 31
0.0
  0
LINE
  5
107
330
48B
100
AcDbEntity
  8
0
  6
Continuous
 62
     7
100
AcDbLine
 10
149.6705554007
 20
325.9453748209
 30
0.0
 11
195.2569239789
 21
325.9453748209
 31
0.0
  0
LINE
  5
108
330
48B
100
AcDbEntity
  8
0
  6
Continuous
 62
     7
100
AcDbLine
 10
194.2569239789
 20
360.9453748209
 30
0.0
 11
194.2569239789
 21
325.9453748209
 31
0.0
  0
TEXT
  5
109
330
48B
100
AcDbEntity
  8
0
  6
Continuous
 62
     7
100
AcDbText
 10
-3025.9124252764
 20
341.5356525961
 30
8.1457613325
 40
2.5
  1
35
 50
90.0
 41
0.7
 11
-3028.4124252764
 21
341.5356525961
 31
8.1457613325
100
AcDbText
 73
     3
  0
ENDBLK
  5
103
330
48B
100
AcDbEntity
  8
0
100
AcDbBlockEnd
  0
BLOCK
  5
48C
330
48D
100
AcDbEntity
  8
0
100
AcDbBlockBegin
  2
_D_3
 70
     0
 10
0.0
 20
0.0
 30
0.0
  3
_D_3
  1

  0
SOLID
  5
10E
330
48D
100
AcDbEntity
  8
0
  6
Continuous
 62
     7
100
AcDbTrace
 10
185.6593954806
 20
273.9453748209
 30
0.0
 11
185.274780096
 21
271.4453748209
 31
0.0
 12
186.0440108652
 22
271.4453748209
 32
0.0
 13
186.0440108652
 23
271.4453748209
 33
0.0
  0
SOLID
  5
10F
330
48D
100
AcDbEntity
  8
0
  6
Continuous
 62
     7
100
AcDbTrace
 10
185.6593954806
 20
195.9453748209
 30
0.0
 11
186.0440108652
 21
198.4453748209
 31
0.0
 12
185.274780096
 22
198.4453748209
 32
0.0
 13
185.274780096
 23
198.4453748209
 33
0.0
  0
LINE
  5
110
330
48D
100
AcDbEntity
  8
0
  6
Continuous
 62
     7
100
AcDbLine
 10
137.0847689631
 20
273.9453748209
 30
0.0
 11
186.6593954806
 21
273.9453748209
 31
0.0
  0
LINE
  5
111
330
48D
100
AcDbEntity
  8
0
  6
Continuous
 62
     7
100
AcDbLine
 10
150.6847689631
 20
195.9453748209
 30
0.0
 11
186.6593954806
 21
195.9453748209
 31
0.0
  0
LINE
  5
112
330
48D
100
AcDbEntity
  8
0
  6
Continuous
 62
     7
100
AcDbLine
 10
185.6593954806
 20
273.9453748209
 30
0.0
 11
185.6593954806
 21
195.9453748209
 31
0.0
  0
TEXT
  5
113
330
48D
100
AcDbEntity
  8
0
  6
Continuous
 62
     7
100
AcDbText
 10
-3034.5099537747
 20
233.0356525961
 30
8.1457613325
 40
2.5
  1
78
 50
90.0
 41
0.7
 11
-3037.0099537747
 21
233.0356525961
 31
8.1457613325
100
AcDbText
 73
     3
  0
ENDBLK
  5
10D
330
48D
100
AcDbEntity
  8
0
100
AcDbBlockEnd
  0
BLOCK
  5
48E
330
48F
100
AcDbEntity
  8
0
100
AcDbBlockBegin
  2
_D_4
 70
     0
 10
0.0
 20
0.0
 30
0.0
  3
_D_4
  1

  0
SOLID
  5
119
330
48F
100
AcDbEntity
  8
0
  6
Continuous
 62
     7
100
AcDbTrace
 10
153.8491059852
 20
190.8042540143
 30
0.0
 11
152.4085225339
 21
192.8833519712
 31
0.0
 12
151.8502079319
 22
192.3542009705
 32
0.0
 13
151.8502079319
 23
192.3542009705
 33
0.0
  0
SOLID
  5
11A
330
48F
100
AcDbEntity
  8
0
  6
Continuous
 62
     7
100
AcDbTrace
 10
158.3204319411
 20
186.0864956275
 30
0.0
 11
159.7610153923
 21
184.0073976707
 31
0.0
 12
160.3193299943
 22
184.5365486714
 32
0.0
 13
160.3193299943
 23
184.5365486714
 33
0.0
  0
LINE
  5
11B
330
48F
100
AcDbEntity
  8
0
  6
Continuous
 62
     7
100
AcDbLine
 10
158.3204319411
 20
186.0864956275
 30
0.0
 11
172.6227439515
 21
170.9959267217
 31
0.0
  0
LINE
  5
11C
330
48F
100
AcDbEntity
  8
0
  6
Continuous
 62
     7
100
AcDbLine
 10
153.8491059852
 20
190.8042540143
 30
0.0
 11
150.5419122308
 21
194.2937202768
 31
0.0
  0
LINE
  5
11D
330
48F
100
AcDbEntity
  8
0
  6
Continuous
 62
     7
100
AcDbLine
 10
158.3204319411
 20
186.0864956275
 30
0.0
 11
153.8491059852
 21
190.8042540143
 31
0.0
  0
TEXT
  5
11E
330
48F
100
AcDbEntity
  8
0
  6
Continuous
 62
     7
100
AcDbText
 10
2504.052552704638
 20
2392.243185302636
 30
8.1457613325
 40
2.5
  1
%%c
 50
313.4638126908001
 41
0.7
 11
2505.8670751611
 21
2393.9629260549
 31
8.1457613325
100
AcDbText
 73
     3
  0
TEXT
  5
11F
330
48F
100
AcDbEntity
  8
0
  6
Continuous
 62
     7
100
AcDbText
 10
2506.564951245138
 20
2389.602413777736
 30
8.1457613325
 40
2.5
  1
6.5
 50
313.4638126908001
 41
0.7
 11
2508.3794737016
 21
2391.32215453
 31
8.1457613325
100
AcDbText
 73
     3
  0
ENDBLK
  5
118
330
48F
100
AcDbEntity
  8
0
100
AcDbBlockEnd
  0
BLOCK
  5
490
330
491
100
AcDbEntity
  8
0
100
AcDbBlockBegin
  2
_D_5
 70
     0
 10
0.0
 20
0.0
 30
0.0
  3
_D_5
  1

  0
SOLID
  5
124
330
491
100
AcDbEntity
  8
0
  6
Continuous
 62
     7
100
AcDbTrace
 10
120.7161611685
 20
275.8528011135
 30
0.0
 11
122.9660399409
 21
277.0086447462
 31
0.0
 12
122.5145780965
 22
277.6314594694
 32
0.0
 13
122.5145780965
 23
277.6314594694
 33
0.0
  0
SOLID
  5
125
330
491
100
AcDbEntity
  8
0
  6
Continuous
 62
     7
100
AcDbTrace
 10
115.4533767578
 20
272.0379485284
 30
0.0
 11
113.2034979853
 21
270.8821048957
 31
0.0
 12
113.6549598297
 22
270.2592901725
 32
0.0
 13
113.6549598297
 23
270.2592901725
 33
0.0
  0
LINE
  5
126
330
491
100
AcDbEntity
  8
0
  6
Continuous
 62
     7
100
AcDbLine
 10
115.4533767578
 20
272.0379485284
 30
0.0
 11
101.6816833531
 21
262.0552138984
 31
0.0
  0
LINE
  5
127
330
491
100
AcDbEntity
  8
0
  6
Continuous
 62
     7
100
AcDbLine
 10
120.7161611685
 20
275.8528011135
 30
0.0
 11
124.6087531882
 21
278.674437641
 31
0.0
  0
LINE
  5
128
330
491
100
AcDbEntity
  8
0
  6
Continuous
 62
     7
100
AcDbLine
 10
115.4533767578
 20
272.0379485284
 30
0.0
 11
120.7161611685
 21
275.8528011135
 31
0.0
  0
TEXT
  5
129
330
491
100
AcDbEntity
  8
0
  6
Continuous
 62
     7
100
AcDbText
 10
-1788.229097991806
 20
2869.283874938933
 30
8.1457613325
 40
2.5
  1
%%c
 50
35.9373581577
 41
0.7
 11
-1789.6963489861
 21
2871.3080227892
 31
8.1457613325
100
AcDbText
 73
     3
  0
TEXT
  5
12A
330
491
100
AcDbEntity
  8
0
  6
Continuous
 62
     7
100
AcDbText
 10
-1785.281994185006
 20
2871.428729205632
 30
8.1457613325
 40
2.5
  1
6.5
 50
35.9373581577
 41
0.7
 11
-1786.7492451793
 21
2873.4528770559
 31
8.1457613325
100
AcDbText
 73
     3
  0
ENDBLK
  5
123
330
491
100
AcDbEntity
  8
0
100
AcDbBlockEnd
  0
BLOCK
  5
492
330
493
100
AcDbEntity
  8
0
100
AcDbBlockBegin
  2
_D_6
 70
     0
 10
0.0
 20
0.0
 30
0.0
  3
_D_6
  1

  0
SOLID
  5
12F
330
493
100
AcDbEntity
  8
0
  6
Continuous
 62
     7
100
AcDbTrace
 10
139.6808298472
 20
255.1514730982
 30
0.0
 11
141.6890856445
 21
256.6892759616
 31
0.0
 12
141.133988562
 22
257.2218012711
 32
0.0
 13
141.133988562
 23
257.2218012711
 33
0.0
  0
SOLID
  5
130
330
493
100
AcDbEntity
  8
0
  6
Continuous
 62
     7
100
AcDbTrace
 10
134.488708079
 20
249.7392765437
 30
0.0
 11
132.4804522817
 21
248.2014736803
 31
0.0
 12
133.0355493642
 22
247.6689483707
 32
0.0
 13
133.0355493642
 23
247.6689483707
 33
0.0
  0
LINE
  5
131
330
493
100
AcDbEntity
  8
0
  6
Continuous
 62
     7
100
AcDbLine
 10
134.488708079
 20
249.7392765437
 30
0.0
 11
124.6478350829
 21
239.4812854369
 31
0.0
  0
LINE
  5
132
330
493
100
AcDbEntity
  8
0
  6
Continuous
 62
     7
100
AcDbLine
 10
139.6808298472
 20
255.1514730982
 30
0.0
 11
143.0091130319
 21
258.6208298639
 31
0.0
  0
LINE
  5
133
330
493
100
AcDbEntity
  8
0
  6
Continuous
 62
     7
100
AcDbLine
 10
134.488708079
 20
249.7392765437
 30
0.0
 11
139.6808298472
 21
255.1514730982
 31
0.0
  0
TEXT
  5
134
330
493
100
AcDbEntity
  8
0
  6
Continuous
 62
     7
100
AcDbText
 10
-2199.097664997732
 20
2468.736907095246
 30
8.1457613325
 40
2.5
  1
%%c
 50
46.1889068429
 41
0.7
 11
-2200.9017305159
 21
2470.4676143513
 31
8.1457613325
100
AcDbText
 73
     3
  0
TEXT
  5
135
330
493
100
AcDbEntity
  8
0
  6
Continuous
 62
     7
100
AcDbText
 10
-2196.579329109632
 20
2471.372017155246
 30
8.1457613325
 40
2.5
  1
7.5
 50
46.1889068429
 41
0.7
 11
-2198.3833946278
 21
2473.1027244113
 31
8.1457613325
100
AcDbText
 73
     3
  0
ENDBLK
  5
12E
330
493
100
AcDbEntity
  8
0
100
AcDbBlockEnd
  0
BLOCK
  5
494
330
495
100
AcDbEntity
  8
0
100
AcDbBlockBegin
  2
_D_7
 70
     0
 10
0.0
 20
0.0
 30
0.0
  3
_D_7
  1

  0
SOLID
  5
13A
330
495
100
AcDbEntity
  8
0
  6
Continuous
 62
     7
100
AcDbTrace
 10
177.6915477516
 20
273.9453748209
 30
0.0
 11
177.306932367
 21
271.4453748209
 31
0.0
 12
178.0761631363
 22
271.4453748209
 32
0.0
 13
178.0761631363
 23
271.4453748209
 33
0.0
  0
SOLID
  5
13B
330
495
100
AcDbEntity
  8
0
  6
Continuous
 62
     7
100
AcDbTrace
 10
177.6915477516
 20
252.4453748209
 30
0.0
 11
178.0761631363
 21
254.9453748209
 31
0.0
 12
177.306932367
 22
254.9453748209
 32
0.0
 13
177.306932367
 23
254.9453748209
 33
0.0
  0
LINE
  5
13C
330
495
100
AcDbEntity
  8
0
  6
Continuous
 62
     7
100
AcDbLine
 10
137.0847689631
 20
273.9453748209
 30
0.0
 11
178.6915477516
 21
273.9453748209
 31
0.0
  0
LINE
  5
13D
330
495
100
AcDbEntity
  8
0
  6
Continuous
 62
     7
100
AcDbLine
 10
143.3347689631
 20
252.4453748209
 30
0.0
 11
178.6915477516
 21
252.4453748209
 31
0.0
  0
LINE
  5
13E
330
495
100
AcDbEntity
  8
0
  6
Continuous
 62
     7
100
AcDbLine
 10
177.6915477516
 20
273.9453748209
 30
0.0
 11
177.6915477516
 21
252.4453748209
 31
0.0
  0
TEXT
  5
13F
330
495
100
AcDbEntity
  8
0
  6
Continuous
 62
     7
100
AcDbText
 10
-3042.4778015037
 20
259.8533610148
 30
8.1457613325
 40
2.5
  1
21.5
 50
90.0
 41
0.7
 11
-3044.9778015037
 21
259.8533610148
 31
8.1457613325
100
AcDbText
 73
     3
  0
ENDBLK
  5
139
330
495
100
AcDbEntity
  8
0
100
AcDbBlockEnd
  0
BLOCK
  5
496
330
497
100
AcDbEntity
  8
0
100
AcDbBlockBegin
  2
_D_8
 70
     0
 10
0.0
 20
0.0
 30
0.0
  3
_D_8
  1

  0
SOLID
  5
145
330
497
100
AcDbEntity
  8
0
  6
Continuous
 62
     7
100
AcDbTrace
 10
185.6593954806
 20
195.9453748209
 30
0.0
 11
186.0440108652
 21
198.4453748209
 31
0.0
 12
185.274780096
 22
198.4453748209
 32
0.0
 13
185.274780096
 23
198.4453748209
 33
0.0
  0
SOLID
  5
146
330
497
100
AcDbEntity
  8
0
  6
Continuous
 62
     7
100
AcDbTrace
 10
185.6593954806
 20
188.4453748209
 30
0.0
 11
185.274780096
 21
185.9453748209
 31
0.0
 12
186.0440108652
 22
185.9453748209
 32
0.0
 13
186.0440108652
 23
185.9453748209
 33
0.0
  0
LINE
  5
147
330
497
100
AcDbEntity
  8
0
  6
Continuous
 62
     7
100
AcDbLine
 10
150.6847689631
 20
195.9453748209
 30
0.0
 11
186.6593954806
 21
195.9453748209
 31
0.0
  0
LINE
  5
148
330
497
100
AcDbEntity
  8
0
  6
Continuous
 62
     7
100
AcDbLine
 10
161.8347689631
 20
188.4453748209
 30
0.0
 11
186.6593954806
 21
188.4453748209
 31
0.0
  0
LINE
  5
149
330
497
100
AcDbEntity
  8
0
  6
Continuous
 62
     7
100
AcDbLine
 10
185.6593954806
 20
195.9453748209
 30
0.0
 11
185.6593954806
 21
200.7530671286
 31
0.0
  0
LINE
  5
14A
330
497
100
AcDbEntity
  8
0
  6
Continuous
 62
     7
100
AcDbLine
 10
185.6593954806
 20
195.9453748209
 30
0.0
 11
185.6593954806
 21
188.4453748209
 31
0.0
  0
LINE
  5
14B
330
497
100
AcDbEntity
  8
0
  6
Continuous
 62
     7
100
AcDbLine
 10
185.6593954806
 20
188.4453748209
 30
0.0
 11
185.6593954806
 21
183.6376825133
 31
0.0
  0
TEXT
  5
14C
330
497
100
AcDbEntity
  8
0
  6
Continuous
 62
     7
100
AcDbText
 10
-3034.5099537747
 20
189.808222069
 30
8.1457613325
 40
2.5
  1
7.5
 50
90.0
 41
0.7
 11
-3037.0099537747
 21
189.808222069
 31
8.1457613325
100
AcDbText
 73
     3
  0
ENDBLK
  5
144
330
497
100
AcDbEntity
  8
0
100
AcDbBlockEnd
  0
BLOCK
  5
498
330
499
100
AcDbEntity
  8
0
100
AcDbBlockBegin
  2
_D_9
 70
     0
 10
0.0
 20
0.0
 30
0.0
  3
_D_9
  1

  0
SOLID
  5
151
330
499
100
AcDbEntity
  8
0
  6
Continuous
 62
     7
100
AcDbTrace
 10
137.0847689631
 20
221.8486926048
 30
0.0
 11
139.5847689631
 21
221.4640772201
 31
0.0
 12
139.5847689631
 22
222.2333079894
 32
0.0
 13
139.5847689631
 23
222.2333079894
 33
0.0
  0
SOLID
  5
152
330
499
100
AcDbEntity
  8
0
  6
Continuous
 62
     7
100
AcDbTrace
 10
156.0847689631
 20
221.8486926048
 30
0.0
 11
153.5847689631
 21
222.2333079894
 31
0.0
 12
153.5847689631
 22
221.4640772201
 32
0.0
 13
153.5847689631
 23
221.4640772201
 33
0.0
  0
LINE
  5
153
330
499
100
AcDbEntity
  8
0
  6
Continuous
 62
     7
100
AcDbLine
 10
137.0847689631
 20
209.5453748209
 30
0.0
 11
137.0847689631
 21
222.8486926048
 31
0.0
  0
LINE
  5
154
330
499
100
AcDbEntity
  8
0
  6
Continuous
 62
     7
100
AcDbLine
 10
156.0847689631
 20
194.1953748209
 30
0.0
 11
156.0847689631
 21
222.8486926048
 31
0.0
  0
LINE
  5
155
330
499
100
AcDbEntity
  8
0
  6
Continuous
 62
     7
100
AcDbLine
 10
137.0847689631
 20
221.8486926048
 30
0.0
 11
156.0847689631
 21
221.8486926048
 31
0.0
  0
TEXT
  5
156
330
499
100
AcDbEntity
  8
0
  6
Continuous
 62
     7
100
AcDbText
 10
144.6750467383
 20
3442.01804186
 30
8.1457613325
 40
2.5
  1
19
 41
0.7
 11
144.6750467383
 21
3444.51804186
 31
8.1457613325
100
AcDbText
 73
     3
  0
ENDBLK
  5
150
330
499
100
AcDbEntity
  8
0
100
AcDbBlockEnd
  0
BLOCK
  5
49A
330
49B
100
AcDbEntity
  8
0
100
AcDbBlockBegin
  2
_D_10
 70
     0
 10
0.0
 20
0.0
 30
0.0
  3
_D_10
  1

  0
SOLID
  5
15B
330
49B
100
AcDbEntity
  8
0
  6
Continuous
 62
     7
100
AcDbTrace
 10
118.0847689631
 20
221.8486926048
 30
0.0
 11
120.5847689631
 21
221.4640772201
 31
0.0
 12
120.5847689631
 22
222.2333079894
 32
0.0
 13
120.5847689631
 23
222.2333079894
 33
0.0
  0
SOLID
  5
15C
330
49B
100
AcDbEntity
  8
0
  6
Continuous
 62
     7
100
AcDbTrace
 10
137.0847689631
 20
221.8486926048
 30
0.0
 11
134.5847689631
 21
222.2333079894
 31
0.0
 12
134.5847689631
 22
221.4640772201
 32
0.0
 13
134.5847689631
 23
221.4640772201
 33
0.0
  0
LINE
  5
15D
330
49B
100
AcDbEntity
  8
0
  6
Continuous
 62
     7
100
AcDbLine
 10
118.0847689631
 20
194.1953748209
 30
0.0
 11
118.0847689631
 21
222.8486926048
 31
0.0
  0
LINE
  5
15E
330
49B
100
AcDbEntity
  8
0
  6
Continuous
 62
     7
100
AcDbLine
 10
137.0847689631
 20
209.5453748209
 30
0.0
 11
137.0847689631
 21
222.8486926048
 31
0.0
  0
LINE
  5
15F
330
49B
100
AcDbEntity
  8
0
  6
Continuous
 62
     7
100
AcDbLine
 10
118.0847689631
 20
221.8486926048
 30
0.0
 11
137.0847689631
 21
221.8486926048
 31
0.0
  0
TEXT
  5
160
330
49B
100
AcDbEntity
  8
0
  6
Continuous
 62
     7
100
AcDbText
 10
125.6750467383
 20
3442.01804186
 30
8.1457613325
 40
2.5
  1
19
 41
0.7
 11
125.6750467383
 21
3444.51804186
 31
8.1457613325
100
AcDbText
 73
     3
  0
ENDBLK
  5
15A
330
49B
100
AcDbEntity
  8
0
100
AcDbBlockEnd
  0
BLOCK
  5
49C
330
49D
100
AcDbEntity
  8
0
100
AcDbBlockBegin
  2
_D_11
 70
     0
 10
0.0
 20
0.0
 30
0.0
  3
_D_11
  1

  0
SOLID
  5
165
330
49D
100
AcDbEntity
  8
0
  6
Continuous
 62
     7
100
AcDbTrace
 10
77.0847689631
 20
112.1486141958
 30
0.0
 11
79.5847689631
 21
111.7639988112
 31
0.0
 12
79.5847689631
 22
112.5332295805
 32
0.0
 13
79.5847689631
 23
112.5332295805
 33
0.0
  0
SOLID
  5
166
330
49D
100
AcDbEntity
  8
0
  6
Continuous
 62
     7
100
AcDbTrace
 10
137.0847689631
 20
112.1486141958
 30
0.0
 11
134.5847689631
 21
112.5332295805
 31
0.0
 12
134.5847689631
 22
111.7639988112
 32
0.0
 13
134.5847689631
 23
111.7639988112
 33
0.0
  0
LINE
  5
167
330
49D
100
AcDbEntity
  8
0
  6
Continuous
 62
     7
100
AcDbLine
 10
77.0847689631
 20
130.9453748209
 30
0.0
 11
77.0847689631
 21
111.1486141958
 31
0.0
  0
LINE
  5
168
330
49D
100
AcDbEntity
  8
0
  6
Continuous
 62
     7
100
AcDbLine
 10
137.0847689631
 20
182.3453748209
 30
0.0
 11
137.0847689631
 21
111.1486141958
 31
0.0
  0
LINE
  5
169
330
49D
100
AcDbEntity
  8
0
  6
Continuous
 62
     7
100
AcDbLine
 10
77.0847689631
 20
112.1486141958
 30
0.0
 11
137.0847689631
 21
112.1486141958
 31
0.0
  0
TEXT
  5
16A
330
49D
100
AcDbEntity
  8
0
  6
Continuous
 62
     7
100
AcDbText
 10
97.7306022766
 20
3332.3179634511
 30
8.1457613325
 40
2.5
  1
DM
 41
0.7
 11
97.7306022766
 21
3334.8179634511
 31
8.1457613325
100
AcDbText
 73
     3
  0
TEXT
  5
16B
330
49D
100
AcDbEntity
  8
0
  6
Continuous
 62
     7
100
AcDbText
 10
103.0708804252
 20
3332.3179634511
 30
8.1457613325
 40
2.5
  1
60/70/80
 41
0.7
 11
103.0708804252
 21
3334.8179634511
 31
8.1457613325
100
AcDbText
 73
     3
  0
ENDBLK
  5
164
330
49D
100
AcDbEntity
  8
0
100
AcDbBlockEnd
  0
BLOCK
  5
49E
330
49F
100
AcDbEntity
  8
0
100
AcDbBlockBegin
  2
_D_12
 70
     0
 10
0.0
 20
0.0
 30
0.0
  3
_D_12
  1

  0
SOLID
  5
170
330
49F
100
AcDbEntity
  8
0
  6
Continuous
 62
     7
100
AcDbTrace
 10
137.0847689631
 20
112.38645912
 30
0.0
 11
139.5847689631
 21
112.0018437353
 31
0.0
 12
139.5847689631
 22
112.7710745046
 32
0.0
 13
139.5847689631
 23
112.7710745046
 33
0.0
  0
SOLID
  5
171
330
49F
100
AcDbEntity
  8
0
  6
Continuous
 62
     7
100
AcDbTrace
 10
167.0847689631
 20
112.38645912
 30
0.0
 11
164.5847689631
 21
112.7710745046
 31
0.0
 12
164.5847689631
 22
112.0018437353
 32
0.0
 13
164.5847689631
 23
112.0018437353
 33
0.0
  0
LINE
  5
172
330
49F
100
AcDbEntity
  8
0
  6
Continuous
 62
     7
100
AcDbLine
 10
137.0847689631
 20
182.3453748209
 30
0.0
 11
137.0847689631
 21
111.38645912
 31
0.0
  0
LINE
  5
173
330
49F
100
AcDbEntity
  8
0
  6
Continuous
 62
     7
100
AcDbLine
 10
167.0847689631
 20
183.3595883833
 30
0.0
 11
167.0847689631
 21
111.38645912
 31
0.0
  0
LINE
  5
174
330
49F
100
AcDbEntity
  8
0
  6
Continuous
 62
     7
100
AcDbLine
 10
137.0847689631
 20
112.38645912
 30
0.0
 11
167.0847689631
 21
112.38645912
 31
0.0
  0
TEXT
  5
175
330
49F
100
AcDbEntity
  8
0
  6
Continuous
 62
     7
100
AcDbText
 10
150.1750467383
 20
3332.5558083753
 30
8.1457613325
 40
2.5
  1
30
 41
0.7
 11
150.1750467383
 21
3335.0558083753
 31
8.1457613325
100
AcDbText
 73
     3
  0
ENDBLK
  5
16F
330
49F
100
AcDbEntity
  8
0
100
AcDbBlockEnd
  0
BLOCK
  5
4A0
330
4A1
100
AcDbEntity
  8
0
100
AcDbBlockBegin
  2
_D_13
 70
     0
 10
0.0
 20
0.0
 30
0.0
  3
_D_13
  1

  0
SOLID
  5
17A
330
4A1
100
AcDbEntity
  8
0
  6
Continuous
 62
     7
100
AcDbTrace
 10
35.0847689631
 20
273.9453748209
 30
0.0
 11
35.4693843477
 21
276.4453748209
 31
0.0
 12
34.7001535785
 22
276.4453748209
 32
0.0
 13
34.7001535785
 23
276.4453748209
 33
0.0
  0
SOLID
  5
17B
330
4A1
100
AcDbEntity
  8
0
  6
Continuous
 62
     7
100
AcDbTrace
 10
35.0847689631
 20
295.2453748209
 30
0.0
 11
34.7001535785
 21
292.7453748209
 31
0.0
 12
35.4693843477
 22
292.7453748209
 32
0.0
 13
35.4693843477
 23
292.7453748209
 33
0.0
  0
LINE
  5
17C
330
4A1
100
AcDbEntity
  8
0
  6
Continuous
 62
     7
100
AcDbLine
 10
137.0847689631
 20
273.9453748209
 30
0.0
 11
34.0847689631
 21
273.9453748209
 31
0.0
  0
LINE
  5
17D
330
4A1
100
AcDbEntity
  8
0
  6
Continuous
 62
     7
100
AcDbLine
 10
64.2257594689
 20
295.2453748209
 30
0.0
 11
34.0847689631
 21
295.2453748209
 31
0.0
  0
LINE
  5
17E
330
4A1
100
AcDbEntity
  8
0
  6
Continuous
 62
     7
100
AcDbLine
 10
35.0847689631
 20
273.9453748209
 30
0.0
 11
35.0847689631
 21
295.2453748209
 31
0.0
  0
TEXT
  5
17F
330
4A1
100
AcDbEntity
  8
0
  6
Continuous
 62
     7
100
AcDbText
 10
-3185.0845802922
 20
281.2533610148
 30
8.1457613325
 40
2.5
  1
21.3
 50
90.0
 41
0.7
 11
-3187.5845802922
 21
281.2533610148
 31
8.1457613325
100
AcDbText
 73
     3
  0
ENDBLK
  5
179
330
4A1
100
AcDbEntity
  8
0
100
AcDbBlockEnd
  0
BLOCK
  5
4A2
330
4A3
100
AcDbEntity
  8
0
100
AcDbBlockBegin
  2
_D_14
 70
     0
 10
0.0
 20
0.0
 30
0.0
  3
_D_14
  1

  0
SOLID
  5
184
330
4A3
100
AcDbEntity
  8
0
  6
Continuous
 62
     7
100
AcDbTrace
 10
35.0847689631
 20
273.9453748209
 30
0.0
 11
34.7001535785
 21
271.4453748209
 31
0.0
 12
35.4693843477
 22
271.4453748209
 32
0.0
 13
35.4693843477
 23
271.4453748209
 33
0.0
  0
SOLID
  5
185
330
4A3
100
AcDbEntity
  8
0
  6
Continuous
 62
     7
100
AcDbTrace
 10
35.0847689631
 20
219.9453748209
 30
0.0
 11
35.4693843477
 21
222.4453748209
 31
0.0
 12
34.7001535785
 22
222.4453748209
 32
0.0
 13
34.7001535785
 23
222.4453748209
 33
0.0
  0
LINE
  5
186
330
4A3
100
AcDbEntity
  8
0
  6
Continuous
 62
     7
100
AcDbLine
 10
137.0847689631
 20
273.9453748209
 30
0.0
 11
34.0847689631
 21
273.9453748209
 31
0.0
  0
LINE
  5
187
330
4A3
100
AcDbEntity
  8
0
  6
Continuous
 62
     7
100
AcDbLine
 10
55.3847689631
 20
219.9453748209
 30
0.0
 11
34.0847689631
 21
219.9453748209
 31
0.0
  0
LINE
  5
188
330
4A3
100
AcDbEntity
  8
0
  6
Continuous
 62
     7
100
AcDbLine
 10
35.0847689631
 20
273.9453748209
 30
0.0
 11
35.0847689631
 21
219.9453748209
 31
0.0
  0
TEXT
  5
189
330
4A3
100
AcDbEntity
  8
0
  6
Continuous
 62
     7
100
AcDbText
 10
-3185.0845802922
 20
245.0356525961
 30
8.1457613325
 40
2.5
  1
54
 50
90.0
 41
0.7
 11
-3187.5845802922
 21
245.0356525961
 31
8.1457613325
100
AcDbText
 73
     3
  0
ENDBLK
  5
183
330
4A3
100
AcDbEntity
  8
0
100
AcDbBlockEnd
  0
BLOCK
  5
4A4
330
4A5
100
AcDbEntity
  8
0
100
AcDbBlockBegin
  2
_D_15
 70
     0
 10
0.0
 20
0.0
 30
0.0
  3
_D_15
  1

  0
SOLID
  5
18E
330
4A5
100
AcDbEntity
  8
0
  6
Continuous
 62
     7
100
AcDbTrace
 10
46.9834216382
 20
234.9453748209
 30
0.0
 11
46.5988062536
 21
232.4453748209
 31
0.0
 12
47.3680370228
 22
232.4453748209
 32
0.0
 13
47.3680370228
 23
232.4453748209
 33
0.0
  0
SOLID
  5
18F
330
4A5
100
AcDbEntity
  8
0
  6
Continuous
 62
     7
100
AcDbTrace
 10
46.9834216382
 20
204.9453748209
 30
0.0
 11
47.3680370228
 21
207.4453748209
 31
0.0
 12
46.5988062536
 22
207.4453748209
 32
0.0
 13
46.5988062536
 23
207.4453748209
 33
0.0
  0
LINE
  5
190
330
4A5
100
AcDbEntity
  8
0
  6
Continuous
 62
     7
100
AcDbLine
 10
57.3847689631
 20
234.9453748209
 30
0.0
 11
45.9834216382
 21
234.9453748209
 31
0.0
  0
LINE
  5
191
330
4A5
100
AcDbEntity
  8
0
  6
Continuous
 62
     7
100
AcDbLine
 10
57.3847689631
 20
204.9453748209
 30
0.0
 11
45.9834216382
 21
204.9453748209
 31
0.0
  0
LINE
  5
192
330
4A5
100
AcDbEntity
  8
0
  6
Continuous
 62
     7
100
AcDbLine
 10
46.9834216382
 20
234.9453748209
 30
0.0
 11
46.9834216382
 21
204.9453748209
 31
0.0
  0
TEXT
  5
193
330
4A5
100
AcDbEntity
  8
0
  6
Continuous
 62
     7
100
AcDbText
 10
-3173.1859276171
 20
221.3007140237
 30
8.1457613325
 40
2.5
  1
30
 50
90.0
 41
0.7
 11
-3175.6859276171
 21
221.3007140237
 31
8.1457613325
100
AcDbText
 73
     3
  0
ENDBLK
  5
18D
330
4A5
100
AcDbEntity
  8
0
100
AcDbBlockEnd
  0
BLOCK
  5
4A6
330
4A7
100
AcDbEntity
  8
0
100
AcDbBlockBegin
  2
_D_16
 70
     0
 10
0.0
 20
0.0
 30
0.0
  3
_D_16
  1

  0
SOLID
  5
198
330
4A7
100
AcDbEntity
  8
0
  6
Continuous
 62
     7
100
AcDbTrace
 10
57.0847689631
 20
243.8369883231
 30
0.0
 11
59.5847689631
 21
243.4523729385
 31
0.0
 12
59.5847689631
 22
244.2216037077
 32
0.0
 13
59.5847689631
 23
244.2216037077
 33
0.0
  0
SOLID
  5
199
330
4A7
100
AcDbEntity
  8
0
  6
Continuous
 62
     7
100
AcDbTrace
 10
77.0847689631
 20
243.8369883231
 30
0.0
 11
74.5847689631
 21
244.2216037077
 31
0.0
 12
74.5847689631
 22
243.4523729385
 32
0.0
 13
74.5847689631
 23
243.4523729385
 33
0.0
  0
LINE
  5
19A
330
4A7
100
AcDbEntity
  8
0
  6
Continuous
 62
     7
100
AcDbLine
 10
57.0847689631
 20
234.6453748209
 30
0.0
 11
57.0847689631
 21
244.8369883231
 31
0.0
  0
LINE
  5
19B
330
4A7
100
AcDbEntity
  8
0
  6
Continuous
 62
     7
100
AcDbLine
 10
57.0847689631
 20
243.8369883231
 30
0.0
 11
77.0847689631
 21
243.8369883231
 31
0.0
  0
TEXT
  5
19C
330
4A7
100
AcDbEntity
  8
0
  6
Continuous
 62
     7
100
AcDbText
 10
65.1750467383
 20
3464.0063375784
 30
8.1457613325
 40
2.5
  1
20
 41
0.7
 11
65.1750467383
 21
3466.5063375784
 31
8.1457613325
100
AcDbText
 73
     3
  0
ENDBLK
  5
197
330
4A7
100
AcDbEntity
  8
0
100
AcDbBlockEnd
  0
BLOCK
  5
4A8
330
4A9
100
AcDbEntity
  8
0
100
AcDbBlockBegin
  2
_D_17
 70
     0
 10
0.0
 20
0.0
 30
0.0
  3
_D_17
  1

  0
SOLID
  5
1A1
330
4A9
100
AcDbEntity
  8
0
  6
Continuous
 62
     7
100
AcDbTrace
 10
48.2299664071
 20
279.2453748209
 30
0.0
 11
48.6145817918
 21
281.7453748209
 31
0.0
 12
47.8453510225
 22
281.7453748209
 32
0.0
 13
47.8453510225
 23
281.7453748209
 33
0.0
  0
SOLID
  5
1A2
330
4A9
100
AcDbEntity
  8
0
  6
Continuous
 62
     7
100
AcDbTrace
 10
48.2299664071
 20
311.2453748209
 30
0.0
 11
47.8453510225
 21
308.7453748209
 31
0.0
 12
48.6145817918
 22
308.7453748209
 32
0.0
 13
48.6145817918
 23
308.7453748209
 33
0.0
  0
LINE
  5
1A3
330
4A9
100
AcDbEntity
  8
0
  6
Continuous
 62
     7
100
AcDbLine
 10
66.2257594689
 20
279.2453748209
 30
0.0
 11
47.2299664071
 21
279.2453748209
 31
0.0
  0
LINE
  5
1A4
330
4A9
100
AcDbEntity
  8
0
  6
Continuous
 62
     7
100
AcDbLine
 10
66.2257594689
 20
311.2453748209
 30
0.0
 11
47.2299664071
 21
311.2453748209
 31
0.0
  0
LINE
  5
1A5
330
4A9
100
AcDbEntity
  8
0
  6
Continuous
 62
     7
100
AcDbLine
 10
48.2299664071
 20
279.2453748209
 30
0.0
 11
48.2299664071
 21
311.2453748209
 31
0.0
  0
TEXT
  5
1A6
330
4A9
100
AcDbEntity
  8
0
  6
Continuous
 62
     7
100
AcDbText
 10
-3171.9393828481
 20
296.7667770805
 30
8.1457613325
 40
2.5
  1
32
 50
90.0
 41
0.7
 11
-3174.4393828481
 21
296.7667770805
 31
8.1457613325
100
AcDbText
 73
     3
  0
ENDBLK
  5
1A0
330
4A9
100
AcDbEntity
  8
0
100
AcDbBlockEnd
  0
BLOCK
  5
4AA
330
4AB
100
AcDbEntity
  8
0
100
AcDbBlockBegin
  2
_D_18
 70
     0
 10
0.0
 20
0.0
 30
0.0
  3
_D_18
  1

  0
SOLID
  5
1AB
330
4AB
100
AcDbEntity
  8
0
  6
Continuous
 62
     7
100
AcDbTrace
 10
80.0847689631
 20
122.1936758252
 30
0.0
 11
82.5847689631
 21
121.8090604406
 31
0.0
 12
82.5847689631
 22
122.5782912098
 32
0.0
 13
82.5847689631
 23
122.5782912098
 33
0.0
  0
SOLID
  5
1AC
330
4AB
100
AcDbEntity
  8
0
  6
Continuous
 62
     7
100
AcDbTrace
 10
77.0847689631
 20
122.1936758252
 30
0.0
 11
74.5847689631
 21
122.5782912098
 31
0.0
 12
74.5847689631
 22
121.8090604406
 32
0.0
 13
74.5847689631
 23
121.8090604406
 33
0.0
  0
LINE
  5
1AD
330
4AB
100
AcDbEntity
  8
0
  6
Continuous
 62
     7
100
AcDbLine
 10
80.0847689631
 20
130.9453748209
 30
0.0
 11
80.0847689631
 21
121.1936758252
 31
0.0
  0
LINE
  5
1AE
330
4AB
100
AcDbEntity
  8
0
  6
Continuous
 62
     7
100
AcDbLine
 10
77.0847689631
 20
130.9453748209
 30
0.0
 11
77.0847689631
 21
121.1936758252
 31
0.0
  0
LINE
  5
1AF
330
4AB
100
AcDbEntity
  8
0
  6
Continuous
 62
     7
100
AcDbLine
 10
80.0847689631
 20
122.1936758252
 30
0.0
 11
84.8924612708
 21
122.1936758252
 31
0.0
  0
LINE
  5
1B0
330
4AB
100
AcDbEntity
  8
0
  6
Continuous
 62
     7
100
AcDbLine
 10
80.0847689631
 20
122.1936758252
 30
0.0
 11
77.0847689631
 21
122.1936758252
 31
0.0
  0
LINE
  5
1B1
330
4AB
100
AcDbEntity
  8
0
  6
Continuous
 62
     7
100
AcDbLine
 10
77.0847689631
 20
122.1936758252
 30
0.0
 11
60.4274661904
 21
122.1936758252
 31
0.0
  0
TEXT
  5
1B2
330
4AB
100
AcDbEntity
  8
0
  6
Continuous
 62
     7
100
AcDbText
 10
60.4274661904
 20
3342.3630250805
 30
8.1457613325
 40
2.5
  1
3
 41
0.7
 11
60.4274661904
 21
3344.8630250805
 31
8.1457613325
100
AcDbText
 73
     3
  0
ENDBLK
  5
1AA
330
4AB
100
AcDbEntity
  8
0
100
AcDbBlockEnd
  0
BLOCK
  5
4AC
330
4AD
100
AcDbEntity
  8
0
100
AcDbBlockBegin
  2
_D_19
 70
     0
 10
0.0
 20
0.0
 30
0.0
  3
_D_19
  1

  0
SOLID
  5
1B7
330
4AD
100
AcDbEntity
  8
0
  6
Continuous
 62
     7
100
AcDbTrace
 10
194.2569239789
 20
165.9453748209
 30
0.0
 11
193.8723085943
 21
163.4453748209
 31
0.0
 12
194.6415393635
 22
163.4453748209
 32
0.0
 13
194.6415393635
 23
163.4453748209
 33
0.0
  0
SOLID
  5
1B8
330
4AD
100
AcDbEntity
  8
0
  6
Continuous
 62
     7
100
AcDbTrace
 10
194.2569239789
 20
130.9453748209
 30
0.0
 11
194.6415393635
 21
133.4453748209
 31
0.0
 12
193.8723085943
 22
133.4453748209
 32
0.0
 13
193.8723085943
 23
133.4453748209
 33
0.0
  0
LINE
  5
1B9
330
4AD
100
AcDbEntity
  8
0
  6
Continuous
 62
     7
100
AcDbLine
 10
149.6705554007
 20
165.9453748209
 30
0.0
 11
195.2569239789
 21
165.9453748209
 31
0.0
  0
LINE
  5
1BA
330
4AD
100
AcDbEntity
  8
0
  6
Continuous
 62
     7
100
AcDbLine
 10
80.0847689631
 20
130.9453748209
 30
0.0
 11
195.2569239789
 21
130.9453748209
 31
0.0
  0
LINE
  5
1BB
330
4AD
100
AcDbEntity
  8
0
  6
Continuous
 62
     7
100
AcDbLine
 10
194.2569239789
 20
165.9453748209
 30
0.0
 11
194.2569239789
 21
130.9453748209
 31
0.0
  0
TEXT
  5
1BC
330
4AD
100
AcDbEntity
  8
0
  6
Continuous
 62
     7
100
AcDbText
 10
-3025.9124252764
 20
146.5356525961
 30
8.1457613325
 40
2.5
  1
35
 50
90.0
 41
0.7
 11
-3028.4124252764
 21
146.5356525961
 31
8.1457613325
100
AcDbText
 73
     3
  0
ENDBLK
  5
1B6
330
4AD
100
AcDbEntity
  8
0
100
AcDbBlockEnd
  0
BLOCK
  5
4AE
330
4AF
100
AcDbEntity
  8
0
100
AcDbBlockBegin
  2
_D_20
 70
     0
 10
0.0
 20
0.0
 30
0.0
  3
_D_20
  1

  0
SOLID
  5
1C1
330
4AF
100
AcDbEntity
  8
0
  6
Continuous
 62
     7
100
AcDbTrace
 10
137.0847689631
 20
154.6759801747
 30
0.0
 11
139.5847689631
 21
154.2913647901
 31
0.0
 12
139.5847689631
 22
155.0605955594
 32
0.0
 13
139.5847689631
 23
155.0605955594
 33
0.0
  0
SOLID
  5
1C2
330
4AF
100
AcDbEntity
  8
0
  6
Continuous
 62
     7
100
AcDbTrace
 10
127.0847689631
 20
154.6759801747
 30
0.0
 11
124.5847689631
 21
155.0605955594
 31
0.0
 12
124.5847689631
 22
154.2913647901
 32
0.0
 13
124.5847689631
 23
154.2913647901
 33
0.0
  0
LINE
  5
1C3
330
4AF
100
AcDbEntity
  8
0
  6
Continuous
 62
     7
100
AcDbLine
 10
137.0847689631
 20
182.3453748209
 30
0.0
 11
137.0847689631
 21
153.6759801747
 31
0.0
  0
LINE
  5
1C4
330
4AF
100
AcDbEntity
  8
0
  6
Continuous
 62
     7
100
AcDbLine
 10
127.0847689631
 20
177.8453748209
 30
0.0
 11
127.0847689631
 21
153.6759801747
 31
0.0
  0
LINE
  5
1C5
330
4AF
100
AcDbEntity
  8
0
  6
Continuous
 62
     7
100
AcDbLine
 10
137.0847689631
 20
154.6759801747
 30
0.0
 11
141.8924612708
 21
154.6759801747
 31
0.0
  0
LINE
  5
1C6
330
4AF
100
AcDbEntity
  8
0
  6
Continuous
 62
     7
100
AcDbLine
 10
137.0847689631
 20
154.6759801747
 30
0.0
 11
127.0847689631
 21
154.6759801747
 31
0.0
  0
LINE
  5
1C7
330
4AF
100
AcDbEntity
  8
0
  6
Continuous
 62
     7
100
AcDbLine
 10
127.0847689631
 20
154.6759801747
 30
0.0
 11
122.2770766554
 21
154.6759801747
 31
0.0
  0
TEXT
  5
1C8
330
4AF
100
AcDbEntity
  8
0
  6
Continuous
 62
     7
100
AcDbText
 10
130.1750467383
 20
3374.84532943
 30
8.1457613325
 40
2.5
  1
10
 41
0.7
 11
130.1750467383
 21
3377.34532943
 31
8.1457613325
100
AcDbText
 73
     3
  0
ENDBLK
  5
1C0
330
4AF
100
AcDbEntity
  8
0
100
AcDbBlockEnd
  0
BLOCK
  5
4B0
330
4B1
100
AcDbEntity
  8
0
100
AcDbBlockBegin
  2
_D_21
 70
     0
 10
0.0
 20
0.0
 30
0.0
  3
_D_21
  1

  0
SOLID
  5
1CD
330
4B1
100
AcDbEntity
  8
0
  6
Continuous
 62
     7
100
AcDbTrace
 10
147.0847689631
 20
154.6759801747
 30
0.0
 11
149.5847689631
 21
154.2913647901
 31
0.0
 12
149.5847689631
 22
155.0605955594
 32
0.0
 13
149.5847689631
 23
155.0605955594
 33
0.0
  0
SOLID
  5
1CE
330
4B1
100
AcDbEntity
  8
0
  6
Continuous
 62
     7
100
AcDbTrace
 10
137.0847689631
 20
154.6759801747
 30
0.0
 11
134.5847689631
 21
155.0605955594
 31
0.0
 12
134.5847689631
 22
154.2913647901
 32
0.0
 13
134.5847689631
 23
154.2913647901
 33
0.0
  0
LINE
  5
1CF
330
4B1
100
AcDbEntity
  8
0
  6
Continuous
 62
     7
100
AcDbLine
 10
147.0847689631
 20
177.8453748209
 30
0.0
 11
147.0847689631
 21
153.6759801747
 31
0.0
  0
LINE
  5
1D0
330
4B1
100
AcDbEntity
  8
0
  6
Continuous
 62
     7
100
AcDbLine
 10
137.0847689631
 20
182.3453748209
 30
0.0
 11
137.0847689631
 21
153.6759801747
 31
0.0
  0
LINE
  5
1D1
330
4B1
100
AcDbEntity
  8
0
  6
Continuous
 62
     7
100
AcDbLine
 10
147.0847689631
 20
154.6759801747
 30
0.0
 11
151.8924612708
 21
154.6759801747
 31
0.0
  0
LINE
  5
1D2
330
4B1
100
AcDbEntity
  8
0
  6
Continuous
 62
     7
100
AcDbLine
 10
147.0847689631
 20
154.6759801747
 30
0.0
 11
137.0847689631
 21
154.6759801747
 31
0.0
  0
LINE
  5
1D3
330
4B1
100
AcDbEntity
  8
0
  6
Continuous
 62
     7
100
AcDbLine
 10
137.0847689631
 20
154.6759801747
 30
0.0
 11
132.2770766554
 21
154.6759801747
 31
0.0
  0
TEXT
  5
1D4
330
4B1
100
AcDbEntity
  8
0
  6
Continuous
 62
     7
100
AcDbText
 10
140.1750467383
 20
3374.84532943
 30
8.1457613325
 40
2.5
  1
10
 41
0.7
 11
140.1750467383
 21
3377.34532943
 31
8.1457613325
100
AcDbText
 73
     3
  0
ENDBLK
  5
1CC
330
4B1
100
AcDbEntity
  8
0
100
AcDbBlockEnd
  0
BLOCK
  5
4B2
330
4B3
100
AcDbEntity
  8
0
100
AcDbBlockBegin
  2
_D_22
 70
     0
 10
0.0
 20
0.0
 30
0.0
  3
_D_22
  1

  0
SOLID
  5
1D9
330
4B3
100
AcDbEntity
  8
0
  6
Continuous
 62
     7
100
AcDbTrace
 10
109.5679727043
 20
195.9453748209
 30
0.0
 11
109.9525880889
 21
198.4453748209
 31
0.0
 12
109.1833573197
 22
198.4453748209
 32
0.0
 13
109.1833573197
 23
198.4453748209
 33
0.0
  0
SOLID
  5
1DA
330
4B3
100
AcDbEntity
  8
0
  6
Continuous
 62
     7
100
AcDbTrace
 10
109.5679727043
 20
182.9453748209
 30
0.0
 11
109.1833573197
 21
180.4453748209
 31
0.0
 12
109.9525880889
 22
180.4453748209
 32
0.0
 13
109.9525880889
 23
180.4453748209
 33
0.0
  0
LINE
  5
1DB
330
4B3
100
AcDbEntity
  8
0
  6
Continuous
 62
     7
100
AcDbLine
 10
123.4847689631
 20
195.9453748209
 30
0.0
 11
108.5679727043
 21
195.9453748209
 31
0.0
  0
LINE
  5
1DC
330
4B3
100
AcDbEntity
  8
0
  6
Continuous
 62
     7
100
AcDbLine
 10
121.9847689631
 20
182.9453748209
 30
0.0
 11
108.5679727043
 21
182.9453748209
 31
0.0
  0
LINE
  5
1DD
330
4B3
100
AcDbEntity
  8
0
  6
Continuous
 62
     7
100
AcDbLine
 10
109.5679727043
 20
195.9453748209
 30
0.0
 11
109.5679727043
 21
200.7530671286
 31
0.0
  0
LINE
  5
1DE
330
4B3
100
AcDbEntity
  8
0
  6
Continuous
 62
     7
100
AcDbLine
 10
109.5679727043
 20
195.9453748209
 30
0.0
 11
109.5679727043
 21
182.9453748209
 31
0.0
  0
LINE
  5
1DF
330
4B3
100
AcDbEntity
  8
0
  6
Continuous
 62
     7
100
AcDbLine
 10
109.5679727043
 20
182.9453748209
 30
0.0
 11
109.5679727043
 21
178.1376825133
 31
0.0
  0
TEXT
  5
1E0
330
4B3
100
AcDbEntity
  8
0
  6
Continuous
 62
     7
100
AcDbText
 10
-3110.601376551
 20
187.5356525961
 30
8.1457613325
 40
2.5
  1
13
 50
90.0
 41
0.7
 11
-3113.101376551
 21
187.5356525961
 31
8.1457613325
100
AcDbText
 73
     3
  0
ENDBLK
  5
1D8
330
4B3
100
AcDbEntity
  8
0
100
AcDbBlockEnd
  0
BLOCK
  5
4B4
330
4B5
100
AcDbEntity
  8
0
100
AcDbBlockBegin
  2
_D_23
 70
     0
 10
0.0
 20
0.0
 30
0.0
  3
_D_23
  1

  0
SOLID
  5
1E5
330
4B5
100
AcDbEntity
  8
0
  6
Continuous
 62
     7
100
AcDbTrace
 10
94.4369477733
 20
195.9453748209
 30
0.0
 11
94.821563158
 21
198.4453748209
 31
0.0
 12
94.0523323887
 22
198.4453748209
 32
0.0
 13
94.0523323887
 23
198.4453748209
 33
0.0
  0
SOLID
  5
1E6
330
4B5
100
AcDbEntity
  8
0
  6
Continuous
 62
     7
100
AcDbTrace
 10
94.4369477733
 20
181.4453748209
 30
0.0
 11
94.0523323887
 21
178.9453748209
 31
0.0
 12
94.821563158
 22
178.9453748209
 32
0.0
 13
94.821563158
 23
178.9453748209
 33
0.0
  0
LINE
  5
1E7
330
4B5
100
AcDbEntity
  8
0
  6
Continuous
 62
     7
100
AcDbLine
 10
123.4847689631
 20
195.9453748209
 30
0.0
 11
93.4369477733
 21
195.9453748209
 31
0.0
  0
LINE
  5
1E8
330
4B5
100
AcDbEntity
  8
0
  6
Continuous
 62
     7
100
AcDbLine
 10
122.010643153
 20
181.4453748209
 30
0.0
 11
93.4369477733
 21
181.4453748209
 31
0.0
  0
LINE
  5
1E9
330
4B5
100
AcDbEntity
  8
0
  6
Continuous
 62
     7
100
AcDbLine
 10
94.4369477733
 20
195.9453748209
 30
0.0
 11
94.4369477733
 21
200.7530671286
 31
0.0
  0
LINE
  5
1EA
330
4B5
100
AcDbEntity
  8
0
  6
Continuous
 62
     7
100
AcDbLine
 10
94.4369477733
 20
195.9453748209
 30
0.0
 11
94.4369477733
 21
181.4453748209
 31
0.0
  0
LINE
  5
1EB
330
4B5
100
AcDbEntity
  8
0
  6
Continuous
 62
     7
100
AcDbLine
 10
94.4369477733
 20
181.4453748209
 30
0.0
 11
94.4369477733
 21
176.6376825133
 31
0.0
  0
TEXT
  5
1EC
330
4B5
100
AcDbEntity
  8
0
  6
Continuous
 62
     7
100
AcDbText
 10
-3125.7324014819
 20
182.6814859552
 30
8.1457613325
 40
2.5
  1
14.5
 50
90.0
 41
0.7
 11
-3128.2324014819
 21
182.6814859552
 31
8.1457613325
100
AcDbText
 73
     3
  0
TEXT
  5
1ED
330
4B5
100
AcDbEntity
  8
0
  6
Continuous
 62
     7
100
AcDbText
 10
-3125.7324014819
 20
189.3655135674
 30
8.1457613325
 40
2.5
  1
 PZ
 50
90.0
 41
0.7
 11
-3128.2324014819
 21
189.3655135674
 31
8.1457613325
100
AcDbText
 73
     3
  0
ENDBLK
  5
1E4
330
4B5
100
AcDbEntity
  8
0
100
AcDbBlockEnd
  0
BLOCK
  5
4B6
330
4B7
100
AcDbEntity
  8
0
100
AcDbBlockBegin
  2
_D_24
 70
     0
 10
0.0
 20
0.0
 30
0.0
  3
_D_24
  1

  0
SOLID
  5
1F2
330
4B7
100
AcDbEntity
  8
0
  6
Continuous
 62
     7
100
AcDbTrace
 10
66.0847689631
 20
266.0137657941
 30
0.0
 11
63.5847689631
 21
266.3983811788
 31
0.0
 12
63.5847689631
 22
265.6291504095
 32
0.0
 13
63.5847689631
 23
265.6291504095
 33
0.0
  0
SOLID
  5
1F3
330
4B7
100
AcDbEntity
  8
0
  6
Continuous
 62
     7
100
AcDbTrace
 10
77.0847689631
 20
266.0137657941
 30
0.0
 11
79.5847689631
 21
265.6291504095
 31
0.0
 12
79.5847689631
 22
266.3983811788
 32
0.0
 13
79.5847689631
 23
266.3983811788
 33
0.0
  0
LINE
  5
1F4
330
4B7
100
AcDbEntity
  8
0
  6
Continuous
 62
     7
100
AcDbLine
 10
66.0847689631
 20
279.2453748209
 30
0.0
 11
66.0847689631
 21
265.0137657941
 31
0.0
  0
LINE
  5
1F5
330
4B7
100
AcDbEntity
  8
0
  6
Continuous
 62
     7
100
AcDbLine
 10
66.0847689631
 20
266.0137657941
 30
0.0
 11
61.2770766554
 21
266.0137657941
 31
0.0
  0
LINE
  5
1F6
330
4B7
100
AcDbEntity
  8
0
  6
Continuous
 62
     7
100
AcDbLine
 10
66.0847689631
 20
266.0137657941
 30
0.0
 11
77.0847689631
 21
266.0137657941
 31
0.0
  0
LINE
  5
1F7
330
4B7
100
AcDbEntity
  8
0
  6
Continuous
 62
     7
100
AcDbLine
 10
77.0847689631
 20
266.0137657941
 30
0.0
 11
81.8924612708
 21
266.0137657941
 31
0.0
  0
TEXT
  5
1F8
330
4B7
100
AcDbEntity
  8
0
  6
Continuous
 62
     7
100
AcDbText
 10
69.6750467383
 20
3486.1831150494
 30
8.1457613325
 40
2.5
  1
12
 41
0.7
 11
69.6750467383
 21
3488.6831150494
 31
8.1457613325
100
AcDbText
 73
     3
  0
ENDBLK
  5
1F1
330
4B7
100
AcDbEntity
  8
0
100
AcDbBlockEnd
  0
BLOCK
  5
4B8
330
4B9
100
AcDbEntity
  8
0
100
AcDbBlockBegin
  2
_D_25
 70
     0
 10
0.0
 20
0.0
 30
0.0
  3
_D_25
  1

  0
SOLID
  5
1FD
330
4B9
100
AcDbEntity
  8
0
  6
Continuous
 62
     7
100
AcDbTrace
 10
129.0051442617
 20
184.6981322807
 30
0.0
 11
131.1109426197
 21
186.0993968058
 31
0.0
 12
130.592375324
 22
186.6675551781
 32
0.0
 13
130.592375324
 23
186.6675551781
 33
0.0
  0
SOLID
  5
1FE
330
4B9
100
AcDbEntity
  8
0
  6
Continuous
 62
     7
100
AcDbTrace
 10
125.1643936645
 20
181.1926173612
 30
0.0
 11
123.0585953065
 21
179.7913528361
 31
0.0
 12
123.5771626023
 22
179.2231944638
 32
0.0
 13
123.5771626023
 23
179.2231944638
 33
0.0
  0
LINE
  5
1FF
330
4B9
100
AcDbEntity
  8
0
  6
Continuous
 62
     7
100
AcDbLine
 10
125.1643936645
 20
181.1926173612
 30
0.0
 11
114.474250969
 21
171.4355519746
 31
0.0
  0
LINE
  5
200
330
4B9
100
AcDbEntity
  8
0
  6
Continuous
 62
     7
100
AcDbLine
 10
129.0051442617
 20
184.6981322807
 30
0.0
 11
132.5561340889
 21
187.9391778793
 31
0.0
  0
LINE
  5
201
330
4B9
100
AcDbEntity
  8
0
  6
Continuous
 62
     7
100
AcDbLine
 10
125.1643936645
 20
181.1926173612
 30
0.0
 11
129.0051442617
 21
184.6981322807
 31
0.0
  0
TEXT
  5
202
330
4B9
100
AcDbEntity
  8
0
  6
Continuous
 62
     7
100
AcDbText
 10
-2056.348691103924
 20
2549.856326850533
 30
8.1457613325
 40
2.5
  1
%%c
 50
42.3872066913
 41
0.7
 11
-2058.0340348152
 21
2551.7028415607
 31
8.1457613325
100
AcDbText
 73
     3
  0
TEXT
  5
203
330
4B9
100
AcDbEntity
  8
0
  6
Continuous
 62
     7
100
AcDbText
 10
-2053.661179768825
 20
2552.318663849633
 30
8.1457613325
 40
2.5
  1
5.2
 50
42.3872066913
 41
0.7
 11
-2055.3465234801
 21
2554.1651785598
 31
8.1457613325
100
AcDbText
 73
     3
  0
ENDBLK
  5
1FC
330
4B9
100
AcDbEntity
  8
0
100
AcDbBlockEnd
  0
BLOCK
  5
4BA
330
4BB
100
AcDbEntity
  8
0
100
AcDbBlockBegin
  2
_D_26
 70
     0
 10
0.0
 20
0.0
 30
0.0
  3
_D_26
  1

  0
SOLID
  5
208
330
4BB
100
AcDbEntity
  8
0
  6
Continuous
 62
     7
100
AcDbTrace
 10
131.9307501789
 20
292.5954745847
 30
0.0
 11
129.418850228
 21
292.8926069303
 31
0.0
 12
129.4456959947
 22
292.1238447557
 32
0.0
 13
129.4456959947
 23
292.1238447557
 33
0.0
  0
SOLID
  5
209
330
4BB
100
AcDbEntity
  8
0
  6
Continuous
 62
     7
100
AcDbTrace
 10
140.9252676221
 20
292.9095700551
 30
0.0
 11
143.437167573
 21
292.6124377095
 31
0.0
 12
143.4103218063
 22
293.3811998841
 32
0.0
 13
143.4103218063
 23
293.3811998841
 33
0.0
  0
LINE
  5
20A
330
4BB
100
AcDbEntity
  8
0
  6
Continuous
 62
     7
100
AcDbLine
 10
132.4304625064
 20
278.2855858074
 30
0.0
 11
131.8958506822
 21
293.5948654118
 31
0.0
  0
LINE
  5
20B
330
4BB
100
AcDbEntity
  8
0
  6
Continuous
 62
     7
100
AcDbLine
 10
141.4249799495
 20
278.5996812777
 30
0.0
 11
140.8903681254
 21
293.9089608821
 31
0.0
  0
LINE
  5
20C
330
4BB
100
AcDbEntity
  8
0
  6
Continuous
 62
     7
100
AcDbLine
 10
131.9307501789
 20
292.5954745847
 30
0.0
 11
127.1259865875
 21
292.4276885429
 31
0.0
  0
LINE
  5
20D
330
4BB
100
AcDbEntity
  8
0
  6
Continuous
 62
     7
100
AcDbLine
 10
131.9307501789
 20
292.5954745847
 30
0.0
 11
140.9252676221
 21
292.9095700551
 31
0.0
  0
LINE
  5
20E
330
4BB
100
AcDbEntity
  8
0
  6
Continuous
 62
     7
100
AcDbLine
 10
140.9252676221
 20
292.9095700551
 30
0.0
 11
145.7300312135
 21
293.0773560969
 31
0.0
  0
INSERT
  5
216
330
4BB
100
AcDbEntity
  8
0
  6
Continuous
 62
     7
100
AcDbBlockReference
  2
SW_SYMBOL_MOD_BOX
 10
132.3041888508
 20
292.9700705077
 30
0.0
 41
0.0032226693
 42
0.0032226693
 43
0.0032226693
 50
2.0
  0
TEXT
  5
217
330
4BB
100
AcDbEntity
  8
0
  6
Continuous
 62
     7
100
AcDbText
 10
23.38528876135625
 20
3510.944117776252
 30
8.1457613325
 40
2.5
  1
8/
 50
2.0
 41
0.7
 11
23.2980400196
 21
3513.4425948438
 31
8.1457613325
100
AcDbText
 73
     3
  0
TEXT
  5
218
330
4BB
100
AcDbEntity
  8
0
  6
Continuous
 62
     7
100
AcDbText
 10
26.24812689735625
 20
3511.044090286852
 30
8.1457613325
 40
2.5
  1
9
 50
2.0
 41
0.7
 11
26.1608781556
 21
3513.5425673544
 31
8.1457613325
100
AcDbText
 73
     3
  0
ENDBLK
  5
207
330
4BB
100
AcDbEntity
  8
0
100
AcDbBlockEnd
  0
BLOCK
  5
4BC
330
4BD
100
AcDbEntity
  8
0
100
AcDbBlockBegin
  2
SW_SYMBOL_MOD_BOX
 70
     0
 10
0.0
 20
0.0
 30
0.0
  3
SW_SYMBOL_MOD_BOX
  1

  0
LINE
  5
212
330
4BD
100
AcDbEntity
  8
0
  6
Continuous
 62
     0
100
AcDbLine
 10
200.0
 20
200.0
 30
0.0
 11
800.0
 21
200.0
 31
0.0
  0
LINE
  5
213
330
4BD
100
AcDbEntity
  8
0
  6
Continuous
 62
     0
100
AcDbLine
 10
200.0
 20
200.0
 30
0.0
 11
200.0
 21
800.0
 31
0.0
  0
LINE
  5
214
330
4BD
100
AcDbEntity
  8
0
  6
Continuous
 62
     0
100
AcDbLine
 10
200.0
 20
800.0
 30
0.0
 11
800.0
 21
800.0
 31
0.0
  0
LINE
  5
215
330
4BD
100
AcDbEntity
  8
0
  6
Continuous
 62
     0
100
AcDbLine
 10
800.0
 20
800.0
 30
0.0
 11
800.0
 21
200.0
 31
0.0
  0
ENDBLK
  5
211
330
4BD
100
AcDbEntity
  8
0
100
AcDbBlockEnd
  0
BLOCK
  5
4BE
330
4BF
100
AcDbEntity
  8
0
100
AcDbBlockBegin
  2
_D_27
 70
     0
 10
0.0
 20
0.0
 30
0.0
  3
_D_27
  1

  0
SOLID
  5
21D
330
4BF
100
AcDbEntity
  8
0
  6
Continuous
 62
     7
100
AcDbTrace
 10
35.0847689631
 20
325.9453748209
 30
0.0
 11
34.7001535785
 21
323.4453748209
 31
0.0
 12
35.4693843477
 22
323.4453748209
 32
0.0
 13
35.4693843477
 23
323.4453748209
 33
0.0
  0
SOLID
  5
21E
330
4BF
100
AcDbEntity
  8
0
  6
Continuous
 62
     7
100
AcDbTrace
 10
35.0847689631
 20
295.2453748209
 30
0.0
 11
35.4693843477
 21
297.7453748209
 31
0.0
 12
34.7001535785
 22
297.7453748209
 32
0.0
 13
34.7001535785
 23
297.7453748209
 33
0.0
  0
LINE
  5
21F
330
4BF
100
AcDbEntity
  8
0
  6
Continuous
 62
     7
100
AcDbLine
 10
80.0847689631
 20
325.9453748209
 30
0.0
 11
34.0847689631
 21
325.9453748209
 31
0.0
  0
LINE
  5
220
330
4BF
100
AcDbEntity
  8
0
  6
Continuous
 62
     7
100
AcDbLine
 10
64.2257594689
 20
295.2453748209
 30
0.0
 11
34.0847689631
 21
295.2453748209
 31
0.0
  0
LINE
  5
221
330
4BF
100
AcDbEntity
  8
0
  6
Continuous
 62
     7
100
AcDbLine
 10
35.0847689631
 20
325.9453748209
 30
0.0
 11
35.0847689631
 21
295.2453748209
 31
0.0
  0
TEXT
  5
222
330
4BF
100
AcDbEntity
  8
0
  6
Continuous
 62
     7
100
AcDbText
 10
-3185.0845802922
 20
307.2533610148
 30
8.1457613325
 40
2.5
  1
30.7
 50
90.0
 41
0.7
 11
-3187.5845802922
 21
307.2533610148
 31
8.1457613325
100
AcDbText
 73
     3
  0
ENDBLK
  5
21C
330
4BF
100
AcDbEntity
  8
0
100
AcDbBlockEnd
  0
BLOCK
  5
4C0
330
4C1
100
AcDbEntity
  8
0
100
AcDbBlockBegin
  2
SW_NOTE_0
 70
     0
 10
0.0
 20
0.0
 30
0.0
  3
SW_NOTE_0
  1

  0
LINE
  5
226
330
4C1
100
AcDbEntity
  8
0
  6
Continuous
 62
     0
100
AcDbLine
 10
-7.3488553074
 20
9.0373392647
 30
0.0
 11
-2.858546597
 21
9.0373392647
 31
0.0
  0
TEXT
  5
227
330
4C1
100
AcDbEntity
  8
0
  6
Continuous
 62
     0
100
AcDbText
 10
-7.8330729901
 20
3229.2487708508
 30
0.0
 40
2.5
  1
PZ
 41
0.7
 11
-7.8330729901
 21
3231.7487708508
 31
0.0
100
AcDbText
 73
     3
  0
LINE
  5
228
330
4C1
100
AcDbEntity
  8
0
  6
Continuous
 62
     0
100
AcDbLine
 10
-2.858546597
 20
9.0373392647
 30
0.0
 11
0.0
 21
0.0
 31
0.0
  0
SOLID
  5
229
330
4C1
100
AcDbEntity
  8
0
  6
Continuous
 62
     0
100
AcDbTrace
 10
0.0
 20
0.0
 30
0.0
 11
-0.3872352187
 21
2.4995955432
 31
0.0
 12
-1.1206519037
 22
2.267612909
 32
0.0
 13
-1.1206519037
 23
2.267612909
 33
0.0
  0
ENDBLK
  5
225
330
4C1
100
AcDbEntity
  8
0
100
AcDbBlockEnd
  0
BLOCK
  5
4C2
330
4C3
100
AcDbEntity
  8
0
100
AcDbBlockBegin
  2
SW_CENTERMARKSYMBOL_0
 70
     0
 10
0.0
 20
0.0
 30
0.0
  3
SW_CENTERMARKSYMBOL_0
  1

  0
LINE
  5
22E
330
4C3
100
AcDbEntity
  8
0
  6
Continuous
 62
     0
100
AcDbLine
 10
0.0
 20
0.0
 30
0.0
 11
0.0
 21
2.5
 31
0.0
  0
LINE
  5
22F
330
4C3
100
AcDbEntity
  8
0
  6
Continuous
 62
     0
100
AcDbLine
 10
0.0
 20
0.0
 30
0.0
 11
-2.5
 21
0.0
 31
0.0
  0
LINE
  5
230
330
4C3
100
AcDbEntity
  8
0
  6
Continuous
 62
     0
100
AcDbLine
 10
0.0
 20
0.0
 30
0.0
 11
0.0
 21
-2.5
 31
0.0
  0
LINE
  5
231
330
4C3
100
AcDbEntity
  8
0
  6
Continuous
 62
     0
100
AcDbLine
 10
0.0
 20
0.0
 30
0.0
 11
2.5
 21
0.0
 31
0.0
  0
LINE
  5
232
330
4C3
100
AcDbEntity
  8
0
  6
Continuous
 62
     0
100
AcDbLine
 10
0.0
 20
5.0
 30
0.0
 11
0.0
 21
11.15
 31
0.0
  0
LINE
  5
233
330
4C3
100
AcDbEntity
  8
0
  6
Continuous
 62
     0
100
AcDbLine
 10
-5.0
 20
0.0
 30
0.0
 11
-11.15
 21
0.0
 31
0.0
  0
LINE
  5
234
330
4C3
100
AcDbEntity
  8
0
  6
Continuous
 62
     0
100
AcDbLine
 10
0.0
 20
-5.0
 30
0.0
 11
0.0
 21
-11.15
 31
0.0
  0
LINE
  5
235
330
4C3
100
AcDbEntity
  8
0
  6
Continuous
 62
     0
100
AcDbLine
 10
5.0
 20
0.0
 30
0.0
 11
11.15
 21
0.0
 31
0.0
  0
ENDBLK
  5
22D
330
4C3
100
AcDbEntity
  8
0
100
AcDbBlockEnd
  0
BLOCK
  5
4C4
330
4C5
100
AcDbEntity
  8
0
100
AcDbBlockBegin
  2
SW_CENTERMARKSYMBOL_1
 70
     0
 10
0.0
 20
0.0
 30
0.0
  3
SW_CENTERMARKSYMBOL_1
  1

  0
LINE
  5
23A
330
4C5
100
AcDbEntity
  8
0
  6
Continuous
 62
     0
100
AcDbLine
 10
0.0
 20
0.0
 30
0.0
 11
0.0
 21
2.5
 31
0.0
  0
LINE
  5
23B
330
4C5
100
AcDbEntity
  8
0
  6
Continuous
 62
     0
100
AcDbLine
 10
0.0
 20
0.0
 30
0.0
 11
-2.5
 21
0.0
 31
0.0
  0
LINE
  5
23C
330
4C5
100
AcDbEntity
  8
0
  6
Continuous
 62
     0
100
AcDbLine
 10
0.0
 20
0.0
 30
0.0
 11
0.0
 21
-2.5
 31
0.0
  0
LINE
  5
23D
330
4C5
100
AcDbEntity
  8
0
  6
Continuous
 62
     0
100
AcDbLine
 10
0.0
 20
0.0
 30
0.0
 11
2.5
 21
0.0
 31
0.0
  0
LINE
  5
23E
330
4C5
100
AcDbEntity
  8
0
  6
Continuous
 62
     0
100
AcDbLine
 10
0.0
 20
5.0
 30
0.0
 11
0.0
 21
5.75
 31
0.0
  0
LINE
  5
23F
330
4C5
100
AcDbEntity
  8
0
  6
Continuous
 62
     0
100
AcDbLine
 10
-5.0
 20
0.0
 30
0.0
 11
-5.75
 21
0.0
 31
0.0
  0
LINE
  5
240
330
4C5
100
AcDbEntity
  8
0
  6
Continuous
 62
     0
100
AcDbLine
 10
0.0
 20
-5.0
 30
0.0
 11
0.0
 21
-5.75
 31
0.0
  0
LINE
  5
241
330
4C5
100
AcDbEntity
  8
0
  6
Continuous
 62
     0
100
AcDbLine
 10
5.0
 20
0.0
 30
0.0
 11
5.75
 21
0.0
 31
0.0
  0
ENDBLK
  5
239
330
4C5
100
AcDbEntity
  8
0
100
AcDbBlockEnd
  0
BLOCK
  5
4C6
330
4C7
100
AcDbEntity
  8
0
100
AcDbBlockBegin
  2
SW_CENTERMARKSYMBOL_2
 70
     0
 10
0.0
 20
0.0
 30
0.0
  3
SW_CENTERMARKSYMBOL_2
  1

  0
LINE
  5
246
330
4C7
100
AcDbEntity
  8
0
  6
Continuous
 62
     0
100
AcDbLine
 10
0.0
 20
0.0
 30
0.0
 11
0.0
 21
2.5
 31
0.0
  0
LINE
  5
247
330
4C7
100
AcDbEntity
  8
0
  6
Continuous
 62
     0
100
AcDbLine
 10
0.0
 20
0.0
 30
0.0
 11
-2.5
 21
0.0
 31
0.0
  0
LINE
  5
248
330
4C7
100
AcDbEntity
  8
0
  6
Continuous
 62
     0
100
AcDbLine
 10
0.0
 20
0.0
 30
0.0
 11
0.0
 21
-2.5
 31
0.0
  0
LINE
  5
249
330
4C7
100
AcDbEntity
  8
0
  6
Continuous
 62
     0
100
AcDbLine
 10
0.0
 20
0.0
 30
0.0
 11
2.5
 21
0.0
 31
0.0
  0
LINE
  5
24A
330
4C7
100
AcDbEntity
  8
0
  6
Continuous
 62
     0
100
AcDbLine
 10
0.0
 20
5.0
 30
0.0
 11
0.0
 21
5.75
 31
0.0
  0
LINE
  5
24B
330
4C7
100
AcDbEntity
  8
0
  6
Continuous
 62
     0
100
AcDbLine
 10
-5.0
 20
0.0
 30
0.0
 11
-5.75
 21
0.0
 31
0.0
  0
LINE
  5
24C
330
4C7
100
AcDbEntity
  8
0
  6
Continuous
 62
     0
100
AcDbLine
 10
0.0
 20
-5.0
 30
0.0
 11
0.0
 21
-5.75
 31
0.0
  0
LINE
  5
24D
330
4C7
100
AcDbEntity
  8
0
  6
Continuous
 62
     0
100
AcDbLine
 10
5.0
 20
0.0
 30
0.0
 11
5.75
 21
0.0
 31
0.0
  0
ENDBLK
  5
245
330
4C7
100
AcDbEntity
  8
0
100
AcDbBlockEnd
  0
BLOCK
  5
4C8
330
4C9
100
AcDbEntity
  8
0
100
AcDbBlockBegin
  2
SW_CENTERMARKSYMBOL_3
 70
     0
 10
0.0
 20
0.0
 30
0.0
  3
SW_CENTERMARKSYMBOL_3
  1

  0
LINE
  5
252
330
4C9
100
AcDbEntity
  8
0
  6
Continuous
 62
     0
100
AcDbLine
 10
0.0
 20
0.0
 30
0.0
 11
0.0
 21
2.5
 31
0.0
  0
LINE
  5
253
330
4C9
100
AcDbEntity
  8
0
  6
Continuous
 62
     0
100
AcDbLine
 10
0.0
 20
0.0
 30
0.0
 11
-2.5
 21
0.0
 31
0.0
  0
LINE
  5
254
330
4C9
100
AcDbEntity
  8
0
  6
Continuous
 62
     0
100
AcDbLine
 10
0.0
 20
0.0
 30
0.0
 11
0.0
 21
-2.5
 31
0.0
  0
LINE
  5
255
330
4C9
100
AcDbEntity
  8
0
  6
Continuous
 62
     0
100
AcDbLine
 10
0.0
 20
0.0
 30
0.0
 11
2.5
 21
0.0
 31
0.0
  0
LINE
  5
256
330
4C9
100
AcDbEntity
  8
0
  6
Continuous
 62
     0
100
AcDbLine
 10
0.0
 20
5.0
 30
0.0
 11
0.0
 21
6.25
 31
0.0
  0
LINE
  5
257
330
4C9
100
AcDbEntity
  8
0
  6
Continuous
 62
     0
100
AcDbLine
 10
-5.0
 20
0.0
 30
0.0
 11
-6.25
 21
0.0
 31
0.0
  0
LINE
  5
258
330
4C9
100
AcDbEntity
  8
0
  6
Continuous
 62
     0
100
AcDbLine
 10
0.0
 20
-5.0
 30
0.0
 11
0.0
 21
-6.25
 31
0.0
  0
LINE
  5
259
330
4C9
100
AcDbEntity
  8
0
  6
Continuous
 62
     0
100
AcDbLine
 10
5.0
 20
0.0
 30
0.0
 11
6.25
 21
0.0
 31
0.0
  0
ENDBLK
  5
251
330
4C9
100
AcDbEntity
  8
0
100
AcDbBlockEnd
  0
BLOCK
  5
4CA
330
4CB
100
AcDbEntity
  8
0
100
AcDbBlockBegin
  2
SW_CENTERMARKSYMBOL_4
 70
     0
 10
0.0
 20
0.0
 30
0.0
  3
SW_CENTERMARKSYMBOL_4
  1

  0
LINE
  5
25E
330
4CB
100
AcDbEntity
  8
0
  6
Continuous
 62
     0
100
AcDbLine
 10
0.0
 20
0.0
 30
0.0
 11
0.0
 21
2.5
 31
0.0
  0
LINE
  5
25F
330
4CB
100
AcDbEntity
  8
0
  6
Continuous
 62
     0
100
AcDbLine
 10
0.0
 20
0.0
 30
0.0
 11
-2.5
 21
0.0
 31
0.0
  0
LINE
  5
260
330
4CB
100
AcDbEntity
  8
0
  6
Continuous
 62
     0
100
AcDbLine
 10
0.0
 20
0.0
 30
0.0
 11
0.0
 21
-2.5
 31
0.0
  0
LINE
  5
261
330
4CB
100
AcDbEntity
  8
0
  6
Continuous
 62
     0
100
AcDbLine
 10
0.0
 20
0.0
 30
0.0
 11
2.5
 21
0.0
 31
0.0
  0
LINE
  5
262
330
4CB
100
AcDbEntity
  8
0
  6
Continuous
 62
     0
100
AcDbLine
 10
0.0
 20
5.0
 30
0.0
 11
0.0
 21
5.75
 31
0.0
  0
LINE
  5
263
330
4CB
100
AcDbEntity
  8
0
  6
Continuous
 62
     0
100
AcDbLine
 10
-5.0
 20
0.0
 30
0.0
 11
-5.75
 21
0.0
 31
0.0
  0
LINE
  5
264
330
4CB
100
AcDbEntity
  8
0
  6
Continuous
 62
     0
100
AcDbLine
 10
0.0
 20
-5.0
 30
0.0
 11
0.0
 21
-5.75
 31
0.0
  0
LINE
  5
265
330
4CB
100
AcDbEntity
  8
0
  6
Continuous
 62
     0
100
AcDbLine
 10
5.0
 20
0.0
 30
0.0
 11
5.75
 21
0.0
 31
0.0
  0
ENDBLK
  5
25D
330
4CB
100
AcDbEntity
  8
0
100
AcDbBlockEnd
  0
BLOCK
  5
4CC
330
4CD
100
AcDbEntity
  8
0
100
AcDbBlockBegin
  2
SW_CENTERMARKSYMBOL_5
 70
     0
 10
0.0
 20
0.0
 30
0.0
  3
SW_CENTERMARKSYMBOL_5
  1

  0
LINE
  5
26A
330
4CD
100
AcDbEntity
  8
0
  6
Continuous
 62
     0
100
AcDbLine
 10
0.0
 20
0.0
 30
0.0
 11
0.0
 21
2.5
 31
0.0
  0
LINE
  5
26B
330
4CD
100
AcDbEntity
  8
0
  6
Continuous
 62
     0
100
AcDbLine
 10
0.0
 20
0.0
 30
0.0
 11
-2.5
 21
0.0
 31
0.0
  0
LINE
  5
26C
330
4CD
100
AcDbEntity
  8
0
  6
Continuous
 62
     0
100
AcDbLine
 10
0.0
 20
0.0
 30
0.0
 11
0.0
 21
-2.5
 31
0.0
  0
LINE
  5
26D
330
4CD
100
AcDbEntity
  8
0
  6
Continuous
 62
     0
100
AcDbLine
 10
0.0
 20
0.0
 30
0.0
 11
2.5
 21
0.0
 31
0.0
  0
LINE
  5
26E
330
4CD
100
AcDbEntity
  8
0
  6
Continuous
 62
     0
100
AcDbLine
 10
0.0
 20
5.0
 30
0.0
 11
0.0
 21
5.75
 31
0.0
  0
LINE
  5
26F
330
4CD
100
AcDbEntity
  8
0
  6
Continuous
 62
     0
100
AcDbLine
 10
-5.0
 20
0.0
 30
0.0
 11
-5.75
 21
0.0
 31
0.0
  0
LINE
  5
270
330
4CD
100
AcDbEntity
  8
0
  6
Continuous
 62
     0
100
AcDbLine
 10
0.0
 20
-5.0
 30
0.0
 11
0.0
 21
-5.75
 31
0.0
  0
LINE
  5
271
330
4CD
100
AcDbEntity
  8
0
  6
Continuous
 62
     0
100
AcDbLine
 10
5.0
 20
0.0
 30
0.0
 11
5.75
 21
0.0
 31
0.0
  0
ENDBLK
  5
269
330
4CD
100
AcDbEntity
  8
0
100
AcDbBlockEnd
  0
BLOCK
  5
4CE
330
4CF
100
AcDbEntity
  8
0
100
AcDbBlockBegin
  2
SW_CENTERMARKSYMBOL_6
 70
     0
 10
0.0
 20
0.0
 30
0.0
  3
SW_CENTERMARKSYMBOL_6
  1

  0
LINE
  5
276
330
4CF
100
AcDbEntity
  8
0
  6
Continuous
 62
     0
100
AcDbLine
 10
0.0
 20
0.0
 30
0.0
 11
0.0
 21
2.5
 31
0.0
  0
LINE
  5
277
330
4CF
100
AcDbEntity
  8
0
  6
Continuous
 62
     0
100
AcDbLine
 10
0.0
 20
0.0
 30
0.0
 11
-2.5
 21
0.0
 31
0.0
  0
LINE
  5
278
330
4CF
100
AcDbEntity
  8
0
  6
Continuous
 62
     0
100
AcDbLine
 10
0.0
 20
0.0
 30
0.0
 11
0.0
 21
-2.5
 31
0.0
  0
LINE
  5
279
330
4CF
100
AcDbEntity
  8
0
  6
Continuous
 62
     0
100
AcDbLine
 10
0.0
 20
0.0
 30
0.0
 11
2.5
 21
0.0
 31
0.0
  0
LINE
  5
27A
330
4CF
100
AcDbEntity
  8
0
  6
Continuous
 62
     0
100
AcDbLine
 10
0.0
 20
5.0
 30
0.0
 11
0.0
 21
13.6
 31
0.0
  0
LINE
  5
27B
330
4CF
100
AcDbEntity
  8
0
  6
Continuous
 62
     0
100
AcDbLine
 10
-5.0
 20
0.0
 30
0.0
 11
-13.6
 21
0.0
 31
0.0
  0
LINE
  5
27C
330
4CF
100
AcDbEntity
  8
0
  6
Continuous
 62
     0
100
AcDbLine
 10
0.0
 20
-5.0
 30
0.0
 11
0.0
 21
-13.6
 31
0.0
  0
LINE
  5
27D
330
4CF
100
AcDbEntity
  8
0
  6
Continuous
 62
     0
100
AcDbLine
 10
5.0
 20
0.0
 30
0.0
 11
13.6
 21
0.0
 31
0.0
  0
ENDBLK
  5
275
330
4CF
100
AcDbEntity
  8
0
100
AcDbBlockEnd
  0
BLOCK
  5
4D0
330
4D1
100
AcDbEntity
  8
0
100
AcDbBlockBegin
  2
SW_CENTERMARKSYMBOL_7
 70
     0
 10
0.0
 20
0.0
 30
0.0
  3
SW_CENTERMARKSYMBOL_7
  1

  0
LINE
  5
282
330
4D1
100
AcDbEntity
  8
0
  6
Continuous
 62
     0
100
AcDbLine
 10
0.0
 20
0.0
 30
0.0
 11
0.0
 21
2.5
 31
0.0
  0
LINE
  5
283
330
4D1
100
AcDbEntity
  8
0
  6
Continuous
 62
     0
100
AcDbLine
 10
0.0
 20
0.0
 30
0.0
 11
-2.5
 21
0.0
 31
0.0
  0
LINE
  5
284
330
4D1
100
AcDbEntity
  8
0
  6
Continuous
 62
     0
100
AcDbLine
 10
0.0
 20
0.0
 30
0.0
 11
0.0
 21
-2.5
 31
0.0
  0
LINE
  5
285
330
4D1
100
AcDbEntity
  8
0
  6
Continuous
 62
     0
100
AcDbLine
 10
0.0
 20
0.0
 30
0.0
 11
2.5
 21
0.0
 31
0.0
  0
LINE
  5
286
330
4D1
100
AcDbEntity
  8
0
  6
Continuous
 62
     0
100
AcDbLine
 10
0.0
 20
5.0
 30
0.0
 11
0.0
 21
5.1
 31
0.0
  0
LINE
  5
287
330
4D1
100
AcDbEntity
  8
0
  6
Continuous
 62
     0
100
AcDbLine
 10
-5.0
 20
0.0
 30
0.0
 11
-5.1
 21
0.0
 31
0.0
  0
LINE
  5
288
330
4D1
100
AcDbEntity
  8
0
  6
Continuous
 62
     0
100
AcDbLine
 10
0.0
 20
-5.0
 30
0.0
 11
0.0
 21
-5.1
 31
0.0
  0
LINE
  5
289
330
4D1
100
AcDbEntity
  8
0
  6
Continuous
 62
     0
100
AcDbLine
 10
5.0
 20
0.0
 30
0.0
 11
5.1
 21
0.0
 31
0.0
  0
ENDBLK
  5
281
330
4D1
100
AcDbEntity
  8
0
100
AcDbBlockEnd
  0
BLOCK
  5
4D2
330
4D3
100
AcDbEntity
  8
0
100
AcDbBlockBegin
  2
SW_CENTERMARKSYMBOL_8
 70
     0
 10
0.0
 20
0.0
 30
0.0
  3
SW_CENTERMARKSYMBOL_8
  1

  0
LINE
  5
28E
330
4D3
100
AcDbEntity
  8
0
  6
Continuous
 62
     0
100
AcDbLine
 10
0.0
 20
0.0
 30
0.0
 11
0.0
 21
2.5
 31
0.0
  0
LINE
  5
28F
330
4D3
100
AcDbEntity
  8
0
  6
Continuous
 62
     0
100
AcDbLine
 10
0.0
 20
0.0
 30
0.0
 11
-2.5
 21
0.0
 31
0.0
  0
LINE
  5
290
330
4D3
100
AcDbEntity
  8
0
  6
Continuous
 62
     0
100
AcDbLine
 10
0.0
 20
0.0
 30
0.0
 11
0.0
 21
-2.5
 31
0.0
  0
LINE
  5
291
330
4D3
100
AcDbEntity
  8
0
  6
Continuous
 62
     0
100
AcDbLine
 10
0.0
 20
0.0
 30
0.0
 11
2.5
 21
0.0
 31
0.0
  0
LINE
  5
292
330
4D3
100
AcDbEntity
  8
0
  6
Continuous
 62
     0
100
AcDbLine
 10
0.0
 20
5.0
 30
0.0
 11
0.0
 21
5.1
 31
0.0
  0
LINE
  5
293
330
4D3
100
AcDbEntity
  8
0
  6
Continuous
 62
     0
100
AcDbLine
 10
-5.0
 20
0.0
 30
0.0
 11
-5.1
 21
0.0
 31
0.0
  0
LINE
  5
294
330
4D3
100
AcDbEntity
  8
0
  6
Continuous
 62
     0
100
AcDbLine
 10
0.0
 20
-5.0
 30
0.0
 11
0.0
 21
-5.1
 31
0.0
  0
LINE
  5
295
330
4D3
100
AcDbEntity
  8
0
  6
Continuous
 62
     0
100
AcDbLine
 10
5.0
 20
0.0
 30
0.0
 11
5.1
 21
0.0
 31
0.0
  0
ENDBLK
  5
28D
330
4D3
100
AcDbEntity
  8
0
100
AcDbBlockEnd
  0
BLOCK
  5
4D4
330
4D5
100
AcDbEntity
  8
0
100
AcDbBlockBegin
  2
SW_CENTERMARKSYMBOL_9
 70
     0
 10
0.0
 20
0.0
 30
0.0
  3
SW_CENTERMARKSYMBOL_9
  1

  0
LINE
  5
29A
330
4D5
100
AcDbEntity
  8
0
  6
Continuous
 62
     0
100
AcDbLine
 10
0.0
 20
0.0
 30
0.0
 11
0.0
 21
2.5
 31
0.0
  0
LINE
  5
29B
330
4D5
100
AcDbEntity
  8
0
  6
Continuous
 62
     0
100
AcDbLine
 10
0.0
 20
0.0
 30
0.0
 11
-2.5
 21
0.0
 31
0.0
  0
LINE
  5
29C
330
4D5
100
AcDbEntity
  8
0
  6
Continuous
 62
     0
100
AcDbLine
 10
0.0
 20
0.0
 30
0.0
 11
0.0
 21
-2.5
 31
0.0
  0
LINE
  5
29D
330
4D5
100
AcDbEntity
  8
0
  6
Continuous
 62
     0
100
AcDbLine
 10
0.0
 20
0.0
 30
0.0
 11
2.5
 21
0.0
 31
0.0
  0
LINE
  5
29E
330
4D5
100
AcDbEntity
  8
0
  6
Continuous
 62
     0
100
AcDbLine
 10
0.0
 20
5.0
 30
0.0
 11
0.0
 21
5.1
 31
0.0
  0
LINE
  5
29F
330
4D5
100
AcDbEntity
  8
0
  6
Continuous
 62
     0
100
AcDbLine
 10
-5.0
 20
0.0
 30
0.0
 11
-5.1
 21
0.0
 31
0.0
  0
LINE
  5
2A0
330
4D5
100
AcDbEntity
  8
0
  6
Continuous
 62
     0
100
AcDbLine
 10
0.0
 20
-5.0
 30
0.0
 11
0.0
 21
-5.1
 31
0.0
  0
LINE
  5
2A1
330
4D5
100
AcDbEntity
  8
0
  6
Continuous
 62
     0
100
AcDbLine
 10
5.0
 20
0.0
 30
0.0
 11
5.1
 21
0.0
 31
0.0
  0
ENDBLK
  5
299
330
4D5
100
AcDbEntity
  8
0
100
AcDbBlockEnd
  0
BLOCK
  5
4D6
330
4D7
100
AcDbEntity
  8
0
100
AcDbBlockBegin
  2
SW_CENTERMARKSYMBOL_10
 70
     0
 10
0.0
 20
0.0
 30
0.0
  3
SW_CENTERMARKSYMBOL_10
  1

  0
LINE
  5
2A6
330
4D7
100
AcDbEntity
  8
0
  6
Continuous
 62
     0
100
AcDbLine
 10
0.0
 20
0.0
 30
0.0
 11
0.0
 21
2.5
 31
0.0
  0
LINE
  5
2A7
330
4D7
100
AcDbEntity
  8
0
  6
Continuous
 62
     0
100
AcDbLine
 10
0.0
 20
0.0
 30
0.0
 11
-2.5
 21
0.0
 31
0.0
  0
LINE
  5
2A8
330
4D7
100
AcDbEntity
  8
0
  6
Continuous
 62
     0
100
AcDbLine
 10
0.0
 20
0.0
 30
0.0
 11
0.0
 21
-2.5
 31
0.0
  0
LINE
  5
2A9
330
4D7
100
AcDbEntity
  8
0
  6
Continuous
 62
     0
100
AcDbLine
 10
0.0
 20
0.0
 30
0.0
 11
2.5
 21
0.0
 31
0.0
  0
LINE
  5
2AA
330
4D7
100
AcDbEntity
  8
0
  6
Continuous
 62
     0
100
AcDbLine
 10
0.0
 20
5.0
 30
0.0
 11
0.0
 21
5.1
 31
0.0
  0
LINE
  5
2AB
330
4D7
100
AcDbEntity
  8
0
  6
Continuous
 62
     0
100
AcDbLine
 10
-5.0
 20
0.0
 30
0.0
 11
-5.1
 21
0.0
 31
0.0
  0
LINE
  5
2AC
330
4D7
100
AcDbEntity
  8
0
  6
Continuous
 62
     0
100
AcDbLine
 10
0.0
 20
-5.0
 30
0.0
 11
0.0
 21
-5.1
 31
0.0
  0
LINE
  5
2AD
330
4D7
100
AcDbEntity
  8
0
  6
Continuous
 62
     0
100
AcDbLine
 10
5.0
 20
0.0
 30
0.0
 11
5.1
 21
0.0
 31
0.0
  0
ENDBLK
  5
2A5
330
4D7
100
AcDbEntity
  8
0
100
AcDbBlockEnd
  0
BLOCK
  5
4D8
330
4D9
100
AcDbEntity
  8
0
100
AcDbBlockBegin
  2
_D_28
 70
     0
 10
0.0
 20
0.0
 30
0.0
  3
_D_28
  1

  0
SOLID
  5
3A9
330
4D9
100
AcDbEntity
  8
0
  6
Continuous
 62
     7
100
AcDbTrace
 10
229.8980970029
 20
252.8534773957
 30
0.0
 11
227.3980970029
 21
253.2380927804
 31
0.0
 12
227.3980970029
 22
252.4688620111
 32
0.0
 13
227.3980970029
 23
252.4688620111
 33
0.0
  0
SOLID
  5
3AA
330
4D9
100
AcDbEntity
  8
0
  6
Continuous
 62
     7
100
AcDbTrace
 10
237.8980970029
 20
252.8534773957
 30
0.0
 11
240.3980970029
 21
252.4688620111
 31
0.0
 12
240.3980970029
 22
253.2380927804
 32
0.0
 13
240.3980970029
 23
253.2380927804
 33
0.0
  0
LINE
  5
3AB
330
4D9
100
AcDbEntity
  8
0
  6
Continuous
 62
     7
100
AcDbLine
 10
229.8980970029
 20
234.6453748209
 30
0.0
 11
229.8980970029
 21
253.8534773957
 31
0.0
  0
LINE
  5
3AC
330
4D9
100
AcDbEntity
  8
0
  6
Continuous
 62
     7
100
AcDbLine
 10
237.8980970029
 20
234.6453748209
 30
0.0
 11
237.8980970029
 21
253.8534773957
 31
0.0
  0
LINE
  5
3AD
330
4D9
100
AcDbEntity
  8
0
  6
Continuous
 62
     7
100
AcDbLine
 10
229.8980970029
 20
252.8534773957
 30
0.0
 11
225.0904046952
 21
252.8534773957
 31
0.0
  0
LINE
  5
3AE
330
4D9
100
AcDbEntity
  8
0
  6
Continuous
 62
     7
100
AcDbLine
 10
229.8980970029
 20
252.8534773957
 30
0.0
 11
237.8980970029
 21
252.8534773957
 31
0.0
  0
LINE
  5
3AF
330
4D9
100
AcDbEntity
  8
0
  6
Continuous
 62
     7
100
AcDbLine
 10
237.8980970029
 20
252.8534773957
 30
0.0
 11
242.7057893106
 21
252.8534773957
 31
0.0
  0
TEXT
  5
3B0
330
4D9
100
AcDbEntity
  8
0
  6
Continuous
 62
     7
100
AcDbText
 10
232.9432358905
 20
3473.022826651
 30
-53.1655918467
 40
2.5
  1
8
 41
0.7
 11
232.9432358905
 21
3475.522826651
 31
-53.1655918467
100
AcDbText
 73
     3
  0
ENDBLK
  5
3A8
330
4D9
100
AcDbEntity
  8
0
100
AcDbBlockEnd
  0
BLOCK
  5
4DA
330
4DB
100
AcDbEntity
  8
0
100
AcDbBlockBegin
  2
_D_29
 70
     0
 10
0.0
 20
0.0
 30
0.0
  3
_D_29
  1

  0
SOLID
  5
3B5
330
4DB
100
AcDbEntity
  8
0
  6
Continuous
 62
     7
100
AcDbTrace
 10
239.8980970029
 20
269.5936136417
 30
0.0
 11
242.3980970029
 21
269.2089982571
 31
0.0
 12
242.3980970029
 22
269.9782290263
 32
0.0
 13
242.3980970029
 23
269.9782290263
 33
0.0
  0
SOLID
  5
3B6
330
4DB
100
AcDbEntity
  8
0
  6
Continuous
 62
     7
100
AcDbTrace
 10
227.8980970029
 20
269.5936136417
 30
0.0
 11
225.3980970029
 21
269.9782290263
 31
0.0
 12
225.3980970029
 22
269.2089982571
 32
0.0
 13
225.3980970029
 23
269.2089982571
 33
0.0
  0
LINE
  5
3B7
330
4DB
100
AcDbEntity
  8
0
  6
Continuous
 62
     7
100
AcDbLine
 10
239.8980970029
 20
283.2271042529
 30
0.0
 11
239.8980970029
 21
268.5936136417
 31
0.0
  0
LINE
  5
3B8
330
4DB
100
AcDbEntity
  8
0
  6
Continuous
 62
     7
100
AcDbLine
 10
227.8980970029
 20
279.2453748209
 30
0.0
 11
227.8980970029
 21
268.5936136417
 31
0.0
  0
LINE
  5
3B9
330
4DB
100
AcDbEntity
  8
0
  6
Continuous
 62
     7
100
AcDbLine
 10
239.8980970029
 20
269.5936136417
 30
0.0
 11
244.7057893106
 21
269.5936136417
 31
0.0
  0
LINE
  5
3BA
330
4DB
100
AcDbEntity
  8
0
  6
Continuous
 62
     7
100
AcDbLine
 10
239.8980970029
 20
269.5936136417
 30
0.0
 11
227.8980970029
 21
269.5936136417
 31
0.0
  0
LINE
  5
3BB
330
4DB
100
AcDbEntity
  8
0
  6
Continuous
 62
     7
100
AcDbLine
 10
227.8980970029
 20
269.5936136417
 30
0.0
 11
223.0904046952
 21
269.5936136417
 31
0.0
  0
TEXT
  5
3BC
330
4DB
100
AcDbEntity
  8
0
  6
Continuous
 62
     7
100
AcDbText
 10
231.9883747781
 20
3489.762962897
 30
-53.1655918467
 40
2.5
  1
12
 41
0.7
 11
231.9883747781
 21
3492.262962897
 31
-53.1655918467
100
AcDbText
 73
     3
  0
ENDBLK
  5
3B4
330
4DB
100
AcDbEntity
  8
0
100
AcDbBlockEnd
  0
BLOCK
  5
4DC
330
4DD
100
AcDbEntity
  8
0
100
AcDbBlockBegin
  2
_D_30
 70
     0
 10
0.0
 20
0.0
 30
0.0
  3
_D_30
  1

  0
SOLID
  5
3C1
330
4DD
100
AcDbEntity
  8
0
  6
Continuous
 62
     7
100
AcDbTrace
 10
224.8980970029
 20
112.8936726302
 30
0.0
 11
222.3980970029
 21
113.2782880148
 31
0.0
 12
222.3980970029
 22
112.5090572456
 32
0.0
 13
222.3980970029
 23
112.5090572456
 33
0.0
  0
SOLID
  5
3C2
330
4DD
100
AcDbEntity
  8
0
  6
Continuous
 62
     7
100
AcDbTrace
 10
242.8980970029
 20
112.8936726302
 30
0.0
 11
245.3980970029
 21
112.5090572456
 31
0.0
 12
245.3980970029
 22
113.2782880148
 32
0.0
 13
245.3980970029
 23
113.2782880148
 33
0.0
  0
LINE
  5
3C3
330
4DD
100
AcDbEntity
  8
0
  6
Continuous
 62
     7
100
AcDbLine
 10
224.8980970029
 20
139.9453748209
 30
0.0
 11
224.8980970029
 21
111.8936726302
 31
0.0
  0
LINE
  5
3C4
330
4DD
100
AcDbEntity
  8
0
  6
Continuous
 62
     7
100
AcDbLine
 10
242.8980970029
 20
139.9453748209
 30
0.0
 11
242.8980970029
 21
111.8936726302
 31
0.0
  0
LINE
  5
3C5
330
4DD
100
AcDbEntity
  8
0
  6
Continuous
 62
     7
100
AcDbLine
 10
224.8980970029
 20
112.8936726302
 30
0.0
 11
220.0904046952
 21
112.8936726302
 31
0.0
  0
LINE
  5
3C6
330
4DD
100
AcDbEntity
  8
0
  6
Continuous
 62
     7
100
AcDbLine
 10
224.8980970029
 20
112.8936726302
 30
0.0
 11
242.8980970029
 21
112.8936726302
 31
0.0
  0
LINE
  5
3C7
330
4DD
100
AcDbEntity
  8
0
  6
Continuous
 62
     7
100
AcDbLine
 10
242.8980970029
 20
112.8936726302
 30
0.0
 11
247.7057893106
 21
112.8936726302
 31
0.0
  0
TEXT
  5
3C8
330
4DD
100
AcDbEntity
  8
0
  6
Continuous
 62
     7
100
AcDbText
 10
227.5039994214
 20
3333.0630218855
 30
-53.1655918467
 40
2.5
  1
18
 41
0.7
 11
227.5039994214
 21
3335.5630218855
 31
-53.1655918467
100
AcDbText
 73
     3
  0
TEXT
  5
3C9
330
4DD
100
AcDbEntity
  8
0
  6
Continuous
 62
     7
100
AcDbText
 10
231.323443871
 20
3333.0630218855
 30
-53.1655918467
 40
2.5
  1
r / 20r
 41
0.6
 11
231.323443871
 21
3335.5630218855
 31
-53.1655918467
100
AcDbText
 73
     3
  0
ENDBLK
  5
3C0
330
4DD
100
AcDbEntity
  8
0
100
AcDbBlockEnd
  0
BLOCK
  5
4DE
330
4DF
100
AcDbEntity
  8
0
100
AcDbBlockBegin
  2
_D_31
 70
     0
 10
0.0
 20
0.0
 30
0.0
  3
_D_31
  1

  0
SOLID
  5
3CE
330
4DF
100
AcDbEntity
  8
0
  6
Continuous
 62
     7
100
AcDbTrace
 10
270.8123903989
 20
139.9453748209
 30
0.0
 11
271.1970057836
 21
142.4453748209
 31
0.0
 12
270.4277750143
 22
142.4453748209
 32
0.0
 13
270.4277750143
 23
142.4453748209
 33
0.0
  0
SOLID
  5
3CF
330
4DF
100
AcDbEntity
  8
0
  6
Continuous
 62
     7
100
AcDbTrace
 10
270.8123903989
 20
351.9453748209
 30
0.0
 11
270.4277750143
 21
349.4453748209
 31
0.0
 12
271.1970057836
 22
349.4453748209
 32
0.0
 13
271.1970057836
 23
349.4453748209
 33
0.0
  0
LINE
  5
3D0
330
4DF
100
AcDbEntity
  8
0
  6
Continuous
 62
     7
100
AcDbLine
 10
241.3980970029
 20
139.9453748209
 30
0.0
 11
271.8123903989
 21
139.9453748209
 31
0.0
  0
LINE
  5
3D1
330
4DF
100
AcDbEntity
  8
0
  6
Continuous
 62
     7
100
AcDbLine
 10
241.3980970029
 20
351.9453748209
 30
0.0
 11
271.8123903989
 21
351.9453748209
 31
0.0
  0
LINE
  5
3D2
330
4DF
100
AcDbEntity
  8
0
  6
Continuous
 62
     7
100
AcDbLine
 10
270.8123903989
 20
139.9453748209
 30
0.0
 11
270.8123903989
 21
351.9453748209
 31
0.0
  0
TEXT
  5
3D3
330
4DF
100
AcDbEntity
  8
0
  6
Continuous
 62
     7
100
AcDbText
 10
-2949.3569588563
 20
243.0807914255
 30
-53.1655918467
 40
2.5
  1
212
 50
90.0
 41
0.7
 11
-2951.8569588563
 21
243.0807914255
 31
-53.1655918467
100
AcDbText
 73
     3
  0
ENDBLK
  5
3CD
330
4DF
100
AcDbEntity
  8
0
100
AcDbBlockEnd
  0
BLOCK
  5
4E0
330
4E1
100
AcDbEntity
  8
0
100
AcDbBlockBegin
  2
_D_32
 70
     0
 10
0.0
 20
0.0
 30
0.0
  3
_D_32
  1

  0
SOLID
  5
3D8
330
4E1
100
AcDbEntity
  8
0
  6
Continuous
 62
     7
100
AcDbTrace
 10
270.8886072827
 20
139.9453748209
 30
0.0
 11
271.2732226674
 21
142.4453748209
 31
0.0
 12
270.5039918981
 22
142.4453748209
 32
0.0
 13
270.5039918981
 23
142.4453748209
 33
0.0
  0
SOLID
  5
3D9
330
4E1
100
AcDbEntity
  8
0
  6
Continuous
 62
     7
100
AcDbTrace
 10
270.8886072827
 20
130.9453748209
 30
0.0
 11
270.5039918981
 21
128.4453748209
 31
0.0
 12
271.2732226674
 22
128.4453748209
 32
0.0
 13
271.2732226674
 23
128.4453748209
 33
0.0
  0
LINE
  5
3DA
330
4E1
100
AcDbEntity
  8
0
  6
Continuous
 62
     7
100
AcDbLine
 10
241.3980970029
 20
139.9453748209
 30
0.0
 11
271.8886072827
 21
139.9453748209
 31
0.0
  0
LINE
  5
3DB
330
4E1
100
AcDbEntity
  8
0
  6
Continuous
 62
     7
100
AcDbLine
 10
233.8980970029
 20
130.9453748209
 30
0.0
 11
271.8886072827
 21
130.9453748209
 31
0.0
  0
LINE
  5
3DC
330
4E1
100
AcDbEntity
  8
0
  6
Continuous
 62
     7
100
AcDbLine
 10
270.8886072827
 20
139.9453748209
 30
0.0
 11
270.8886072827
 21
144.7530671286
 31
0.0
  0
LINE
  5
3DD
330
4E1
100
AcDbEntity
  8
0
  6
Continuous
 62
     7
100
AcDbLine
 10
270.8886072827
 20
139.9453748209
 30
0.0
 11
270.8886072827
 21
130.9453748209
 31
0.0
  0
LINE
  5
3DE
330
4E1
100
AcDbEntity
  8
0
  6
Continuous
 62
     7
100
AcDbLine
 10
270.8886072827
 20
130.9453748209
 30
0.0
 11
270.8886072827
 21
126.1376825133
 31
0.0
  0
TEXT
  5
3DF
330
4E1
100
AcDbEntity
  8
0
  6
Continuous
 62
     7
100
AcDbText
 10
-2949.2807419725
 20
134.4905137085
 30
-53.1655918467
 40
2.5
  1
9
 50
90.0
 41
0.7
 11
-2951.7807419725
 21
134.4905137085
 31
-53.1655918467
100
AcDbText
 73
     3
  0
ENDBLK
  5
3D7
330
4E1
100
AcDbEntity
  8
0
100
AcDbBlockEnd
  0
BLOCK
  5
4E2
330
4E3
100
AcDbEntity
  8
0
100
AcDbBlockBegin
  2
_D_33
 70
     0
 10
0.0
 20
0.0
 30
0.0
  3
_D_33
  1

  0
SOLID
  5
3E4
330
4E3
100
AcDbEntity
  8
0
  6
Continuous
 62
     7
100
AcDbTrace
 10
270.9419401965
 20
351.9453748209
 30
0.0
 11
270.5573248119
 21
349.4453748209
 31
0.0
 12
271.3265555812
 22
349.4453748209
 32
0.0
 13
271.3265555812
 23
349.4453748209
 33
0.0
  0
SOLID
  5
3E5
330
4E3
100
AcDbEntity
  8
0
  6
Continuous
 62
     7
100
AcDbTrace
 10
270.9419401965
 20
360.9453748209
 30
0.0
 11
271.3265555812
 21
363.4453748209
 31
0.0
 12
270.5573248119
 22
363.4453748209
 32
0.0
 13
270.5573248119
 23
363.4453748209
 33
0.0
  0
LINE
  5
3E6
330
4E3
100
AcDbEntity
  8
0
  6
Continuous
 62
     7
100
AcDbLine
 10
241.3980970029
 20
351.9453748209
 30
0.0
 11
271.9419401965
 21
351.9453748209
 31
0.0
  0
LINE
  5
3E7
330
4E3
100
AcDbEntity
  8
0
  6
Continuous
 62
     7
100
AcDbLine
 10
233.8980970029
 20
360.9453748209
 30
0.0
 11
271.9419401965
 21
360.9453748209
 31
0.0
  0
LINE
  5
3E8
330
4E3
100
AcDbEntity
  8
0
  6
Continuous
 62
     7
100
AcDbLine
 10
270.9419401965
 20
351.9453748209
 30
0.0
 11
270.9419401965
 21
347.1376825133
 31
0.0
  0
LINE
  5
3E9
330
4E3
100
AcDbEntity
  8
0
  6
Continuous
 62
     7
100
AcDbLine
 10
270.9419401965
 20
351.9453748209
 30
0.0
 11
270.9419401965
 21
360.9453748209
 31
0.0
  0
LINE
  5
3EA
330
4E3
100
AcDbEntity
  8
0
  6
Continuous
 62
     7
100
AcDbLine
 10
270.9419401965
 20
360.9453748209
 30
0.0
 11
270.9419401965
 21
365.7530671286
 31
0.0
  0
TEXT
  5
3EB
330
4E3
100
AcDbEntity
  8
0
  6
Continuous
 62
     7
100
AcDbText
 10
-2949.2274090587
 20
355.4905137085
 30
-53.1655918467
 40
2.5
  1
9
 50
90.0
 41
0.7
 11
-2951.7274090587
 21
355.4905137085
 31
-53.1655918467
100
AcDbText
 73
     3
  0
ENDBLK
  5
3E3
330
4E3
100
AcDbEntity
  8
0
100
AcDbBlockEnd
  0
BLOCK
  5
4E4
330
4E5
100
AcDbEntity
  8
0
100
AcDbBlockBegin
  2
SW_CENTERMARKSYMBOL_11
 70
     0
 10
0.0
 20
0.0
 30
0.0
  3
SW_CENTERMARKSYMBOL_11
  1

  0
LINE
  5
3EF
330
4E5
100
AcDbEntity
  8
0
  6
Continuous
 62
     0
100
AcDbLine
 10
0.0
 20
0.0
 30
0.0
 11
0.0
 21
2.5
 31
0.0
  0
LINE
  5
3F0
330
4E5
100
AcDbEntity
  8
0
  6
Continuous
 62
     0
100
AcDbLine
 10
0.0
 20
0.0
 30
0.0
 11
-2.5
 21
0.0
 31
0.0
  0
LINE
  5
3F1
330
4E5
100
AcDbEntity
  8
0
  6
Continuous
 62
     0
100
AcDbLine
 10
0.0
 20
0.0
 30
0.0
 11
0.0
 21
-2.5
 31
0.0
  0
LINE
  5
3F2
330
4E5
100
AcDbEntity
  8
0
  6
Continuous
 62
     0
100
AcDbLine
 10
0.0
 20
0.0
 30
0.0
 11
2.5
 21
0.0
 31
0.0
  0
LINE
  5
3F3
330
4E5
100
AcDbEntity
  8
0
  6
Continuous
 62
     0
100
AcDbLine
 10
0.0
 20
5.0
 30
0.0
 11
0.0
 21
7.5
 31
0.0
  0
LINE
  5
3F4
330
4E5
100
AcDbEntity
  8
0
  6
Continuous
 62
     0
100
AcDbLine
 10
-5.0
 20
0.0
 30
0.0
 11
-7.5
 21
0.0
 31
0.0
  0
LINE
  5
3F5
330
4E5
100
AcDbEntity
  8
0
  6
Continuous
 62
     0
100
AcDbLine
 10
0.0
 20
-5.0
 30
0.0
 11
0.0
 21
-7.5
 31
0.0
  0
LINE
  5
3F6
330
4E5
100
AcDbEntity
  8
0
  6
Continuous
 62
     0
100
AcDbLine
 10
5.0
 20
0.0
 30
0.0
 11
7.5
 21
0.0
 31
0.0
  0
ENDBLK
  5
3EE
330
4E5
100
AcDbEntity
  8
0
100
AcDbBlockEnd
  0
BLOCK
  5
4E6
330
4E7
100
AcDbEntity
  8
0
100
AcDbBlockBegin
  2
SW_CENTERMARKSYMBOL_12
 70
     0
 10
0.0
 20
0.0
 30
0.0
  3
SW_CENTERMARKSYMBOL_12
  1

  0
LINE
  5
3FB
330
4E7
100
AcDbEntity
  8
0
  6
Continuous
 62
     0
100
AcDbLine
 10
0.0
 20
0.0
 30
0.0
 11
0.0
 21
2.5
 31
0.0
  0
LINE
  5
3FC
330
4E7
100
AcDbEntity
  8
0
  6
Continuous
 62
     0
100
AcDbLine
 10
0.0
 20
0.0
 30
0.0
 11
-2.5
 21
0.0
 31
0.0
  0
LINE
  5
3FD
330
4E7
100
AcDbEntity
  8
0
  6
Continuous
 62
     0
100
AcDbLine
 10
0.0
 20
0.0
 30
0.0
 11
0.0
 21
-2.5
 31
0.0
  0
LINE
  5
3FE
330
4E7
100
AcDbEntity
  8
0
  6
Continuous
 62
     0
100
AcDbLine
 10
0.0
 20
0.0
 30
0.0
 11
2.5
 21
0.0
 31
0.0
  0
LINE
  5
3FF
330
4E7
100
AcDbEntity
  8
0
  6
Continuous
 62
     0
100
AcDbLine
 10
0.0
 20
5.0
 30
0.0
 11
0.0
 21
7.5
 31
0.0
  0
LINE
  5
400
330
4E7
100
AcDbEntity
  8
0
  6
Continuous
 62
     0
100
AcDbLine
 10
-5.0
 20
0.0
 30
0.0
 11
-7.5
 21
0.0
 31
0.0
  0
LINE
  5
401
330
4E7
100
AcDbEntity
  8
0
  6
Continuous
 62
     0
100
AcDbLine
 10
0.0
 20
-5.0
 30
0.0
 11
0.0
 21
-7.5
 31
0.0
  0
LINE
  5
402
330
4E7
100
AcDbEntity
  8
0
  6
Continuous
 62
     0
100
AcDbLine
 10
5.0
 20
0.0
 30
0.0
 11
7.5
 21
0.0
 31
0.0
  0
ENDBLK
  5
3FA
330
4E7
100
AcDbEntity
  8
0
100
AcDbBlockEnd
  0
BLOCK
  5
4E8
330
4E9
100
AcDbEntity
  8
0
100
AcDbBlockBegin
  2
_D_34
 70
     0
 10
0.0
 20
0.0
 30
0.0
  3
_D_34
  1

  0
SOLID
  5
43F
330
4E9
100
AcDbEntity
  8
0
  6
Continuous
 62
     7
100
AcDbTrace
 10
189.0635120881
 20
65.8020943867
 30
0.0
 11
189.4481274727
 21
68.3020943867
 31
0.0
 12
188.6788967034
 22
68.3020943867
 32
0.0
 13
188.6788967034
 23
68.3020943867
 33
0.0
  0
SOLID
  5
440
330
4E9
100
AcDbEntity
  8
0
  6
Continuous
 62
     7
100
AcDbTrace
 10
189.0635120881
 20
50.3020943867
 30
0.0
 11
188.6788967034
 21
47.8020943867
 31
0.0
 12
189.4481274727
 22
47.8020943867
 32
0.0
 13
189.4481274727
 23
47.8020943867
 33
0.0
  0
LINE
  5
441
330
4E9
100
AcDbEntity
  8
0
  6
Continuous
 62
     7
100
AcDbLine
 10
166.0847689631
 20
65.8020943867
 30
0.0
 11
190.0635120881
 21
65.8020943867
 31
0.0
  0
LINE
  5
442
330
4E9
100
AcDbEntity
  8
0
  6
Continuous
 62
     7
100
AcDbLine
 10
166.0847689631
 20
50.3020943867
 30
0.0
 11
190.0635120881
 21
50.3020943867
 31
0.0
  0
LINE
  5
443
330
4E9
100
AcDbEntity
  8
0
  6
Continuous
 62
     7
100
AcDbLine
 10
189.0635120881
 20
65.8020943867
 30
0.0
 11
189.0635120881
 21
70.6097866944
 31
0.0
  0
LINE
  5
444
330
4E9
100
AcDbEntity
  8
0
  6
Continuous
 62
     7
100
AcDbLine
 10
189.0635120881
 20
65.8020943867
 30
0.0
 11
189.0635120881
 21
50.3020943867
 31
0.0
  0
LINE
  5
445
330
4E9
100
AcDbEntity
  8
0
  6
Continuous
 62
     7
100
AcDbLine
 10
189.0635120881
 20
50.3020943867
 30
0.0
 11
189.0635120881
 21
45.494402079
 31
0.0
  0
TEXT
  5
446
330
4E9
100
AcDbEntity
  8
0
  6
Continuous
 62
     7
100
AcDbText
 10
-3031.1058371672
 20
54.7100805805
 30
27.3044294622
 40
2.5
  1
15.5
 50
90.0
 41
0.7
 11
-3033.6058371672
 21
54.7100805805
 31
27.3044294622
100
AcDbText
 73
     3
  0
ENDBLK
  5
43E
330
4E9
100
AcDbEntity
  8
0
100
AcDbBlockEnd
  0
BLOCK
  5
4EA
330
4EB
100
AcDbEntity
  8
0
100
AcDbBlockBegin
  2
_D_35
 70
     0
 10
0.0
 20
0.0
 30
0.0
  3
_D_35
  1

  0
SOLID
  5
44B
330
4EB
100
AcDbEntity
  8
0
  6
Continuous
 62
     7
100
AcDbTrace
 10
90.7799863582
 20
67.0520943867
 30
0.0
 11
91.1646017428
 21
69.5520943867
 31
0.0
 12
90.3953709736
 22
69.5520943867
 32
0.0
 13
90.3953709736
 23
69.5520943867
 33
0.0
  0
SOLID
  5
44C
330
4EB
100
AcDbEntity
  8
0
  6
Continuous
 62
     7
100
AcDbTrace
 10
90.7799863582
 20
65.8020943867
 30
0.0
 11
90.3953709736
 21
63.3020943867
 31
0.0
 12
91.1646017428
 22
63.3020943867
 32
0.0
 13
91.1646017428
 23
63.3020943867
 33
0.0
  0
LINE
  5
44D
330
4EB
100
AcDbEntity
  8
0
  6
Continuous
 62
     7
100
AcDbLine
 10
80.0847689631
 20
67.0520943867
 30
0.0
 11
91.7799863582
 21
67.0520943867
 31
0.0
  0
LINE
  5
44E
330
4EB
100
AcDbEntity
  8
0
  6
Continuous
 62
     7
100
AcDbLine
 10
90.7799863582
 20
67.0520943867
 30
0.0
 11
90.7799863582
 21
90.1693928424
 31
0.0
  0
LINE
  5
44F
330
4EB
100
AcDbEntity
  8
0
  6
Continuous
 62
     7
100
AcDbLine
 10
90.7799863582
 20
67.0520943867
 30
0.0
 11
90.7799863582
 21
65.8020943867
 31
0.0
  0
LINE
  5
450
330
4EB
100
AcDbEntity
  8
0
  6
Continuous
 62
     7
100
AcDbLine
 10
90.7799863582
 20
65.8020943867
 30
0.0
 11
90.7799863582
 21
60.994402079
 31
0.0
  0
TEXT
  5
451
330
4EB
100
AcDbEntity
  8
0
  6
Continuous
 62
     7
100
AcDbText
 10
-3129.3893628971
 20
73.9367532912
 30
27.3044294622
 40
2.5
  1
1.25 / 
 50
90.0
 41
0.6
 11
-3131.8893628971
 21
73.9367532912
 31
27.3044294622
100
AcDbText
 73
     3
  0
TEXT
  5
452
330
4EB
100
AcDbEntity
  8
0
  6
Continuous
 62
     7
100
AcDbText
 10
-3129.3893628971
 20
83.4853642988
 30
27.3044294622
 40
2.5
  1
2.25
 50
90.0
 41
0.7
 11
-3131.8893628971
 21
83.4853642988
 31
27.3044294622
100
AcDbText
 73
     3
  0
ENDBLK
  5
44A
330
4EB
100
AcDbEntity
  8
0
100
AcDbBlockEnd
  0
ENDSEC
  0
SECTION
  2
ENTITIES
  0
LINE
  5
64
330
46E
100
AcDbEntity
  8
0
  6
Continuous
 62
     7
100
AcDbLine
 10
77.0847689631
 20
130.9453748209
 30
0.0
 11
80.0847689631
 21
130.9453748209
 31
0.0
  0
LINE
  5
65
330
46E
100
AcDbEntity
  8
0
  6
Continuous
 62
     7
100
AcDbLine
 10
80.0847689631
 20
360.9453748209
 30
0.0
 11
77.0847689631
 21
360.9453748209
 31
0.0
  0
LINE
  5
66
330
46E
100
AcDbEntity
  8
0
  6
Continuous
 62
     7
100
AcDbLine
 10
66.0847689631
 20
311.2453748209
 30
0.0
 11
66.0847689631
 21
279.2453748209
 31
0.0
  0
LINE
  5
67
330
46E
100
AcDbEntity
  8
0
  6
Continuous
 62
     7
100
AcDbLine
 10
77.0847689631
 20
139.9453748209
 30
0.0
 11
80.0847689631
 21
139.9453748209
 31
0.0
  0
LINE
  5
68
330
46E
100
AcDbEntity
  8
0
  6
Continuous
 62
     7
100
AcDbLine
 10
77.0847689631
 20
139.9453748209
 30
0.0
 11
77.0847689631
 21
351.9453748209
 31
0.0
  0
LINE
  5
69
330
46E
100
AcDbEntity
  8
0
  6
Continuous
 62
     7
100
AcDbLine
 10
77.0847689631
 20
351.9453748209
 30
0.0
 11
80.0847689631
 21
351.9453748209
 31
0.0
  0
LINE
  5
6A
330
46E
100
AcDbEntity
  8
0
  6
Continuous
 62
     7
100
AcDbLine
 10
80.0847689631
 20
139.9453748209
 30
0.0
 11
80.0847689631
 21
351.9453748209
 31
0.0
  0
LINE
  5
6B
330
46E
100
AcDbEntity
  8
0
  6
Continuous
 62
     7
100
AcDbLine
 10
80.0847689631
 20
130.9453748209
 30
0.0
 11
80.0847689631
 21
139.9453748209
 31
0.0
  0
LINE
  5
6C
330
46E
100
AcDbEntity
  8
0
  6
Continuous
 62
     7
100
AcDbLine
 10
77.0847689631
 20
130.9453748209
 30
0.0
 11
77.0847689631
 21
139.9453748209
 31
0.0
  0
LINE
  5
6D
330
46E
100
AcDbEntity
  8
0
  6
Continuous
 62
     7
100
AcDbLine
 10
80.0847689631
 20
351.9453748209
 30
0.0
 11
80.0847689631
 21
360.9453748209
 31
0.0
  0
LINE
  5
6E
330
46E
100
AcDbEntity
  8
0
  6
Continuous
 62
     7
100
AcDbLine
 10
77.0847689631
 20
351.9453748209
 30
0.0
 11
77.0847689631
 21
360.9453748209
 31
0.0
  0
LINE
  5
6F
330
46E
100
AcDbEntity
  8
0
  6
Continuous
 62
     7
100
AcDbLine
 10
80.0847689631
 20
326.6953748209
 30
0.0
 11
110.6847689631
 21
326.6953748209
 31
0.0
  0
LINE
  5
70
330
46E
100
AcDbEntity
  8
0
  6
Continuous
 62
     7
100
AcDbLine
 10
110.6847689631
 20
325.9453748209
 30
0.0
 11
110.6847689631
 21
326.6953748209
 31
0.0
  0
LINE
  5
71
330
46E
100
AcDbEntity
  8
0
  6
Continuous
 62
     7
100
AcDbLine
 10
98.0847689631
 20
325.9453748209
 30
0.0
 11
110.6847689631
 21
325.9453748209
 31
0.0
  0
LINE
  5
72
330
46E
100
AcDbEntity
  8
0
  6
Continuous
 62
     7
100
AcDbLine
 10
98.0847689631
 20
324.4453748209
 30
0.0
 11
98.0847689631
 21
325.9453748209
 31
0.0
  0
LINE
  5
73
330
46E
100
AcDbEntity
  8
0
  6
Continuous
 62
     7
100
AcDbLine
 10
98.0847689631
 20
324.4453748209
 30
0.0
 11
92.0847689631
 21
324.4453748209
 31
0.0
  0
LINE
  5
74
330
46E
100
AcDbEntity
  8
0
  6
Continuous
 62
     7
100
AcDbLine
 10
92.0847689631
 20
324.4453748209
 30
0.0
 11
92.0847689631
 21
325.9453748209
 31
0.0
  0
LINE
  5
75
330
46E
100
AcDbEntity
  8
0
  6
Continuous
 62
     7
100
AcDbLine
 10
81.5847689631
 20
325.9453748209
 30
0.0
 11
92.0847689631
 21
325.9453748209
 31
0.0
  0
LINE
  5
76
330
46E
100
AcDbEntity
  8
0
  6
Continuous
 62
     7
100
AcDbLine
 10
80.0847689631
 20
324.0416660227
 30
0.0
 11
81.5847689631
 21
324.0416660227
 31
0.0
  0
LINE
  5
77
330
46E
100
AcDbEntity
  8
0
  6
Continuous
 62
     7
100
AcDbLine
 10
81.5847689631
 20
325.9453748209
 30
0.0
 11
81.5847689631
 21
324.0416660227
 31
0.0
  0
LINE
  5
78
330
46E
100
AcDbEntity
  8
0
  6
Continuous
 62
     7
100
AcDbLine
 10
112.6847689631
 20
326.6953748209
 30
0.0
 11
112.6847689631
 21
325.9453748209
 31
0.0
  0
LINE
  5
79
330
46E
100
AcDbEntity
  8
0
  6
Continuous
 62
     7
100
AcDbLine
 10
110.6847689631
 20
326.6953748209
 30
0.0
 11
112.6847689631
 21
326.6953748209
 31
0.0
  0
LINE
  5
7A
330
46E
100
AcDbEntity
  8
0
  6
Continuous
 62
     7
100
AcDbLine
 10
112.4168197707
 20
325.9453748209
 30
0.0
 11
110.6847689631
 21
325.9453748209
 31
0.0
  0
LINE
  5
7B
330
46E
100
AcDbEntity
  8
0
  6
Continuous
 62
     7
100
AcDbLine
 10
92.0847689631
 20
165.9453748209
 30
0.0
 11
81.5847689631
 21
165.9453748209
 31
0.0
  0
LINE
  5
7C
330
46E
100
AcDbEntity
  8
0
  6
Continuous
 62
     7
100
AcDbLine
 10
92.0847689631
 20
167.4453748209
 30
0.0
 11
92.0847689631
 21
165.9453748209
 31
0.0
  0
LINE
  5
7D
330
46E
100
AcDbEntity
  8
0
  6
Continuous
 62
     7
100
AcDbLine
 10
92.0847689631
 20
167.4453748209
 30
0.0
 11
98.0847689631
 21
167.4453748209
 31
0.0
  0
LINE
  5
7E
330
46E
100
AcDbEntity
  8
0
  6
Continuous
 62
     7
100
AcDbLine
 10
98.0847689631
 20
167.4453748209
 30
0.0
 11
98.0847689631
 21
165.9453748209
 31
0.0
  0
LINE
  5
7F
330
46E
100
AcDbEntity
  8
0
  6
Continuous
 62
     7
100
AcDbLine
 10
110.6847689631
 20
165.9453748209
 30
0.0
 11
98.0847689631
 21
165.9453748209
 31
0.0
  0
LINE
  5
80
330
46E
100
AcDbEntity
  8
0
  6
Continuous
 62
     7
100
AcDbLine
 10
110.6847689631
 20
165.1953748209
 30
0.0
 11
110.6847689631
 21
165.9453748209
 31
0.0
  0
LINE
  5
81
330
46E
100
AcDbEntity
  8
0
  6
Continuous
 62
     7
100
AcDbLine
 10
110.6847689631
 20
165.1953748209
 30
0.0
 11
80.0847689631
 21
165.1953748209
 31
0.0
  0
LINE
  5
82
330
46E
100
AcDbEntity
  8
0
  6
Continuous
 62
     7
100
AcDbLine
 10
81.5847689631
 20
167.8490836192
 30
0.0
 11
80.0847689631
 21
167.8490836192
 31
0.0
  0
LINE
  5
83
330
46E
100
AcDbEntity
  8
0
  6
Continuous
 62
     7
100
AcDbLine
 10
81.5847689631
 20
165.9453748209
 30
0.0
 11
81.5847689631
 21
167.8490836192
 31
0.0
  0
LINE
  5
84
330
46E
100
AcDbEntity
  8
0
  6
Continuous
 62
     7
100
AcDbLine
 10
110.6847689631
 20
165.9453748209
 30
0.0
 11
112.4168197707
 21
165.9453748209
 31
0.0
  0
LINE
  5
85
330
46E
100
AcDbEntity
  8
0
  6
Continuous
 62
     7
100
AcDbLine
 10
112.6847689631
 20
165.9453748209
 30
0.0
 11
112.6847689631
 21
165.1953748209
 31
0.0
  0
LINE
  5
86
330
46E
100
AcDbEntity
  8
0
  6
Continuous
 62
     7
100
AcDbLine
 10
112.6847689631
 20
165.1953748209
 30
0.0
 11
110.6847689631
 21
165.1953748209
 31
0.0
  0
LINE
  5
87
330
46E
100
AcDbEntity
  8
0
  6
Continuous
 62
     7
100
AcDbLine
 10
166.7918757443
 20
182.6524816021
 30
0.0
 11
150.3776621819
 21
166.2382680398
 31
0.0
  0
LINE
  5
88
330
46E
100
AcDbEntity
  8
0
  6
Continuous
 62
     7
100
AcDbLine
 10
150.3776621819
 20
166.2382680398
 30
0.0
 11
149.6705554007
 21
166.9453748209
 31
0.0
  0
LINE
  5
89
330
46E
100
AcDbEntity
  8
0
  6
Continuous
 62
     7
100
AcDbLine
 10
149.6705554007
 20
166.9453748209
 30
0.0
 11
166.0847689631
 21
183.3595883833
 31
0.0
  0
LINE
  5
8A
330
46E
100
AcDbEntity
  8
0
  6
Continuous
 62
     7
100
AcDbLine
 10
166.7918757443
 20
182.6524816021
 30
0.0
 11
166.0847689631
 21
183.3595883833
 31
0.0
  0
LINE
  5
8B
330
46E
100
AcDbEntity
  8
0
  6
Continuous
 62
     7
100
AcDbLine
 10
167.0847689631
 20
183.3595883833
 30
0.0
 11
166.0847689631
 21
183.3595883833
 31
0.0
  0
ARC
  5
8C
330
46E
100
AcDbEntity
  8
0
  6
Continuous
 62
     7
100
AcDbCircle
 10
166.0847689631
 20
183.3595883833
 30
0.0
 40
1.000000000000008
100
AcDbArc
 50
315.0
 51
0.0
  0
ARC
  5
8D
330
46E
100
AcDbEntity
  8
0
  6
Continuous
 62
     7
100
AcDbCircle
 10
149.6705554007
 20
166.9453748209
 30
0.0
 40
1.000000000000008
100
AcDbArc
 50
270.0
 51
315.0
  0
LINE
  5
8E
330
46E
100
AcDbEntity
  8
0
  6
Continuous
 62
     7
100
AcDbLine
 10
149.6705554007
 20
166.9453748209
 30
0.0
 11
149.6705554007
 21
165.9453748209
 31
0.0
  0
LINE
  5
8F
330
46E
100
AcDbEntity
  8
0
  6
Continuous
 62
     7
100
AcDbLine
 10
150.3776621819
 20
325.6524816021
 30
0.0
 11
149.6705554007
 21
324.9453748209
 31
0.0
  0
LINE
  5
90
330
46E
100
AcDbEntity
  8
0
  6
Continuous
 62
     7
100
AcDbLine
 10
149.6705554007
 20
325.9453748209
 30
0.0
 11
149.6705554007
 21
324.9453748209
 31
0.0
  0
ARC
  5
91
330
46E
100
AcDbEntity
  8
0
  6
Continuous
 62
     7
100
AcDbCircle
 10
149.6705554007
 20
324.9453748209
 30
0.0
 40
1.0
100
AcDbArc
 50
45.0
 51
90.0
  0
LINE
  5
92
330
46E
100
AcDbEntity
  8
0
  6
Continuous
 62
     7
100
AcDbLine
 10
150.3776621819
 20
325.6524816021
 30
0.0
 11
166.7918757443
 21
309.2382680398
 31
0.0
  0
LINE
  5
93
330
46E
100
AcDbEntity
  8
0
  6
Continuous
 62
     7
100
AcDbLine
 10
166.7918757443
 20
309.2382680398
 30
0.0
 11
166.0847689631
 21
308.5311612586
 31
0.0
  0
LINE
  5
94
330
46E
100
AcDbEntity
  8
0
  6
Continuous
 62
     7
100
AcDbLine
 10
166.0847689631
 20
308.5311612586
 30
0.0
 11
149.6705554007
 21
324.9453748209
 31
0.0
  0
LINE
  5
95
330
46E
100
AcDbEntity
  8
0
  6
Continuous
 62
     7
100
AcDbLine
 10
167.0847689631
 20
308.5311612586
 30
0.0
 11
167.0847689631
 21
183.3595883833
 31
0.0
  0
LINE
  5
96
330
46E
100
AcDbEntity
  8
0
  6
Continuous
 62
     7
100
AcDbLine
 10
166.0847689631
 20
183.3595883833
 30
0.0
 11
166.0847689631
 21
308.5311612586
 31
0.0
  0
LINE
  5
97
330
46E
100
AcDbEntity
  8
0
  6
Continuous
 62
     7
100
AcDbLine
 10
167.0847689631
 20
308.5311612586
 30
0.0
 11
166.0847689631
 21
308.5311612586
 31
0.0
  0
LINE
  5
98
330
46E
100
AcDbEntity
  8
0
  6
Continuous
 62
     7
100
AcDbLine
 10
149.6705554007
 20
324.9453748209
 30
0.0
 11
80.0847689631
 21
324.9453748209
 31
0.0
  0
LINE
  5
99
330
46E
100
AcDbEntity
  8
0
  6
Continuous
 62
     7
100
AcDbLine
 10
80.0847689631
 20
166.9453748209
 30
0.0
 11
149.6705554007
 21
166.9453748209
 31
0.0
  0
CIRCLE
  5
9A
330
46E
100
AcDbEntity
  8
0
  6
Continuous
 62
     7
100
AcDbCircle
 10
118.0847689631
 20
273.9453748209
 30
0.0
 40
3.250000000000014
  0
CIRCLE
  5
9B
330
46E
100
AcDbEntity
  8
0
  6
Continuous
 62
     7
100
AcDbCircle
 10
127.0847689631
 20
182.9453748209
 30
0.0
 40
2.599999999999994
  0
CIRCLE
  5
9C
330
46E
100
AcDbEntity
  8
0
  6
Continuous
 62
     7
100
AcDbCircle
 10
137.0847689631
 20
273.9453748209
 30
0.0
 40
8.650000000000034
  0
ARC
  5
9D
330
46E
100
AcDbEntity
  8
0
  6
Continuous
 62
     7
100
AcDbCircle
 10
137.0847689631
 20
175.9453748209
 30
0.0
 40
5.099999999999994
100
AcDbArc
 50
180.0
 51
0.0
  0
CIRCLE
  5
9E
330
46E
100
AcDbEntity
  8
0
  6
Continuous
 62
     7
100
AcDbCircle
 10
156.0847689631
 20
273.9453748209
 30
0.0
 40
3.249999999999972
  0
ARC
  5
9F
330
46E
100
AcDbEntity
  8
0
  6
Continuous
 62
     7
100
AcDbCircle
 10
137.0847689631
 20
195.9453748209
 30
0.0
 40
11.1
100
AcDbArc
 50
297.3522329091
 51
242.6477670909
  0
CIRCLE
  5
A0
330
46E
100
AcDbEntity
  8
0
  6
Continuous
 62
     7
100
AcDbCircle
 10
147.0847689631
 20
182.9453748209
 30
0.0
 40
2.599999999999994
  0
CIRCLE
  5
A1
330
46E
100
AcDbEntity
  8
0
  6
Continuous
 62
     7
100
AcDbCircle
 10
156.0847689631
 20
188.4453748209
 30
0.0
 40
3.249999999999972
  0
LINE
  5
A2
330
46E
100
AcDbEntity
  8
0
  6
Continuous
 62
     7
100
AcDbLine
 10
131.9847689631
 20
175.9453748209
 30
0.0
 11
131.9847689631
 21
186.0863687859
 31
0.0
  0
CIRCLE
  5
A3
330
46E
100
AcDbEntity
  8
0
  6
Continuous
 62
     7
100
AcDbCircle
 10
118.0847689631
 20
188.4453748209
 30
0.0
 40
3.249999999999986
  0
CIRCLE
  5
A4
330
46E
100
AcDbEntity
  8
0
  6
Continuous
 62
     7
100
AcDbCircle
 10
137.0847689631
 20
252.4453748209
 30
0.0
 40
3.75
  0
LINE
  5
A5
330
46E
100
AcDbEntity
  8
0
  6
Continuous
 62
     7
100
AcDbLine
 10
142.1847689631
 20
186.0863687859
 30
0.0
 11
142.1847689631
 21
175.9453748209
 31
0.0
  0
CIRCLE
  5
A6
330
46E
100
AcDbEntity
  8
0
  6
Continuous
 62
     7
100
AcDbCircle
 10
137.0847689631
 20
273.9453748209
 30
0.0
 40
8.500000000000028
  0
CIRCLE
  5
A7
330
46E
100
AcDbEntity
  8
0
  6
Continuous
 62
     7
100
AcDbCircle
 10
137.0847689631
 20
273.9453748209
 30
0.0
 40
7.500000000000028
  0
ARC
  5
A8
330
46E
100
AcDbEntity
  8
0
  6
Continuous
 62
     7
100
AcDbCircle
 10
166.0847689631
 20
308.5311612586
 30
0.0
 40
1.0
100
AcDbArc
 50
0.0
 51
45.0
  0
LINE
  5
A9
330
46E
100
AcDbEntity
  8
0
  6
Continuous
 62
     7
100
AcDbLine
 10
112.4168197707
 20
325.9453748209
 30
0.0
 11
149.6705554007
 21
325.9453748209
 31
0.0
  0
LINE
  5
AA
330
46E
100
AcDbEntity
  8
0
  6
Continuous
 62
     7
100
AcDbLine
 10
149.6705554007
 20
165.9453748209
 30
0.0
 11
112.4168197707
 21
165.9453748209
 31
0.0
  0
LINE
  5
AB
330
46E
100
AcDbEntity
  8
0
  6
Continuous
 62
     7
100
AcDbLine
 10
76.7302145472
 20
297.3453748209
 30
0.0
 11
73.8707689631
 21
297.3453748209
 31
0.0
  0
LINE
  5
AC
330
46E
100
AcDbEntity
  8
0
  6
Continuous
 62
     7
100
AcDbLine
 10
73.8707689631
 20
307.263645389
 30
0.0
 11
73.8707689631
 21
297.3453748209
 31
0.0
  0
LINE
  5
AD
330
46E
100
AcDbEntity
  8
0
  6
Continuous
 62
     7
100
AcDbLine
 10
73.8707689631
 20
293.1453748209
 30
0.0
 11
73.8707689631
 21
283.2271042529
 31
0.0
  0
LINE
  5
AE
330
46E
100
AcDbEntity
  8
0
  6
Continuous
 62
     7
100
AcDbLine
 10
76.7302145472
 20
293.1453748209
 30
0.0
 11
73.8707689631
 21
293.1453748209
 31
0.0
  0
LINE
  5
AF
330
46E
100
AcDbEntity
  8
0
  6
Continuous
 62
     7
100
AcDbLine
 10
76.7302145472
 20
297.3453748209
 30
0.0
 11
76.7302145472
 21
293.1453748209
 31
0.0
  0
LINE
  5
B0
330
46E
100
AcDbEntity
  8
0
  6
Continuous
 62
     7
100
AcDbLine
 10
77.0847689631
 20
283.2271042529
 30
0.0
 11
73.8707689631
 21
283.2271042529
 31
0.0
  0
LINE
  5
B1
330
46E
100
AcDbEntity
  8
0
  6
Continuous
 62
     7
100
AcDbLine
 10
77.0847689631
 20
307.263645389
 30
0.0
 11
73.8707689631
 21
307.263645389
 31
0.0
  0
LINE
  5
B2
330
46E
100
AcDbEntity
  8
0
  6
Continuous
 62
     7
100
AcDbLine
 10
141.4249799495
 20
278.5996812777
 30
0.0
 11
141.7390754199
 21
269.6051638345
 31
0.0
  0
LINE
  5
B3
330
46E
100
AcDbEntity
  8
0
  6
Continuous
 62
     7
100
AcDbLine
 10
132.7445579767
 20
269.2910683642
 30
0.0
 11
132.4304625064
 21
278.2855858074
 31
0.0
  0
LINE
  5
B4
330
46E
100
AcDbEntity
  8
0
  6
Continuous
 62
     7
100
AcDbLine
 10
132.4304625064
 20
278.2855858074
 30
0.0
 11
141.4249799495
 21
278.5996812777
 31
0.0
  0
LINE
  5
B5
330
46E
100
AcDbEntity
  8
0
  6
Continuous
 62
     7
100
AcDbLine
 10
141.7390754199
 20
269.6051638345
 30
0.0
 11
132.7445579767
 21
269.2910683642
 31
0.0
  0
LINE
  5
B6
330
46E
100
AcDbEntity
  8
0
  6
Continuous
 62
     7
100
AcDbLine
 10
71.4375672967
 20
293.1453748209
 30
0.0
 11
71.4375672967
 21
288.4953748209
 31
0.0
  0
LINE
  5
B7
330
46E
100
AcDbEntity
  8
0
  6
Continuous
 62
     7
100
AcDbLine
 10
68.0956239715
 20
297.3453748209
 30
0.0
 11
68.0956239715
 21
293.1453748209
 31
0.0
  0
LINE
  5
B8
330
46E
100
AcDbEntity
  8
0
  6
Continuous
 62
     7
100
AcDbLine
 10
71.4375672967
 20
301.9953748209
 30
0.0
 11
71.4375672967
 21
297.3453748209
 31
0.0
  0
LINE
  5
B9
330
46E
100
AcDbEntity
  8
0
  6
Continuous
 62
     7
100
AcDbLine
 10
57.3847689631
 20
205.2453748209
 30
0.0
 11
57.3847689631
 21
204.9453748209
 31
0.0
  0
ARC
  5
BA
330
46E
100
AcDbEntity
  8
0
  6
Continuous
 62
     7
100
AcDbCircle
 10
57.3847689631
 20
205.2453748209
 30
0.0
 40
0.3000000000000114
100
AcDbArc
 50
180.0
 51
270.0
  0
LINE
  5
BB
330
46E
100
AcDbEntity
  8
0
  6
Continuous
 62
     7
100
AcDbLine
 10
57.3847689631
 20
205.2453748209
 30
0.0
 11
57.0847689631
 21
205.2453748209
 31
0.0
  0
LINE
  5
BC
330
46E
100
AcDbEntity
  8
0
  6
Continuous
 62
     7
100
AcDbLine
 10
77.0847689631
 20
204.9453748209
 30
0.0
 11
57.3847689631
 21
204.9453748209
 31
0.0
  0
LINE
  5
BD
330
46E
100
AcDbEntity
  8
0
  6
Continuous
 62
     7
100
AcDbLine
 10
57.3847689631
 20
234.6453748209
 30
0.0
 11
57.3847689631
 21
205.2453748209
 31
0.0
  0
LINE
  5
BE
330
46E
100
AcDbEntity
  8
0
  6
Continuous
 62
     7
100
AcDbLine
 10
57.0847689631
 20
205.2453748209
 30
0.0
 11
57.0847689631
 21
234.6453748209
 31
0.0
  0
LINE
  5
BF
330
46E
100
AcDbEntity
  8
0
  6
Continuous
 62
     7
100
AcDbLine
 10
57.0847689631
 20
234.6453748209
 30
0.0
 11
57.3847689631
 21
234.6453748209
 31
0.0
  0
LINE
  5
C0
330
46E
100
AcDbEntity
  8
0
  6
Continuous
 62
     7
100
AcDbLine
 10
57.3847689631
 20
234.9453748209
 30
0.0
 11
57.3847689631
 21
234.6453748209
 31
0.0
  0
ARC
  5
C1
330
46E
100
AcDbEntity
  8
0
  6
Continuous
 62
     7
100
AcDbCircle
 10
57.3847689631
 20
234.6453748209
 30
0.0
 40
0.3000000000000114
100
AcDbArc
 50
90.0
 51
180.0
  0
LINE
  5
C2
330
46E
100
AcDbEntity
  8
0
  6
Continuous
 62
     7
100
AcDbLine
 10
57.3847689631
 20
234.9453748209
 30
0.0
 11
77.0847689631
 21
234.9453748209
 31
0.0
  0
LINE
  5
C3
330
46E
100
AcDbEntity
  8
0
  6
Continuous
 62
     7
100
AcDbLine
 10
73.4307689631
 20
307.263645389
 30
0.0
 11
73.4307689631
 21
297.3453748209
 31
0.0
  0
LINE
  5
C4
330
46E
100
AcDbEntity
  8
0
  6
Continuous
 62
     7
100
AcDbLine
 10
73.4361279469
 20
297.3453748209
 30
0.0
 11
73.4307689631
 21
297.3453748209
 31
0.0
  0
LINE
  5
C5
330
46E
100
AcDbEntity
  8
0
  6
Continuous
 62
     7
100
AcDbLine
 10
73.8707689631
 20
297.3453748209
 30
0.0
 11
73.4361279469
 21
297.3453748209
 31
0.0
  0
LINE
  5
C6
330
46E
100
AcDbEntity
  8
0
  6
Continuous
 62
     7
100
AcDbLine
 10
73.8707689631
 20
307.263645389
 30
0.0
 11
73.4307689631
 21
307.263645389
 31
0.0
  0
LINE
  5
C7
330
46E
100
AcDbEntity
  8
0
  6
Continuous
 62
     7
100
AcDbLine
 10
73.4307689631
 20
293.1453748209
 30
0.0
 11
73.4307689631
 21
283.2271042529
 31
0.0
  0
LINE
  5
C8
330
46E
100
AcDbEntity
  8
0
  6
Continuous
 62
     7
100
AcDbLine
 10
73.8707689631
 20
293.1453748209
 30
0.0
 11
73.4361279469
 21
293.1453748209
 31
0.0
  0
LINE
  5
C9
330
46E
100
AcDbEntity
  8
0
  6
Continuous
 62
     7
100
AcDbLine
 10
73.4361279469
 20
293.1453748209
 30
0.0
 11
73.4307689631
 21
293.1453748209
 31
0.0
  0
LINE
  5
CA
330
46E
100
AcDbEntity
  8
0
  6
Continuous
 62
     7
100
AcDbLine
 10
73.8707689631
 20
283.2271042529
 30
0.0
 11
73.4307689631
 21
283.2271042529
 31
0.0
  0
LINE
  5
CB
330
46E
100
AcDbEntity
  8
0
  6
Continuous
 62
     7
100
AcDbLine
 10
68.3281485095
 20
283.2271042529
 30
0.0
 11
66.9881485095
 21
279.2453748209
 31
0.0
  0
LINE
  5
CC
330
46E
100
AcDbEntity
  8
0
  6
Continuous
 62
     7
100
AcDbLine
 10
66.9881485095
 20
279.2453748209
 30
0.0
 11
66.2257594689
 21
279.2453748209
 31
0.0
  0
LINE
  5
CD
330
46E
100
AcDbEntity
  8
0
  6
Continuous
 62
     7
100
AcDbLine
 10
66.2257594689
 20
311.2453748209
 30
0.0
 11
66.2257594689
 21
279.2453748209
 31
0.0
  0
LINE
  5
CE
330
46E
100
AcDbEntity
  8
0
  6
Continuous
 62
     7
100
AcDbLine
 10
66.9881485095
 20
311.2453748209
 30
0.0
 11
66.2257594689
 21
311.2453748209
 31
0.0
  0
LINE
  5
CF
330
46E
100
AcDbEntity
  8
0
  6
Continuous
 62
     7
100
AcDbLine
 10
68.3281485095
 20
307.263645389
 30
0.0
 11
66.9881485095
 21
311.2453748209
 31
0.0
  0
LINE
  5
D0
330
46E
100
AcDbEntity
  8
0
  6
Continuous
 62
     7
100
AcDbLine
 10
72.9932022153
 20
301.9953748209
 30
0.0
 11
72.9932022153
 21
297.3453748209
 31
0.0
  0
LINE
  5
D1
330
46E
100
AcDbEntity
  8
0
  6
Continuous
 62
     7
100
AcDbLine
 10
72.9932022153
 20
301.9953748209
 30
0.0
 11
70.0233537343
 21
301.9953748209
 31
0.0
  0
LINE
  5
D2
330
46E
100
AcDbEntity
  8
0
  6
Continuous
 62
     7
100
AcDbLine
 10
70.0233537343
 20
301.9953748209
 30
0.0
 11
70.0233537343
 21
297.3453748209
 31
0.0
  0
LINE
  5
D3
330
46E
100
AcDbEntity
  8
0
  6
Continuous
 62
     7
100
AcDbLine
 10
70.0233537343
 20
297.3453748209
 30
0.0
 11
66.6814104091
 21
297.3453748209
 31
0.0
  0
LINE
  5
D4
330
46E
100
AcDbEntity
  8
0
  6
Continuous
 62
     7
100
AcDbLine
 10
66.6814104091
 20
297.3453748209
 30
0.0
 11
66.6814104091
 21
293.1453748209
 31
0.0
  0
LINE
  5
D5
330
46E
100
AcDbEntity
  8
0
  6
Continuous
 62
     7
100
AcDbLine
 10
70.0233537343
 20
293.1453748209
 30
0.0
 11
66.6814104091
 21
293.1453748209
 31
0.0
  0
LINE
  5
D6
330
46E
100
AcDbEntity
  8
0
  6
Continuous
 62
     7
100
AcDbLine
 10
70.0233537343
 20
293.1453748209
 30
0.0
 11
70.0233537343
 21
288.4953748209
 31
0.0
  0
LINE
  5
D7
330
46E
100
AcDbEntity
  8
0
  6
Continuous
 62
     7
100
AcDbLine
 10
72.9932022153
 20
288.4953748209
 30
0.0
 11
70.0233537343
 21
288.4953748209
 31
0.0
  0
LINE
  5
D8
330
46E
100
AcDbEntity
  8
0
  6
Continuous
 62
     7
100
AcDbLine
 10
72.9932022153
 20
293.1453748209
 30
0.0
 11
72.9932022153
 21
288.4953748209
 31
0.0
  0
LINE
  5
D9
330
46E
100
AcDbEntity
  8
0
  6
Continuous
 62
     7
100
AcDbLine
 10
73.4307689631
 20
293.1453748209
 30
0.0
 11
72.9932022153
 21
293.1453748209
 31
0.0
  0
LINE
  5
DA
330
46E
100
AcDbEntity
  8
0
  6
Continuous
 62
     7
100
AcDbLine
 10
73.4307689631
 20
297.3453748209
 30
0.0
 11
72.9932022153
 21
297.3453748209
 31
0.0
  0
LINE
  5
DB
330
46E
100
AcDbEntity
  8
0
  6
Continuous
 62
     7
100
AcDbLine
 10
73.4307689631
 20
283.2271042529
 30
0.0
 11
68.3281485095
 21
283.2271042529
 31
0.0
  0
LINE
  5
DC
330
46E
100
AcDbEntity
  8
0
  6
Continuous
 62
     7
100
AcDbLine
 10
73.4307689631
 20
307.263645389
 30
0.0
 11
68.3281485095
 21
307.263645389
 31
0.0
  0
LINE
  5
DD
330
46E
100
AcDbEntity
  8
0
  6
Continuous
 62
     7
100
AcDbLine
 10
71.4375672967
 20
293.1453748209
 30
0.0
 11
70.0233537343
 21
293.1453748209
 31
0.0
  0
LINE
  5
DE
330
46E
100
AcDbEntity
  8
0
  6
Continuous
 62
     7
100
AcDbLine
 10
71.4375672967
 20
297.3453748209
 30
0.0
 11
70.0233537343
 21
297.3453748209
 31
0.0
  0
LINE
  5
DF
330
46E
100
AcDbEntity
  8
0
  6
Continuous
 62
     7
100
AcDbLine
 10
66.9881485095
 20
279.2453748209
 30
0.0
 11
77.0847689631
 21
279.2453748209
 31
0.0
  0
LINE
  5
E0
330
46E
100
AcDbEntity
  8
0
  6
Continuous
 62
     7
100
AcDbLine
 10
66.9881485095
 20
311.2453748209
 30
0.0
 11
77.0847689631
 21
311.2453748209
 31
0.0
  0
LINE
  5
E1
330
46E
100
AcDbEntity
  8
0
  6
Continuous
 62
     7
100
AcDbLine
 10
66.2257594689
 20
311.2453748209
 30
0.0
 11
66.0847689631
 21
311.2453748209
 31
0.0
  0
LINE
  5
E2
330
46E
100
AcDbEntity
  8
0
  6
Continuous
 62
     7
100
AcDbLine
 10
66.2257594689
 20
279.2453748209
 30
0.0
 11
66.0847689631
 21
279.2453748209
 31
0.0
  0
LINE
  5
E3
330
46E
100
AcDbEntity
  8
0
  6
Continuous
 62
     7
100
AcDbLine
 10
57.3847689631
 20
205.2453748209
 30
0.0
 11
77.0847689631
 21
205.2453748209
 31
0.0
  0
LINE
  5
E4
330
46E
100
AcDbEntity
  8
0
  6
Continuous
 62
     7
100
AcDbLine
 10
77.0847689631
 20
234.6453748209
 30
0.0
 11
57.3847689631
 21
234.6453748209
 31
0.0
  0
LINE
  5
E5
330
46E
100
AcDbEntity
  8
0
  6
Continuous
 62
     7
100
AcDbLine
 10
142.1847689631
 20
176.0872988333
 30
0.0
 11
142.1847689631
 21
177.837103179
 31
0.0
  0
LINE
  5
E6
330
46E
100
AcDbEntity
  8
0
  6
Continuous
 62
     7
100
AcDbLine
 10
131.9847689631
 20
186.0863687859
 30
0.0
 11
131.9847689631
 21
189.02078097
 31
0.0
  0
LINE
  5
E7
330
46E
100
AcDbEntity
  8
0
  6
Continuous
 62
     7
100
AcDbLine
 10
142.1847689631
 20
186.0863687859
 30
0.0
 11
142.1847689631
 21
189.02078097
 31
0.0
  0
ARC
  5
E8
330
46E
100
AcDbEntity
  8
0
  6
CENTERX2
 62
     7
100
AcDbCircle
 10
137.0847689631
 20
195.9453748209
 30
0.0
 40
8.600000000000012
100
AcDbArc
 50
306.3718424099
 51
233.6281575900999
  0
CIRCLE
  5
E9
330
46E
100
AcDbEntity
  8
0
  6
CENTERX2
 62
     7
100
AcDbCircle
 10
147.0847689631
 20
181.4453748209
 30
0.0
 40
2.60000000000003
  0
CIRCLE
  5
EA
330
46E
100
AcDbEntity
  8
0
  6
Continuous
 62
     7
100
AcDbCircle
 10
127.110643153
 20
181.4453748209
 30
0.0
 40
2.599999999999989
  0
INSERT
  5
236
330
46E
100
AcDbEntity
  8
0
  6
Continuous
 62
     7
100
AcDbBlockReference
  2
SW_CENTERMARKSYMBOL_0
 10
137.0847689631
 20
273.9453748209
 30
0.0
  0
INSERT
  5
242
330
46E
100
AcDbEntity
  8
0
  6
Continuous
 62
     7
100
AcDbBlockReference
  2
SW_CENTERMARKSYMBOL_1
 10
156.0847689631
 20
273.9453748209
 30
0.0
  0
INSERT
  5
24E
330
46E
100
AcDbEntity
  8
0
  6
Continuous
 62
     7
100
AcDbBlockReference
  2
SW_CENTERMARKSYMBOL_2
 10
118.0847689631
 20
273.9453748209
 30
0.0
  0
INSERT
  5
266
330
46E
100
AcDbEntity
  8
0
  6
Continuous
 62
     7
100
AcDbBlockReference
  2
SW_CENTERMARKSYMBOL_4
 10
156.0847689631
 20
188.4453748209
 30
0.0
  0
INSERT
  5
272
330
46E
100
AcDbEntity
  8
0
  6
Continuous
 62
     7
100
AcDbBlockReference
  2
SW_CENTERMARKSYMBOL_5
 10
118.0847689631
 20
188.4453748209
 30
0.0
  0
INSERT
  5
27E
330
46E
100
AcDbEntity
  8
0
  6
Continuous
 62
     7
100
AcDbBlockReference
  2
SW_CENTERMARKSYMBOL_6
 10
137.0847689631
 20
195.9453748209
 30
0.0
  0
INSERT
  5
28A
330
46E
100
AcDbEntity
  8
0
  6
Continuous
 62
     7
100
AcDbBlockReference
  2
SW_CENTERMARKSYMBOL_7
 10
147.0847689631
 20
182.9453748209
 30
0.0
  0
INSERT
  5
296
330
46E
100
AcDbEntity
  8
0
  6
Continuous
 62
     7
100
AcDbBlockReference
  2
SW_CENTERMARKSYMBOL_8
 10
127.0847689631
 20
182.9453748209
 30
0.0
  0
INSERT
  5
2A2
330
46E
100
AcDbEntity
  8
0
  6
Continuous
 62
     7
100
AcDbBlockReference
  2
SW_CENTERMARKSYMBOL_9
 10
127.110643153
 20
181.4453748209
 30
0.0
  0
INSERT
  5
2AE
330
46E
100
AcDbEntity
  8
0
  6
Continuous
 62
     7
100
AcDbBlockReference
  2
SW_CENTERMARKSYMBOL_10
 10
147.0847689631
 20
181.4453748209
 30
0.0
  0
LINE
  5
2AF
330
46E
100
AcDbEntity
  8
0
  6
CENTERX2
 62
     7
100
AcDbLine
 10
64.2257594689
 20
295.2453748209
 30
0.0
 11
82.0847689631
 21
295.2453748209
 31
0.0
  0
LINE
  5
2B0
330
46E
100
AcDbEntity
  8
0
  6
CENTERX2
 62
     7
100
AcDbLine
 10
81.7847689631
 20
219.9453748209
 30
0.0
 11
55.3847689631
 21
219.9453748209
 31
0.0
  0
LINE
  5
2B1
330
46E
100
AcDbEntity
  8
0
  6
Continuous
 62
     7
100
AcDbLine
 10
242.8980970029
 20
139.9453748209
 30
0.0
 11
242.8980970029
 21
351.9453748209
 31
0.0
  0
ARC
  5
2B2
330
46E
100
AcDbEntity
  8
0
  6
Continuous
 62
     7
100
AcDbCircle
 10
233.8980970029
 20
139.9453748209
 30
0.0
 40
9.0
100
AcDbArc
 50
180.0
 51
0.0
  0
LINE
  5
2B3
330
46E
100
AcDbEntity
  8
0
  6
Continuous
 62
     7
100
AcDbLine
 10
224.8980970029
 20
351.9453748209
 30
0.0
 11
224.8980970029
 21
139.9453748209
 31
0.0
  0
ARC
  5
2B4
330
46E
100
AcDbEntity
  8
0
  6
Continuous
 62
     7
100
AcDbCircle
 10
233.8980970029
 20
351.9453748209
 30
0.0
 40
9.000000000000028
100
AcDbArc
 50
0.0
 51
180.0
  0
LINE
  5
2B5
330
46E
100
AcDbEntity
  8
0
  6
Continuous
 62
     7
100
AcDbLine
 10
236.1125886887
 20
281.304625756
 30
0.0
 11
236.7694019914
 21
279.3498242599
 31
0.0
  0
ARC
  5
2B6
330
46E
100
AcDbEntity
  8
0
  6
Continuous
 62
     7
100
AcDbCircle
 10
237.0537786611
 20
279.4453748209
 30
0.0
 40
0.3000000000000114
100
AcDbArc
 50
198.5723485104
 51
270.0
  0
LINE
  5
2B7
330
46E
100
AcDbEntity
  8
0
  6
Continuous
 62
     7
100
AcDbLine
 10
237.0537786611
 20
279.1453748209
 30
0.0
 11
239.6980970029
 21
279.1453748209
 31
0.0
  0
ARC
  5
2B8
330
46E
100
AcDbEntity
  8
0
  6
Continuous
 62
     7
100
AcDbCircle
 10
239.6980970029
 20
279.4453748209
 30
0.0
 40
0.3000000000000114
100
AcDbArc
 50
270.0
 51
0.0
  0
LINE
  5
2B9
330
46E
100
AcDbEntity
  8
0
  6
Continuous
 62
     7
100
AcDbLine
 10
239.9980970029
 20
279.4453748209
 30
0.0
 11
239.9980970029
 21
310.8453748209
 31
0.0
  0
ARC
  5
2BA
330
46E
100
AcDbEntity
  8
0
  6
Continuous
 62
     7
100
AcDbCircle
 10
239.6980970029
 20
310.8453748209
 30
0.0
 40
0.3000000000000114
100
AcDbArc
 50
0.0
 51
90.0
  0
LINE
  5
2BB
330
46E
100
AcDbEntity
  8
0
  6
Continuous
 62
     7
100
AcDbLine
 10
239.6980970029
 20
311.1453748209
 30
0.0
 11
237.0537786611
 21
311.1453748209
 31
0.0
  0
ARC
  5
2BC
330
46E
100
AcDbEntity
  8
0
  6
Continuous
 62
     7
100
AcDbCircle
 10
237.0537786611
 20
310.8453748209
 30
0.0
 40
0.3000000000000114
100
AcDbArc
 50
90.0
 51
161.4276514896
  0
LINE
  5
2BD
330
46E
100
AcDbEntity
  8
0
  6
Continuous
 62
     7
100
AcDbLine
 10
236.7694019914
 20
310.940925382
 30
0.0
 11
236.1125886887
 21
308.9861238859
 31
0.0
  0
ARC
  5
2BE
330
46E
100
AcDbEntity
  8
0
  6
Continuous
 62
     7
100
AcDbCircle
 10
235.6386275725
 20
309.1453748209
 30
0.0
 40
0.4999999999999897
100
AcDbArc
 50
270.0
 51
341.4276514896
  0
LINE
  5
2BF
330
46E
100
AcDbEntity
  8
0
  6
Continuous
 62
     7
100
AcDbLine
 10
235.6386275725
 20
308.6453748209
 30
0.0
 11
232.1575664333
 21
308.6453748209
 31
0.0
  0
ARC
  5
2C0
330
46E
100
AcDbEntity
  8
0
  6
Continuous
 62
     7
100
AcDbCircle
 10
232.1575664333
 20
309.1453748209
 30
0.0
 40
0.4999999999999897
100
AcDbArc
 50
198.5723485104
 51
270.0
  0
LINE
  5
2C1
330
46E
100
AcDbEntity
  8
0
  6
Continuous
 62
     7
100
AcDbLine
 10
231.6836053171
 20
308.9861238859
 30
0.0
 11
231.0267920144
 21
310.940925382
 31
0.0
  0
ARC
  5
2C2
330
46E
100
AcDbEntity
  8
0
  6
Continuous
 62
     7
100
AcDbCircle
 10
230.7424153446
 20
310.8453748209
 30
0.0
 40
0.3000000000000114
100
AcDbArc
 50
18.5723485104
 51
90.0
  0
LINE
  5
2C3
330
46E
100
AcDbEntity
  8
0
  6
Continuous
 62
     7
100
AcDbLine
 10
230.7424153446
 20
311.1453748209
 30
0.0
 11
230.591750721
 21
311.1453748209
 31
0.0
  0
ARC
  5
2C4
330
46E
100
AcDbEntity
  8
0
  6
Continuous
 62
     7
100
AcDbCircle
 10
228.0980970029
 20
310.8453748209
 30
0.0
 40
0.3000000000000227
100
AcDbArc
 50
131.8103148958
 51
180.0
  0
LINE
  5
2C5
330
46E
100
AcDbEntity
  8
0
  6
Continuous
 62
     7
100
AcDbLine
 10
227.7980970029
 20
310.8453748209
 30
0.0
 11
227.7980970029
 21
279.4453748209
 31
0.0
  0
ARC
  5
2C6
330
46E
100
AcDbEntity
  8
0
  6
Continuous
 62
     7
100
AcDbCircle
 10
228.0980970029
 20
279.4453748209
 30
0.0
 40
0.3000000000000114
100
AcDbArc
 50
180.0
 51
270.0
  0
LINE
  5
2C7
330
46E
100
AcDbEntity
  8
0
  6
Continuous
 62
     7
100
AcDbLine
 10
228.0980970029
 20
279.1453748209
 30
0.0
 11
230.7424153446
 21
279.1453748209
 31
0.0
  0
ARC
  5
2C8
330
46E
100
AcDbEntity
  8
0
  6
Continuous
 62
     7
100
AcDbCircle
 10
230.7424153446
 20
279.4453748209
 30
0.0
 40
0.3000000000000316
100
AcDbArc
 50
270.0
 51
341.4276514896
  0
LINE
  5
2C9
330
46E
100
AcDbEntity
  8
0
  6
Continuous
 62
     7
100
AcDbLine
 10
231.0267920144
 20
279.3498242599
 30
0.0
 11
231.6836053171
 21
281.304625756
 31
0.0
  0
ARC
  5
2CA
330
46E
100
AcDbEntity
  8
0
  6
Continuous
 62
     7
100
AcDbCircle
 10
232.1575664333
 20
281.1453748209
 30
0.0
 40
0.5000000000000078
100
AcDbArc
 50
90.0
 51
161.4276514896
  0
LINE
  5
2CB
330
46E
100
AcDbEntity
  8
0
  6
Continuous
 62
     7
100
AcDbLine
 10
232.1575664333
 20
281.6453748209
 30
0.0
 11
235.6386275725
 21
281.6453748209
 31
0.0
  0
ARC
  5
2CC
330
46E
100
AcDbEntity
  8
0
  6
Continuous
 62
     7
100
AcDbCircle
 10
235.6386275725
 20
281.1453748209
 30
0.0
 40
0.5000000000000078
100
AcDbArc
 50
18.5723485104
 51
90.0
  0
LINE
  5
2CD
330
46E
100
AcDbEntity
  8
0
  6
Continuous
 62
     7
100
AcDbLine
 10
229.8480970029
 20
234.6953748209
 30
0.0
 11
229.8480970029
 21
205.1953748209
 31
0.0
  0
ARC
  5
2CE
330
46E
100
AcDbEntity
  8
0
  6
Continuous
 62
     7
100
AcDbCircle
 10
230.1480970029
 20
205.1953748209
 30
0.0
 40
0.2999999999999829
100
AcDbArc
 50
180.0
 51
270.0
  0
LINE
  5
2CF
330
46E
100
AcDbEntity
  8
0
  6
Continuous
 62
     7
100
AcDbLine
 10
230.1480970029
 20
204.8953748209
 30
0.0
 11
237.6480970029
 21
204.8953748209
 31
0.0
  0
ARC
  5
2D0
330
46E
100
AcDbEntity
  8
0
  6
Continuous
 62
     7
100
AcDbCircle
 10
237.6480970029
 20
205.1953748209
 30
0.0
 40
0.2999999999999829
100
AcDbArc
 50
270.0
 51
0.0
  0
LINE
  5
2D1
330
46E
100
AcDbEntity
  8
0
  6
Continuous
 62
     7
100
AcDbLine
 10
237.9480970029
 20
205.1953748209
 30
0.0
 11
237.9480970029
 21
234.6953748209
 31
0.0
  0
ARC
  5
2D2
330
46E
100
AcDbEntity
  8
0
  6
Continuous
 62
     7
100
AcDbCircle
 10
237.6480970029
 20
234.6953748209
 30
0.0
 40
0.3000000000000114
100
AcDbArc
 50
0.0
 51
90.0
  0
LINE
  5
2D3
330
46E
100
AcDbEntity
  8
0
  6
Continuous
 62
     7
100
AcDbLine
 10
237.6480970029
 20
234.9953748209
 30
0.0
 11
230.1480970029
 21
234.9953748209
 31
0.0
  0
ARC
  5
2D4
330
46E
100
AcDbEntity
  8
0
  6
Continuous
 62
     7
100
AcDbCircle
 10
230.1480970029
 20
234.6953748209
 30
0.0
 40
0.3000000000000114
100
AcDbArc
 50
90.0
 51
180.0
  0
CIRCLE
  5
2D5
330
46E
100
AcDbEntity
  8
0
  6
Continuous
 62
     7
100
AcDbCircle
 10
233.8980970029
 20
193.9453748209
 30
0.0
 40
4.000000000000028
  0
CIRCLE
  5
2D6
330
46E
100
AcDbEntity
  8
0
  6
Continuous
 62
     7
100
AcDbCircle
 10
233.8980970029
 20
245.9453748209
 30
0.0
 40
4.000000000000028
  0
CIRCLE
  5
2D7
330
46E
100
AcDbEntity
  8
0
  6
Continuous
 62
     7
100
AcDbCircle
 10
233.8980970029
 20
322.1453748209
 30
0.0
 40
4.000000000000028
  0
CIRCLE
  5
2D8
330
46E
100
AcDbEntity
  8
0
  6
Continuous
 62
     7
100
AcDbCircle
 10
233.8980970029
 20
139.9453748209
 30
0.0
 40
5.000000000000028
  0
CIRCLE
  5
2D9
330
46E
100
AcDbEntity
  8
0
  6
Continuous
 62
     7
100
AcDbCircle
 10
233.8980970029
 20
177.4453748209
 30
0.0
 40
5.000000000000028
  0
CIRCLE
  5
2DA
330
46E
100
AcDbEntity
  8
0
  6
Continuous
 62
     7
100
AcDbCircle
 10
233.8980970029
 20
351.9453748209
 30
0.0
 40
5.000000000000028
  0
CIRCLE
  5
2DB
330
46E
100
AcDbEntity
  8
0
  6
Continuous
 62
     7
100
AcDbCircle
 10
233.8980970029
 20
351.9453748209
 30
0.0
 40
2.750000000000028
  0
CIRCLE
  5
2DC
330
46E
100
AcDbEntity
  8
0
  6
Continuous
 62
     7
100
AcDbCircle
 10
233.8980970029
 20
177.4453748209
 30
0.0
 40
2.750000000000028
  0
CIRCLE
  5
2DD
330
46E
100
AcDbEntity
  8
0
  6
Continuous
 62
     7
100
AcDbCircle
 10
233.8980970029
 20
139.9453748209
 30
0.0
 40
2.750000000000028
  0
LINE
  5
2DE
330
46E
100
AcDbEntity
  8
0
  6
Continuous
 62
     7
100
AcDbLine
 10
230.1980970029
 20
234.9453748209
 30
0.0
 11
230.1980970029
 21
234.6453748209
 31
0.0
  0
LINE
  5
2DF
330
46E
100
AcDbEntity
  8
0
  6
Continuous
 62
     7
100
AcDbLine
 10
229.8980970029
 20
234.6453748209
 30
0.0
 11
230.1980970029
 21
234.6453748209
 31
0.0
  0
ARC
  5
2E0
330
46E
100
AcDbEntity
  8
0
  6
Continuous
 62
     7
100
AcDbCircle
 10
230.1980970029
 20
234.6453748209
 30
0.0
 40
0.3000000000000114
100
AcDbArc
 50
90.0
 51
180.0
  0
LINE
  5
2E1
330
46E
100
AcDbEntity
  8
0
  6
Continuous
 62
     7
100
AcDbLine
 10
237.5980970029
 20
234.6453748209
 30
0.0
 11
230.1980970029
 21
234.6453748209
 31
0.0
  0
LINE
  5
2E2
330
46E
100
AcDbEntity
  8
0
  6
Continuous
 62
     7
100
AcDbLine
 10
237.5980970029
 20
205.2453748209
 30
0.0
 11
237.5980970029
 21
234.6453748209
 31
0.0
  0
LINE
  5
2E3
330
46E
100
AcDbEntity
  8
0
  6
Continuous
 62
     7
100
AcDbLine
 10
230.1980970029
 20
205.2453748209
 30
0.0
 11
237.5980970029
 21
205.2453748209
 31
0.0
  0
LINE
  5
2E4
330
46E
100
AcDbEntity
  8
0
  6
Continuous
 62
     7
100
AcDbLine
 10
230.1980970029
 20
234.6453748209
 30
0.0
 11
230.1980970029
 21
205.2453748209
 31
0.0
  0
LINE
  5
2E5
330
46E
100
AcDbEntity
  8
0
  6
Continuous
 62
     7
100
AcDbLine
 10
229.8980970029
 20
205.2453748209
 30
0.0
 11
229.8980970029
 21
234.6453748209
 31
0.0
  0
LINE
  5
2E6
330
46E
100
AcDbEntity
  8
0
  6
Continuous
 62
     7
100
AcDbLine
 10
230.1980970029
 20
205.2453748209
 30
0.0
 11
229.8980970029
 21
205.2453748209
 31
0.0
  0
LINE
  5
2E7
330
46E
100
AcDbEntity
  8
0
  6
Continuous
 62
     7
100
AcDbLine
 10
230.1980970029
 20
234.9453748209
 30
0.0
 11
237.5980970029
 21
234.9453748209
 31
0.0
  0
LINE
  5
2E8
330
46E
100
AcDbEntity
  8
0
  6
Continuous
 62
     7
100
AcDbLine
 10
237.5980970029
 20
234.9453748209
 30
0.0
 11
237.5980970029
 21
234.6453748209
 31
0.0
  0
LINE
  5
2E9
330
46E
100
AcDbEntity
  8
0
  6
Continuous
 62
     7
100
AcDbLine
 10
237.8980970029
 20
234.6453748209
 30
0.0
 11
237.8980970029
 21
205.2453748209
 31
0.0
  0
LINE
  5
2EA
330
46E
100
AcDbEntity
  8
0
  6
Continuous
 62
     7
100
AcDbLine
 10
237.8980970029
 20
205.2453748209
 30
0.0
 11
237.5980970029
 21
205.2453748209
 31
0.0
  0
LINE
  5
2EB
330
46E
100
AcDbEntity
  8
0
  6
Continuous
 62
     7
100
AcDbLine
 10
237.5980970029
 20
234.6453748209
 30
0.0
 11
237.8980970029
 21
234.6453748209
 31
0.0
  0
ARC
  5
2EC
330
46E
100
AcDbEntity
  8
0
  6
Continuous
 62
     7
100
AcDbCircle
 10
237.5980970029
 20
234.6453748209
 30
0.0
 40
0.3000000000000114
100
AcDbArc
 50
0.0
 51
90.0
  0
LINE
  5
2ED
330
46E
100
AcDbEntity
  8
0
  6
Continuous
 62
     7
100
AcDbLine
 10
237.5980970029
 20
205.2453748209
 30
0.0
 11
237.5980970029
 21
204.9453748209
 31
0.0
  0
LINE
  5
2EE
330
46E
100
AcDbEntity
  8
0
  6
Continuous
 62
     7
100
AcDbLine
 10
237.5980970029
 20
204.9453748209
 30
0.0
 11
230.1980970029
 21
204.9453748209
 31
0.0
  0
LINE
  5
2EF
330
46E
100
AcDbEntity
  8
0
  6
Continuous
 62
     7
100
AcDbLine
 10
230.1980970029
 20
205.2453748209
 30
0.0
 11
230.1980970029
 21
204.9453748209
 31
0.0
  0
ARC
  5
2F0
330
46E
100
AcDbEntity
  8
0
  6
Continuous
 62
     7
100
AcDbCircle
 10
230.1980970029
 20
205.2453748209
 30
0.0
 40
0.3000000000000114
100
AcDbArc
 50
180.0
 51
270.0
  0
ARC
  5
2F1
330
46E
100
AcDbEntity
  8
0
  6
Continuous
 62
     7
100
AcDbCircle
 10
237.5980970029
 20
205.2453748209
 30
0.0
 40
0.3000000000000114
100
AcDbArc
 50
270.0
 51
0.0
  0
LINE
  5
2F2
330
46E
100
AcDbEntity
  8
0
  6
Continuous
 62
     7
100
AcDbLine
 10
229.7957079623
 20
311.2453748209
 30
0.0
 11
229.7957079623
 21
279.2453748209
 31
0.0
  0
LINE
  5
2F3
330
46E
100
AcDbEntity
  8
0
  6
Continuous
 62
     7
100
AcDbLine
 10
229.7957079623
 20
279.2453748209
 30
0.0
 11
228.9613260355
 21
279.2453748209
 31
0.0
  0
LINE
  5
2F4
330
46E
100
AcDbEntity
  8
0
  6
Continuous
 62
     7
100
AcDbLine
 10
228.9613260355
 20
311.2453748209
 30
0.0
 11
228.9613260355
 21
279.2453748209
 31
0.0
  0
LINE
  5
2F5
330
46E
100
AcDbEntity
  8
0
  6
Continuous
 62
     7
100
AcDbLine
 10
229.7957079623
 20
311.2453748209
 30
0.0
 11
228.9613260355
 21
311.2453748209
 31
0.0
  0
LINE
  5
2F6
330
46E
100
AcDbEntity
  8
0
  6
Continuous
 62
     7
100
AcDbLine
 10
237.0007174565
 20
283.2271042529
 30
0.0
 11
231.8980970029
 21
283.2271042529
 31
0.0
  0
LINE
  5
2F7
330
46E
100
AcDbEntity
  8
0
  6
Continuous
 62
     7
100
AcDbLine
 10
231.8980970029
 20
283.2271042529
 30
0.0
 11
230.5580970029
 21
279.2453748209
 31
0.0
  0
LINE
  5
2F8
330
46E
100
AcDbEntity
  8
0
  6
Continuous
 62
     7
100
AcDbLine
 10
231.8980970029
 20
307.263645389
 30
0.0
 11
230.5580970029
 21
311.2453748209
 31
0.0
  0
LINE
  5
2F9
330
46E
100
AcDbEntity
  8
0
  6
Continuous
 62
     7
100
AcDbLine
 10
237.0007174565
 20
307.263645389
 30
0.0
 11
231.8980970029
 21
307.263645389
 31
0.0
  0
LINE
  5
2FA
330
46E
100
AcDbEntity
  8
0
  6
Continuous
 62
     7
100
AcDbLine
 10
237.0007174565
 20
307.263645389
 30
0.0
 11
237.0007174565
 21
297.3453748209
 31
0.0
  0
LINE
  5
2FB
330
46E
100
AcDbEntity
  8
0
  6
Continuous
 62
     7
100
AcDbLine
 10
237.0007174565
 20
297.3453748209
 30
0.0
 11
236.5631507087
 21
297.3453748209
 31
0.0
  0
LINE
  5
2FC
330
46E
100
AcDbEntity
  8
0
  6
Continuous
 62
     7
100
AcDbLine
 10
236.5631507087
 20
301.9953748209
 30
0.0
 11
236.5631507087
 21
297.3453748209
 31
0.0
  0
LINE
  5
2FD
330
46E
100
AcDbEntity
  8
0
  6
Continuous
 62
     7
100
AcDbLine
 10
236.5631507087
 20
301.9953748209
 30
0.0
 11
233.5933022277
 21
301.9953748209
 31
0.0
  0
LINE
  5
2FE
330
46E
100
AcDbEntity
  8
0
  6
Continuous
 62
     7
100
AcDbLine
 10
233.5933022277
 20
301.9953748209
 30
0.0
 11
233.5933022277
 21
297.3453748209
 31
0.0
  0
LINE
  5
2FF
330
46E
100
AcDbEntity
  8
0
  6
Continuous
 62
     7
100
AcDbLine
 10
233.5933022277
 20
297.3453748209
 30
0.0
 11
230.2513589025
 21
297.3453748209
 31
0.0
  0
LINE
  5
300
330
46E
100
AcDbEntity
  8
0
  6
Continuous
 62
     7
100
AcDbLine
 10
230.2513589025
 20
297.3453748209
 30
0.0
 11
230.2513589025
 21
293.1453748209
 31
0.0
  0
LINE
  5
301
330
46E
100
AcDbEntity
  8
0
  6
Continuous
 62
     7
100
AcDbLine
 10
233.5933022277
 20
293.1453748209
 30
0.0
 11
230.2513589025
 21
293.1453748209
 31
0.0
  0
LINE
  5
302
330
46E
100
AcDbEntity
  8
0
  6
Continuous
 62
     7
100
AcDbLine
 10
233.5933022277
 20
293.1453748209
 30
0.0
 11
233.5933022277
 21
288.4953748209
 31
0.0
  0
LINE
  5
303
330
46E
100
AcDbEntity
  8
0
  6
Continuous
 62
     7
100
AcDbLine
 10
236.5631507087
 20
288.4953748209
 30
0.0
 11
233.5933022277
 21
288.4953748209
 31
0.0
  0
LINE
  5
304
330
46E
100
AcDbEntity
  8
0
  6
Continuous
 62
     7
100
AcDbLine
 10
236.5631507087
 20
293.1453748209
 30
0.0
 11
236.5631507087
 21
288.4953748209
 31
0.0
  0
LINE
  5
305
330
46E
100
AcDbEntity
  8
0
  6
Continuous
 62
     7
100
AcDbLine
 10
237.0007174565
 20
293.1453748209
 30
0.0
 11
236.5631507087
 21
293.1453748209
 31
0.0
  0
LINE
  5
306
330
46E
100
AcDbEntity
  8
0
  6
Continuous
 62
     7
100
AcDbLine
 10
237.0007174565
 20
293.1453748209
 30
0.0
 11
237.0007174565
 21
283.2271042529
 31
0.0
  0
LINE
  5
307
330
46E
100
AcDbEntity
  8
0
  6
Continuous
 62
     7
100
AcDbLine
 10
230.5580970029
 20
279.2453748209
 30
0.0
 11
229.7957079623
 21
279.2453748209
 31
0.0
  0
LINE
  5
308
330
46E
100
AcDbEntity
  8
0
  6
Continuous
 62
     7
100
AcDbLine
 10
230.5580970029
 20
311.2453748209
 30
0.0
 11
229.7957079623
 21
311.2453748209
 31
0.0
  0
LINE
  5
309
330
46E
100
AcDbEntity
  8
0
  6
Continuous
 62
     7
100
AcDbLine
 10
227.8980970029
 20
279.2453748209
 30
0.0
 11
227.8980970029
 21
311.2453748209
 31
0.0
  0
LINE
  5
30A
330
46E
100
AcDbEntity
  8
0
  6
Continuous
 62
     7
100
AcDbLine
 10
227.8980970029
 20
279.2453748209
 30
0.0
 11
228.9613260355
 21
279.2453748209
 31
0.0
  0
LINE
  5
30B
330
46E
100
AcDbEntity
  8
0
  6
Continuous
 62
     7
100
AcDbLine
 10
227.8980970029
 20
311.2453748209
 30
0.0
 11
228.9613260355
 21
311.2453748209
 31
0.0
  0
LINE
  5
30C
330
46E
100
AcDbEntity
  8
0
  6
Continuous
 62
     7
100
AcDbLine
 10
235.1489371463
 20
293.1453748209
 30
0.0
 11
235.1489371463
 21
288.4953748209
 31
0.0
  0
LINE
  5
30D
330
46E
100
AcDbEntity
  8
0
  6
Continuous
 62
     7
100
AcDbLine
 10
235.1489371463
 20
301.9953748209
 30
0.0
 11
235.1489371463
 21
297.3453748209
 31
0.0
  0
LINE
  5
30E
330
46E
100
AcDbEntity
  8
0
  6
Continuous
 62
     7
100
AcDbLine
 10
238.3830868861
 20
297.3453748209
 30
0.0
 11
238.3830868861
 21
293.1453748209
 31
0.0
  0
LINE
  5
30F
330
46E
100
AcDbEntity
  8
0
  6
Continuous
 62
     7
100
AcDbLine
 10
235.1489371463
 20
297.3453748209
 30
0.0
 11
236.5631507087
 21
297.3453748209
 31
0.0
  0
LINE
  5
310
330
46E
100
AcDbEntity
  8
0
  6
Continuous
 62
     7
100
AcDbLine
 10
235.1489371463
 20
293.1453748209
 30
0.0
 11
236.5631507087
 21
293.1453748209
 31
0.0
  0
LINE
  5
311
330
46E
100
AcDbEntity
  8
0
  6
Continuous
 62
     7
100
AcDbLine
 10
237.3657174565
 20
307.263645389
 30
0.0
 11
237.3657174565
 21
297.3453748209
 31
0.0
  0
LINE
  5
312
330
46E
100
AcDbEntity
  8
0
  6
Continuous
 62
     7
100
AcDbLine
 10
237.0060764402
 20
297.3453748209
 30
0.0
 11
237.0007174565
 21
297.3453748209
 31
0.0
  0
LINE
  5
313
330
46E
100
AcDbEntity
  8
0
  6
Continuous
 62
     7
100
AcDbLine
 10
237.3657174565
 20
297.3453748209
 30
0.0
 11
237.0060764402
 21
297.3453748209
 31
0.0
  0
LINE
  5
314
330
46E
100
AcDbEntity
  8
0
  6
Continuous
 62
     7
100
AcDbLine
 10
237.3657174565
 20
307.263645389
 30
0.0
 11
237.0007174565
 21
307.263645389
 31
0.0
  0
LINE
  5
315
330
46E
100
AcDbEntity
  8
0
  6
Continuous
 62
     7
100
AcDbLine
 10
237.3657174565
 20
293.1453748209
 30
0.0
 11
237.3657174565
 21
283.2271042529
 31
0.0
  0
LINE
  5
316
330
46E
100
AcDbEntity
  8
0
  6
Continuous
 62
     7
100
AcDbLine
 10
237.3657174565
 20
293.1453748209
 30
0.0
 11
237.0060764402
 21
293.1453748209
 31
0.0
  0
LINE
  5
317
330
46E
100
AcDbEntity
  8
0
  6
Continuous
 62
     7
100
AcDbLine
 10
237.0060764402
 20
293.1453748209
 30
0.0
 11
237.0007174565
 21
293.1453748209
 31
0.0
  0
LINE
  5
318
330
46E
100
AcDbEntity
  8
0
  6
Continuous
 62
     7
100
AcDbLine
 10
237.3657174565
 20
283.2271042529
 30
0.0
 11
237.0007174565
 21
283.2271042529
 31
0.0
  0
LINE
  5
319
330
46E
100
AcDbEntity
  8
0
  6
Continuous
 62
     7
100
AcDbLine
 10
239.8640970029
 20
307.263645389
 30
0.0
 11
239.8640970029
 21
283.2271042529
 31
0.0
  0
LINE
  5
31A
330
46E
100
AcDbEntity
  8
0
  6
Continuous
 62
     7
100
AcDbLine
 10
239.2944378564
 20
297.3453748209
 30
0.0
 11
239.2944378564
 21
293.1453748209
 31
0.0
  0
LINE
  5
31B
330
46E
100
AcDbEntity
  8
0
  6
Continuous
 62
     7
100
AcDbLine
 10
239.2944378564
 20
293.1453748209
 30
0.0
 11
237.3657174565
 21
293.1453748209
 31
0.0
  0
LINE
  5
31C
330
46E
100
AcDbEntity
  8
0
  6
Continuous
 62
     7
100
AcDbLine
 10
239.2944378564
 20
297.3453748209
 30
0.0
 11
237.3657174565
 21
297.3453748209
 31
0.0
  0
LINE
  5
31D
330
46E
100
AcDbEntity
  8
0
  6
Continuous
 62
     7
100
AcDbLine
 10
239.8640970029
 20
283.2271042529
 30
0.0
 11
237.3657174565
 21
283.2271042529
 31
0.0
  0
LINE
  5
31E
330
46E
100
AcDbEntity
  8
0
  6
Continuous
 62
     7
100
AcDbLine
 10
239.8640970029
 20
307.263645389
 30
0.0
 11
237.3657174565
 21
307.263645389
 31
0.0
  0
LINE
  5
31F
330
46E
100
AcDbEntity
  8
0
  6
Continuous
 62
     7
100
AcDbLine
 10
239.8980970029
 20
307.263645389
 30
0.0
 11
239.8980970029
 21
283.2271042529
 31
0.0
  0
LINE
  5
320
330
46E
100
AcDbEntity
  8
0
  6
Continuous
 62
     7
100
AcDbLine
 10
239.8980970029
 20
283.2271042529
 30
0.0
 11
239.8640970029
 21
283.2271042529
 31
0.0
  0
LINE
  5
321
330
46E
100
AcDbEntity
  8
0
  6
Continuous
 62
     7
100
AcDbLine
 10
239.8980970029
 20
307.263645389
 30
0.0
 11
239.8640970029
 21
307.263645389
 31
0.0
  0
CIRCLE
  5
322
330
46E
100
AcDbEntity
  8
0
  6
Continuous
 62
     7
100
AcDbCircle
 10
233.8980970029
 20
322.1453748209
 30
0.0
 40
3.750000000000028
  0
LINE
  5
323
330
46E
100
AcDbEntity
  8
0
  6
Continuous
 62
     7
100
AcDbLine
 10
234.3480970029
 20
324.1453748209
 30
0.0
 11
233.4480970029
 21
324.1453748209
 31
0.0
  0
LINE
  5
324
330
46E
100
AcDbEntity
  8
0
  6
Continuous
 62
     7
100
AcDbLine
 10
233.4480970029
 20
322.8653748209
 30
0.0
 11
233.4480970029
 21
324.1453748209
 31
0.0
  0
LINE
  5
325
330
46E
100
AcDbEntity
  8
0
  6
Continuous
 62
     7
100
AcDbLine
 10
233.1780970029
 20
322.5953748209
 30
0.0
 11
233.4480970029
 21
322.8653748209
 31
0.0
  0
LINE
  5
326
330
46E
100
AcDbEntity
  8
0
  6
Continuous
 62
     7
100
AcDbLine
 10
233.1780970029
 20
322.5953748209
 30
0.0
 11
231.8980970029
 21
322.5953748209
 31
0.0
  0
LINE
  5
327
330
46E
100
AcDbEntity
  8
0
  6
Continuous
 62
     7
100
AcDbLine
 10
231.8980970029
 20
322.5953748209
 30
0.0
 11
231.8980970029
 21
321.6953748209
 31
0.0
  0
LINE
  5
328
330
46E
100
AcDbEntity
  8
0
  6
Continuous
 62
     7
100
AcDbLine
 10
233.1780970029
 20
321.6953748209
 30
0.0
 11
231.8980970029
 21
321.6953748209
 31
0.0
  0
LINE
  5
329
330
46E
100
AcDbEntity
  8
0
  6
Continuous
 62
     7
100
AcDbLine
 10
233.4480970029
 20
321.4253748209
 30
0.0
 11
233.1780970029
 21
321.6953748209
 31
0.0
  0
LINE
  5
32A
330
46E
100
AcDbEntity
  8
0
  6
Continuous
 62
     7
100
AcDbLine
 10
233.4480970029
 20
320.1453748209
 30
0.0
 11
233.4480970029
 21
321.4253748209
 31
0.0
  0
LINE
  5
32B
330
46E
100
AcDbEntity
  8
0
  6
Continuous
 62
     7
100
AcDbLine
 10
234.3480970029
 20
320.1453748209
 30
0.0
 11
233.4480970029
 21
320.1453748209
 31
0.0
  0
LINE
  5
32C
330
46E
100
AcDbEntity
  8
0
  6
Continuous
 62
     7
100
AcDbLine
 10
234.3480970029
 20
320.1453748209
 30
0.0
 11
234.3480970029
 21
321.4253748209
 31
0.0
  0
LINE
  5
32D
330
46E
100
AcDbEntity
  8
0
  6
Continuous
 62
     7
100
AcDbLine
 10
234.6180970029
 20
321.6953748209
 30
0.0
 11
234.3480970029
 21
321.4253748209
 31
0.0
  0
LINE
  5
32E
330
46E
100
AcDbEntity
  8
0
  6
Continuous
 62
     7
100
AcDbLine
 10
235.8980970029
 20
321.6953748209
 30
0.0
 11
234.6180970029
 21
321.6953748209
 31
0.0
  0
LINE
  5
32F
330
46E
100
AcDbEntity
  8
0
  6
Continuous
 62
     7
100
AcDbLine
 10
235.8980970029
 20
322.5953748209
 30
0.0
 11
235.8980970029
 21
321.6953748209
 31
0.0
  0
LINE
  5
330
330
46E
100
AcDbEntity
  8
0
  6
Continuous
 62
     7
100
AcDbLine
 10
235.8980970029
 20
322.5953748209
 30
0.0
 11
234.6180970029
 21
322.5953748209
 31
0.0
  0
LINE
  5
331
330
46E
100
AcDbEntity
  8
0
  6
Continuous
 62
     7
100
AcDbLine
 10
234.3480970029
 20
322.8653748209
 30
0.0
 11
234.6180970029
 21
322.5953748209
 31
0.0
  0
LINE
  5
332
330
46E
100
AcDbEntity
  8
0
  6
Continuous
 62
     7
100
AcDbLine
 10
234.3480970029
 20
322.8653748209
 30
0.0
 11
234.3480970029
 21
324.1453748209
 31
0.0
  0
LINE
  5
333
330
46E
100
AcDbEntity
  8
0
  6
Continuous
 62
     7
100
AcDbLine
 10
233.4480970029
 20
321.6953748209
 30
0.0
 11
233.3130970029
 21
321.5603748209
 31
0.0
  0
LINE
  5
334
330
46E
100
AcDbEntity
  8
0
  6
Continuous
 62
     7
100
AcDbLine
 10
233.4480970029
 20
322.5953748209
 30
0.0
 11
233.3130970029
 21
322.7303748209
 31
0.0
  0
LINE
  5
335
330
46E
100
AcDbEntity
  8
0
  6
Continuous
 62
     7
100
AcDbLine
 10
233.4480970029
 20
321.6953748209
 30
0.0
 11
233.4480970029
 21
322.5953748209
 31
0.0
  0
LINE
  5
336
330
46E
100
AcDbEntity
  8
0
  6
Continuous
 62
     7
100
AcDbLine
 10
234.3480970029
 20
322.5953748209
 30
0.0
 11
234.4830970029
 21
322.7303748209
 31
0.0
  0
LINE
  5
337
330
46E
100
AcDbEntity
  8
0
  6
Continuous
 62
     7
100
AcDbLine
 10
233.4480970029
 20
322.5953748209
 30
0.0
 11
234.3480970029
 21
322.5953748209
 31
0.0
  0
LINE
  5
338
330
46E
100
AcDbEntity
  8
0
  6
Continuous
 62
     7
100
AcDbLine
 10
234.3480970029
 20
321.6953748209
 30
0.0
 11
234.4830970029
 21
321.5603748209
 31
0.0
  0
LINE
  5
339
330
46E
100
AcDbEntity
  8
0
  6
Continuous
 62
     7
100
AcDbLine
 10
233.4480970029
 20
321.6953748209
 30
0.0
 11
234.3480970029
 21
321.6953748209
 31
0.0
  0
LINE
  5
33A
330
46E
100
AcDbEntity
  8
0
  6
Continuous
 62
     7
100
AcDbLine
 10
234.3480970029
 20
321.6953748209
 30
0.0
 11
234.3480970029
 21
322.5953748209
 31
0.0
  0
LINE
  5
33B
330
46E
100
AcDbEntity
  8
0
  6
Continuous
 62
     7
100
AcDbLine
 10
234.3480970029
 20
322.4278615608
 30
0.0
 11
234.1805837428
 21
322.4278615608
 31
0.0
  0
LINE
  5
33C
330
46E
100
AcDbEntity
  8
0
  6
Continuous
 62
     7
100
AcDbLine
 10
234.3480970029
 20
322.5953748209
 30
0.0
 11
234.1805837428
 21
322.4278615608
 31
0.0
  0
LINE
  5
33D
330
46E
100
AcDbEntity
  8
0
  6
Continuous
 62
     7
100
AcDbLine
 10
234.1805837428
 20
322.5953748209
 30
0.0
 11
234.1805837428
 21
322.4278615608
 31
0.0
  0
LINE
  5
33E
330
46E
100
AcDbEntity
  8
0
  6
Continuous
 62
     7
100
AcDbLine
 10
234.1805837428
 20
321.8628880811
 30
0.0
 11
234.3480970029
 21
321.6953748209
 31
0.0
  0
LINE
  5
33F
330
46E
100
AcDbEntity
  8
0
  6
Continuous
 62
     7
100
AcDbLine
 10
234.1805837428
 20
321.8628880811
 30
0.0
 11
234.1805837428
 21
321.6953748209
 31
0.0
  0
LINE
  5
340
330
46E
100
AcDbEntity
  8
0
  6
Continuous
 62
     7
100
AcDbLine
 10
234.3480970029
 20
321.8628880811
 30
0.0
 11
234.1805837428
 21
321.8628880811
 31
0.0
  0
LINE
  5
341
330
46E
100
AcDbEntity
  8
0
  6
Continuous
 62
     7
100
AcDbLine
 10
233.615610263
 20
322.4278615608
 30
0.0
 11
233.4480970029
 21
322.5953748209
 31
0.0
  0
LINE
  5
342
330
46E
100
AcDbEntity
  8
0
  6
Continuous
 62
     7
100
AcDbLine
 10
233.615610263
 20
322.5953748209
 30
0.0
 11
233.615610263
 21
322.4278615608
 31
0.0
  0
LINE
  5
343
330
46E
100
AcDbEntity
  8
0
  6
Continuous
 62
     7
100
AcDbLine
 10
233.615610263
 20
322.4278615608
 30
0.0
 11
233.4480970029
 21
322.4278615608
 31
0.0
  0
LINE
  5
344
330
46E
100
AcDbEntity
  8
0
  6
Continuous
 62
     7
100
AcDbLine
 10
233.615610263
 20
321.8628880811
 30
0.0
 11
233.4480970029
 21
321.8628880811
 31
0.0
  0
LINE
  5
345
330
46E
100
AcDbEntity
  8
0
  6
Continuous
 62
     7
100
AcDbLine
 10
233.4480970029
 20
321.6953748209
 30
0.0
 11
233.615610263
 21
321.8628880811
 31
0.0
  0
LINE
  5
346
330
46E
100
AcDbEntity
  8
0
  6
Continuous
 62
     7
100
AcDbLine
 10
233.615610263
 20
321.8628880811
 30
0.0
 11
233.615610263
 21
321.6953748209
 31
0.0
  0
LINE
  5
347
330
46E
100
AcDbEntity
  8
0
  6
Continuous
 62
     7
100
AcDbLine
 10
233.8980970029
 20
322.1453748209
 30
0.0
 11
234.1805837428
 21
321.8628880811
 31
0.0
  0
LINE
  5
348
330
46E
100
AcDbEntity
  8
0
  6
Continuous
 62
     7
100
AcDbLine
 10
234.1805837428
 20
322.4278615608
 30
0.0
 11
233.8980970029
 21
322.1453748209
 31
0.0
  0
LINE
  5
349
330
46E
100
AcDbEntity
  8
0
  6
Continuous
 62
     7
100
AcDbLine
 10
233.615610263
 20
321.8628880811
 30
0.0
 11
233.8980970029
 21
322.1453748209
 31
0.0
  0
LINE
  5
34A
330
46E
100
AcDbEntity
  8
0
  6
Continuous
 62
     7
100
AcDbLine
 10
233.8980970029
 20
322.1453748209
 30
0.0
 11
233.615610263
 21
322.4278615608
 31
0.0
  0
CIRCLE
  5
34B
330
46E
100
AcDbEntity
  8
0
  6
Continuous
 62
     7
100
AcDbCircle
 10
233.8980970029
 20
245.9453748209
 30
0.0
 40
3.750000000000002
  0
LINE
  5
34C
330
46E
100
AcDbEntity
  8
0
  6
Continuous
 62
     7
100
AcDbLine
 10
232.7301079881
 20
244.2606488309
 30
0.0
 11
233.5642644029
 21
243.9227389676
 31
0.0
  0
LINE
  5
34D
330
46E
100
AcDbEntity
  8
0
  6
Continuous
 62
     7
100
AcDbLine
 10
234.0448473196
 20
245.1090947575
 30
0.0
 11
233.5642644029
 21
243.9227389676
 31
0.0
  0
LINE
  5
34E
330
46E
100
AcDbEntity
  8
0
  6
Continuous
 62
     7
100
AcDbLine
 10
234.396467203
 20
245.2579687229
 30
0.0
 11
234.0448473196
 21
245.1090947575
 31
0.0
  0
LINE
  5
34F
330
46E
100
AcDbEntity
  8
0
  6
Continuous
 62
     7
100
AcDbLine
 10
234.396467203
 20
245.2579687229
 30
0.0
 11
235.5828229929
 21
244.7773858062
 31
0.0
  0
LINE
  5
350
330
46E
100
AcDbEntity
  8
0
  6
Continuous
 62
     7
100
AcDbLine
 10
235.5828229929
 20
244.7773858062
 30
0.0
 11
235.9207328562
 21
245.6115422209
 31
0.0
  0
LINE
  5
351
330
46E
100
AcDbEntity
  8
0
  6
Continuous
 62
     7
100
AcDbLine
 10
234.7343770663
 20
246.0921251377
 30
0.0
 11
235.9207328562
 21
245.6115422209
 31
0.0
  0
LINE
  5
352
330
46E
100
AcDbEntity
  8
0
  6
Continuous
 62
     7
100
AcDbLine
 10
234.5855031009
 20
246.4437450211
 30
0.0
 11
234.7343770663
 21
246.0921251377
 31
0.0
  0
LINE
  5
353
330
46E
100
AcDbEntity
  8
0
  6
Continuous
 62
     7
100
AcDbLine
 10
235.0660860177
 20
247.6301008109
 30
0.0
 11
234.5855031009
 21
246.4437450211
 31
0.0
  0
LINE
  5
354
330
46E
100
AcDbEntity
  8
0
  6
Continuous
 62
     7
100
AcDbLine
 10
234.2319296029
 20
247.9680106743
 30
0.0
 11
235.0660860177
 21
247.6301008109
 31
0.0
  0
LINE
  5
355
330
46E
100
AcDbEntity
  8
0
  6
Continuous
 62
     7
100
AcDbLine
 10
234.2319296029
 20
247.9680106743
 30
0.0
 11
233.7513466862
 21
246.7816548844
 31
0.0
  0
LINE
  5
356
330
46E
100
AcDbEntity
  8
0
  6
Continuous
 62
     7
100
AcDbLine
 10
233.3997268027
 20
246.632780919
 30
0.0
 11
233.7513466862
 21
246.7816548844
 31
0.0
  0
LINE
  5
357
330
46E
100
AcDbEntity
  8
0
  6
Continuous
 62
     7
100
AcDbLine
 10
232.2133710129
 20
247.1133638357
 30
0.0
 11
233.3997268027
 21
246.632780919
 31
0.0
  0
LINE
  5
358
330
46E
100
AcDbEntity
  8
0
  6
Continuous
 62
     7
100
AcDbLine
 10
231.8754611496
 20
246.279207421
 30
0.0
 11
232.2133710129
 21
247.1133638357
 31
0.0
  0
LINE
  5
359
330
46E
100
AcDbEntity
  8
0
  6
Continuous
 62
     7
100
AcDbLine
 10
231.8754611496
 20
246.279207421
 30
0.0
 11
233.0618169394
 21
245.7986245042
 31
0.0
  0
LINE
  5
35A
330
46E
100
AcDbEntity
  8
0
  6
Continuous
 62
     7
100
AcDbLine
 10
233.2106909049
 20
245.4470046208
 30
0.0
 11
233.0618169394
 21
245.7986245042
 31
0.0
  0
LINE
  5
35B
330
46E
100
AcDbEntity
  8
0
  6
Continuous
 62
     7
100
AcDbLine
 10
233.2106909049
 20
245.4470046208
 30
0.0
 11
232.7301079881
 21
244.2606488309
 31
0.0
  0
LINE
  5
35C
330
46E
100
AcDbEntity
  8
0
  6
Continuous
 62
     7
100
AcDbLine
 10
233.6499737272
 20
246.53140796
 30
0.0
 11
233.5755367445
 21
246.7072179017
 31
0.0
  0
LINE
  5
35D
330
46E
100
AcDbEntity
  8
0
  6
Continuous
 62
     7
100
AcDbLine
 10
234.4841301419
 20
246.1934980967
 30
0.0
 11
234.6599400836
 21
246.2679350794
 31
0.0
  0
LINE
  5
35E
330
46E
100
AcDbEntity
  8
0
  6
Continuous
 62
     7
100
AcDbLine
 10
234.4841301419
 20
246.1934980967
 30
0.0
 11
233.6499737272
 21
246.53140796
 31
0.0
  0
LINE
  5
35F
330
46E
100
AcDbEntity
  8
0
  6
Continuous
 62
     7
100
AcDbLine
 10
233.3120638638
 20
245.6972515452
 30
0.0
 11
233.1362539221
 21
245.6228145625
 31
0.0
  0
LINE
  5
360
330
46E
100
AcDbEntity
  8
0
  6
Continuous
 62
     7
100
AcDbLine
 10
234.1462202786
 20
245.3593416819
 30
0.0
 11
233.3120638638
 21
245.6972515452
 31
0.0
  0
LINE
  5
361
330
46E
100
AcDbEntity
  8
0
  6
Continuous
 62
     7
100
AcDbLine
 10
234.1462202786
 20
245.3593416819
 30
0.0
 11
234.2206572613
 21
245.1835317402
 31
0.0
  0
LINE
  5
362
330
46E
100
AcDbEntity
  8
0
  6
Continuous
 62
     7
100
AcDbLine
 10
234.4841301419
 20
246.1934980967
 30
0.0
 11
234.1462202786
 21
245.3593416819
 31
0.0
  0
LINE
  5
363
330
46E
100
AcDbEntity
  8
0
  6
Continuous
 62
     7
100
AcDbLine
 10
233.6499737272
 20
246.53140796
 30
0.0
 11
233.3120638638
 21
245.6972515452
 31
0.0
  0
LINE
  5
364
330
46E
100
AcDbEntity
  8
0
  6
Continuous
 62
     7
100
AcDbLine
 10
233.3120638638
 20
245.6972515452
 30
0.0
 11
233.5302156897
 21
245.7896158537
 31
0.0
  0
LINE
  5
365
330
46E
100
AcDbEntity
  8
0
  6
Continuous
 62
     7
100
AcDbLine
 10
233.467321931
 20
245.6343577865
 30
0.0
 11
233.5302156897
 21
245.7896158537
 31
0.0
  0
LINE
  5
366
330
46E
100
AcDbEntity
  8
0
  6
Continuous
 62
     7
100
AcDbLine
 10
233.7423380357
 20
246.3132561341
 30
0.0
 11
233.6499737272
 21
246.53140796
 31
0.0
  0
LINE
  5
367
330
46E
100
AcDbEntity
  8
0
  6
Continuous
 62
     7
100
AcDbLine
 10
233.5870799685
 20
246.3761498928
 30
0.0
 11
233.7423380357
 21
246.3132561341
 31
0.0
  0
LINE
  5
368
330
46E
100
AcDbEntity
  8
0
  6
Continuous
 62
     7
100
AcDbLine
 10
233.3749576225
 20
245.8525096124
 30
0.0
 11
233.5302156897
 21
245.7896158537
 31
0.0
  0
LINE
  5
369
330
46E
100
AcDbEntity
  8
0
  6
Continuous
 62
     7
100
AcDbLine
 10
233.7423380357
 20
246.3132561341
 30
0.0
 11
233.8052317944
 21
246.4685142013
 31
0.0
  0
LINE
  5
36A
330
46E
100
AcDbEntity
  8
0
  6
Continuous
 62
     7
100
AcDbLine
 10
234.0538559701
 20
245.5774935078
 30
0.0
 11
234.1462202786
 21
245.3593416819
 31
0.0
  0
LINE
  5
36B
330
46E
100
AcDbEntity
  8
0
  6
Continuous
 62
     7
100
AcDbLine
 10
233.9909622114
 20
245.4222354406
 30
0.0
 11
234.0538559701
 21
245.5774935078
 31
0.0
  0
LINE
  5
36C
330
46E
100
AcDbEntity
  8
0
  6
Continuous
 62
     7
100
AcDbLine
 10
234.265978316
 20
246.1011337882
 30
0.0
 11
234.4212363832
 21
246.0382400295
 31
0.0
  0
LINE
  5
36D
330
46E
100
AcDbEntity
  8
0
  6
Continuous
 62
     7
100
AcDbLine
 10
234.4841301419
 20
246.1934980967
 30
0.0
 11
234.265978316
 21
246.1011337882
 31
0.0
  0
LINE
  5
36E
330
46E
100
AcDbEntity
  8
0
  6
Continuous
 62
     7
100
AcDbLine
 10
234.265978316
 20
246.1011337882
 30
0.0
 11
234.3288720747
 21
246.2563918554
 31
0.0
  0
LINE
  5
36F
330
46E
100
AcDbEntity
  8
0
  6
Continuous
 62
     7
100
AcDbLine
 10
234.0538559701
 20
245.5774935078
 30
0.0
 11
234.2091140373
 21
245.5145997491
 31
0.0
  0
LINE
  5
370
330
46E
100
AcDbEntity
  8
0
  6
Continuous
 62
     7
100
AcDbLine
 10
233.8980970029
 20
245.9453748209
 30
0.0
 11
233.7423380357
 21
246.3132561341
 31
0.0
  0
LINE
  5
371
330
46E
100
AcDbEntity
  8
0
  6
Continuous
 62
     7
100
AcDbLine
 10
234.265978316
 20
246.1011337882
 30
0.0
 11
233.8980970029
 21
245.9453748209
 31
0.0
  0
LINE
  5
372
330
46E
100
AcDbEntity
  8
0
  6
Continuous
 62
     7
100
AcDbLine
 10
233.8980970029
 20
245.9453748209
 30
0.0
 11
234.0538559701
 21
245.5774935078
 31
0.0
  0
LINE
  5
373
330
46E
100
AcDbEntity
  8
0
  6
Continuous
 62
     7
100
AcDbLine
 10
233.5302156897
 20
245.7896158537
 30
0.0
 11
233.8980970029
 21
245.9453748209
 31
0.0
  0
CIRCLE
  5
374
330
46E
100
AcDbEntity
  8
0
  6
Continuous
 62
     7
100
AcDbCircle
 10
233.8980970029
 20
193.9453748209
 30
0.0
 40
3.75
  0
LINE
  5
375
330
46E
100
AcDbEntity
  8
0
  6
Continuous
 62
     7
100
AcDbLine
 10
234.3480970029
 20
195.9453748209
 30
0.0
 11
233.4480970029
 21
195.9453748209
 31
0.0
  0
LINE
  5
376
330
46E
100
AcDbEntity
  8
0
  6
Continuous
 62
     7
100
AcDbLine
 10
233.4480970029
 20
194.6653748209
 30
0.0
 11
233.4480970029
 21
195.9453748209
 31
0.0
  0
LINE
  5
377
330
46E
100
AcDbEntity
  8
0
  6
Continuous
 62
     7
100
AcDbLine
 10
233.1780970029
 20
194.3953748209
 30
0.0
 11
233.4480970029
 21
194.6653748209
 31
0.0
  0
LINE
  5
378
330
46E
100
AcDbEntity
  8
0
  6
Continuous
 62
     7
100
AcDbLine
 10
233.1780970029
 20
194.3953748209
 30
0.0
 11
231.8980970029
 21
194.3953748209
 31
0.0
  0
LINE
  5
379
330
46E
100
AcDbEntity
  8
0
  6
Continuous
 62
     7
100
AcDbLine
 10
231.8980970029
 20
194.3953748209
 30
0.0
 11
231.8980970029
 21
193.4953748209
 31
0.0
  0
LINE
  5
37A
330
46E
100
AcDbEntity
  8
0
  6
Continuous
 62
     7
100
AcDbLine
 10
233.1780970029
 20
193.4953748209
 30
0.0
 11
231.8980970029
 21
193.4953748209
 31
0.0
  0
LINE
  5
37B
330
46E
100
AcDbEntity
  8
0
  6
Continuous
 62
     7
100
AcDbLine
 10
233.4480970029
 20
193.2253748209
 30
0.0
 11
233.1780970029
 21
193.4953748209
 31
0.0
  0
LINE
  5
37C
330
46E
100
AcDbEntity
  8
0
  6
Continuous
 62
     7
100
AcDbLine
 10
233.4480970029
 20
191.9453748209
 30
0.0
 11
233.4480970029
 21
193.2253748209
 31
0.0
  0
LINE
  5
37D
330
46E
100
AcDbEntity
  8
0
  6
Continuous
 62
     7
100
AcDbLine
 10
234.3480970029
 20
191.9453748209
 30
0.0
 11
233.4480970029
 21
191.9453748209
 31
0.0
  0
LINE
  5
37E
330
46E
100
AcDbEntity
  8
0
  6
Continuous
 62
     7
100
AcDbLine
 10
234.3480970029
 20
191.9453748209
 30
0.0
 11
234.3480970029
 21
193.2253748209
 31
0.0
  0
LINE
  5
37F
330
46E
100
AcDbEntity
  8
0
  6
Continuous
 62
     7
100
AcDbLine
 10
234.6180970029
 20
193.4953748209
 30
0.0
 11
234.3480970029
 21
193.2253748209
 31
0.0
  0
LINE
  5
380
330
46E
100
AcDbEntity
  8
0
  6
Continuous
 62
     7
100
AcDbLine
 10
235.8980970029
 20
193.4953748209
 30
0.0
 11
234.6180970029
 21
193.4953748209
 31
0.0
  0
LINE
  5
381
330
46E
100
AcDbEntity
  8
0
  6
Continuous
 62
     7
100
AcDbLine
 10
235.8980970029
 20
194.3953748209
 30
0.0
 11
235.8980970029
 21
193.4953748209
 31
0.0
  0
LINE
  5
382
330
46E
100
AcDbEntity
  8
0
  6
Continuous
 62
     7
100
AcDbLine
 10
235.8980970029
 20
194.3953748209
 30
0.0
 11
234.6180970029
 21
194.3953748209
 31
0.0
  0
LINE
  5
383
330
46E
100
AcDbEntity
  8
0
  6
Continuous
 62
     7
100
AcDbLine
 10
234.3480970029
 20
194.6653748209
 30
0.0
 11
234.6180970029
 21
194.3953748209
 31
0.0
  0
LINE
  5
384
330
46E
100
AcDbEntity
  8
0
  6
Continuous
 62
     7
100
AcDbLine
 10
234.3480970029
 20
194.6653748209
 30
0.0
 11
234.3480970029
 21
195.9453748209
 31
0.0
  0
LINE
  5
385
330
46E
100
AcDbEntity
  8
0
  6
Continuous
 62
     7
100
AcDbLine
 10
233.4480970029
 20
193.4953748209
 30
0.0
 11
233.3130970029
 21
193.3603748209
 31
0.0
  0
LINE
  5
386
330
46E
100
AcDbEntity
  8
0
  6
Continuous
 62
     7
100
AcDbLine
 10
233.4480970029
 20
194.3953748209
 30
0.0
 11
233.3130970029
 21
194.5303748209
 31
0.0
  0
LINE
  5
387
330
46E
100
AcDbEntity
  8
0
  6
Continuous
 62
     7
100
AcDbLine
 10
233.4480970029
 20
193.4953748209
 30
0.0
 11
233.4480970029
 21
194.3953748209
 31
0.0
  0
LINE
  5
388
330
46E
100
AcDbEntity
  8
0
  6
Continuous
 62
     7
100
AcDbLine
 10
234.3480970029
 20
193.4953748209
 30
0.0
 11
234.4830970029
 21
193.3603748209
 31
0.0
  0
LINE
  5
389
330
46E
100
AcDbEntity
  8
0
  6
Continuous
 62
     7
100
AcDbLine
 10
233.4480970029
 20
193.4953748209
 30
0.0
 11
234.3480970029
 21
193.4953748209
 31
0.0
  0
LINE
  5
38A
330
46E
100
AcDbEntity
  8
0
  6
Continuous
 62
     7
100
AcDbLine
 10
234.3480970029
 20
194.3953748209
 30
0.0
 11
234.4830970029
 21
194.5303748209
 31
0.0
  0
LINE
  5
38B
330
46E
100
AcDbEntity
  8
0
  6
Continuous
 62
     7
100
AcDbLine
 10
233.4480970029
 20
194.3953748209
 30
0.0
 11
234.3480970029
 21
194.3953748209
 31
0.0
  0
LINE
  5
38C
330
46E
100
AcDbEntity
  8
0
  6
Continuous
 62
     7
100
AcDbLine
 10
234.3480970029
 20
193.4953748209
 30
0.0
 11
234.3480970029
 21
194.3953748209
 31
0.0
  0
LINE
  5
38D
330
46E
100
AcDbEntity
  8
0
  6
Continuous
 62
     7
100
AcDbLine
 10
234.3480970029
 20
194.3953748209
 30
0.0
 11
234.1805837428
 21
194.2278615608
 31
0.0
  0
LINE
  5
38E
330
46E
100
AcDbEntity
  8
0
  6
Continuous
 62
     7
100
AcDbLine
 10
234.1805837428
 20
194.3953748209
 30
0.0
 11
234.1805837428
 21
194.2278615608
 31
0.0
  0
LINE
  5
38F
330
46E
100
AcDbEntity
  8
0
  6
Continuous
 62
     7
100
AcDbLine
 10
234.3480970029
 20
194.2278615608
 30
0.0
 11
234.1805837428
 21
194.2278615608
 31
0.0
  0
LINE
  5
390
330
46E
100
AcDbEntity
  8
0
  6
Continuous
 62
     7
100
AcDbLine
 10
234.1805837428
 20
193.6628880811
 30
0.0
 11
234.3480970029
 21
193.4953748209
 31
0.0
  0
LINE
  5
391
330
46E
100
AcDbEntity
  8
0
  6
Continuous
 62
     7
100
AcDbLine
 10
234.3480970029
 20
193.6628880811
 30
0.0
 11
234.1805837428
 21
193.6628880811
 31
0.0
  0
LINE
  5
392
330
46E
100
AcDbEntity
  8
0
  6
Continuous
 62
     7
100
AcDbLine
 10
234.1805837428
 20
193.6628880811
 30
0.0
 11
234.1805837428
 21
193.4953748209
 31
0.0
  0
LINE
  5
393
330
46E
100
AcDbEntity
  8
0
  6
Continuous
 62
     7
100
AcDbLine
 10
233.615610263
 20
193.6628880811
 30
0.0
 11
233.4480970029
 21
193.6628880811
 31
0.0
  0
LINE
  5
394
330
46E
100
AcDbEntity
  8
0
  6
Continuous
 62
     7
100
AcDbLine
 10
233.4480970029
 20
193.4953748209
 30
0.0
 11
233.615610263
 21
193.6628880811
 31
0.0
  0
LINE
  5
395
330
46E
100
AcDbEntity
  8
0
  6
Continuous
 62
     7
100
AcDbLine
 10
233.615610263
 20
194.2278615608
 30
0.0
 11
233.4480970029
 21
194.3953748209
 31
0.0
  0
LINE
  5
396
330
46E
100
AcDbEntity
  8
0
  6
Continuous
 62
     7
100
AcDbLine
 10
233.615610263
 20
194.3953748209
 30
0.0
 11
233.615610263
 21
194.2278615608
 31
0.0
  0
LINE
  5
397
330
46E
100
AcDbEntity
  8
0
  6
Continuous
 62
     7
100
AcDbLine
 10
233.615610263
 20
193.6628880811
 30
0.0
 11
233.615610263
 21
193.4953748209
 31
0.0
  0
LINE
  5
398
330
46E
100
AcDbEntity
  8
0
  6
Continuous
 62
     7
100
AcDbLine
 10
233.615610263
 20
194.2278615608
 30
0.0
 11
233.4480970029
 21
194.2278615608
 31
0.0
  0
LINE
  5
399
330
46E
100
AcDbEntity
  8
0
  6
Continuous
 62
     7
100
AcDbLine
 10
233.8980970029
 20
193.9453748209
 30
0.0
 11
234.1805837428
 21
193.6628880811
 31
0.0
  0
LINE
  5
39A
330
46E
100
AcDbEntity
  8
0
  6
Continuous
 62
     7
100
AcDbLine
 10
234.1805837428
 20
194.2278615608
 30
0.0
 11
233.8980970029
 21
193.9453748209
 31
0.0
  0
LINE
  5
39B
330
46E
100
AcDbEntity
  8
0
  6
Continuous
 62
     7
100
AcDbLine
 10
233.8980970029
 20
193.9453748209
 30
0.0
 11
233.615610263
 21
194.2278615608
 31
0.0
  0
LINE
  5
39C
330
46E
100
AcDbEntity
  8
0
  6
Continuous
 62
     7
100
AcDbLine
 10
233.615610263
 20
193.6628880811
 30
0.0
 11
233.8980970029
 21
193.9453748209
 31
0.0
  0
LINE
  5
39D
330
46E
100
AcDbEntity
  8
0
  6
Continuous
 62
     7
100
AcDbLine
 10
237.5980970029
 20
234.9953748209
 30
0.0
 11
237.5980970029
 21
234.9453748209
 31
0.0
  0
LINE
  5
39E
330
46E
100
AcDbEntity
  8
0
  6
Continuous
 62
     7
100
AcDbLine
 10
230.1980970029
 20
234.9953748209
 30
0.0
 11
230.1980970029
 21
234.9453748209
 31
0.0
  0
LINE
  5
39F
330
46E
100
AcDbEntity
  8
0
  6
Continuous
 62
     7
100
AcDbLine
 10
229.8480970029
 20
234.6453748209
 30
0.0
 11
229.8980970029
 21
234.6453748209
 31
0.0
  0
LINE
  5
3A0
330
46E
100
AcDbEntity
  8
0
  6
Continuous
 62
     7
100
AcDbLine
 10
229.8980970029
 20
205.2453748209
 30
0.0
 11
229.8480970029
 21
205.2453748209
 31
0.0
  0
LINE
  5
3A1
330
46E
100
AcDbEntity
  8
0
  6
Continuous
 62
     7
100
AcDbLine
 10
237.9480970029
 20
234.6453748209
 30
0.0
 11
237.8980970029
 21
234.6453748209
 31
0.0
  0
LINE
  5
3A2
330
46E
100
AcDbEntity
  8
0
  6
Continuous
 62
     7
100
AcDbLine
 10
237.8980970029
 20
205.2453748209
 30
0.0
 11
237.9480970029
 21
205.2453748209
 31
0.0
  0
LINE
  5
3A3
330
46E
100
AcDbEntity
  8
0
  6
Continuous
 62
     7
100
AcDbLine
 10
230.1980970029
 20
204.9453748209
 30
0.0
 11
230.1980970029
 21
204.8953748209
 31
0.0
  0
LINE
  5
3A4
330
46E
100
AcDbEntity
  8
0
  6
Continuous
 62
     7
100
AcDbLine
 10
237.5980970029
 20
204.9453748209
 30
0.0
 11
237.5980970029
 21
204.8953748209
 31
0.0
  0
INSERT
  5
3F7
330
46E
100
AcDbEntity
  8
0
  6
Continuous
 62
     7
100
AcDbBlockReference
  2
SW_CENTERMARKSYMBOL_11
 10
233.8980970029
 20
351.9453748209
 30
0.0
  0
INSERT
  5
403
330
46E
100
AcDbEntity
  8
0
  6
Continuous
 62
     7
100
AcDbBlockReference
  2
SW_CENTERMARKSYMBOL_12
 10
233.8980970029
 20
139.9453748209
 30
0.0
  0
LINE
  5
404
330
46E
100
AcDbEntity
  8
0
  6
Continuous
 62
     7
100
AcDbLine
 10
77.0847689631
 20
49.0520943867
 30
0.0
 11
80.0847689631
 21
49.0520943867
 31
0.0
  0
LINE
  5
405
330
46E
100
AcDbEntity
  8
0
  6
Continuous
 62
     7
100
AcDbLine
 10
77.0847689631
 20
49.0520943867
 30
0.0
 11
77.0847689631
 21
67.0520943867
 31
0.0
  0
LINE
  5
406
330
46E
100
AcDbEntity
  8
0
  6
Continuous
 62
     7
100
AcDbLine
 10
77.0847689631
 20
67.0520943867
 30
0.0
 11
80.0847689631
 21
67.0520943867
 31
0.0
  0
LINE
  5
407
330
46E
100
AcDbEntity
  8
0
  6
Continuous
 62
     7
100
AcDbLine
 10
80.0847689631
 20
49.0520943867
 30
0.0
 11
80.0847689631
 21
67.0520943867
 31
0.0
  0
ARC
  5
408
330
46E
100
AcDbEntity
  8
0
  6
Continuous
 62
     7
100
AcDbCircle
 10
110.6847689631
 20
52.3020943867
 30
0.0
 40
2.000000000000036
100
AcDbArc
 50
270.0
 51
0.0
  0
LINE
  5
409
330
46E
100
AcDbEntity
  8
0
  6
Continuous
 62
     7
100
AcDbLine
 10
80.0847689631
 20
50.3020943867
 30
0.0
 11
110.6847689631
 21
50.3020943867
 31
0.0
  0
LINE
  5
40A
330
46E
100
AcDbEntity
  8
0
  6
Continuous
 62
     7
100
AcDbLine
 10
110.6847689631
 20
65.8020943867
 30
0.0
 11
80.0847689631
 21
65.8020943867
 31
0.0
  0
ARC
  5
40B
330
46E
100
AcDbEntity
  8
0
  6
Continuous
 62
     7
100
AcDbCircle
 10
110.6847689631
 20
63.8020943867
 30
0.0
 40
2.000000000000043
100
AcDbArc
 50
0.0
 51
90.0
  0
LINE
  5
40C
330
46E
100
AcDbEntity
  8
0
  6
Continuous
 62
     7
100
AcDbLine
 10
112.6847689631
 20
52.3020943867
 30
0.0
 11
112.6847689631
 21
63.8020943867
 31
0.0
  0
ARC
  5
40D
330
46E
100
AcDbEntity
  8
0
  6
Continuous
 62
     7
100
AcDbCircle
 10
149.4937787054
 20
64.9270943867
 30
0.0
 40
0.892678553567815
100
AcDbArc
 50
351.9505330245
 51
78.578246341
  0
LINE
  5
40E
330
46E
100
AcDbEntity
  8
0
  6
Continuous
 62
     7
100
AcDbLine
 10
149.6705554007
 20
64.8020943867
 30
0.0
 11
150.3776621819
 21
64.8020943867
 31
0.0
  0
LINE
  5
40F
330
46E
100
AcDbEntity
  8
0
  6
Continuous
 62
     7
100
AcDbLine
 10
149.6705554007
 20
65.8020943867
 30
0.0
 11
149.6705554007
 21
64.8020943867
 31
0.0
  0
LINE
  5
410
330
46E
100
AcDbEntity
  8
0
  6
Continuous
 62
     7
100
AcDbLine
 10
150.3776621819
 20
64.8020943867
 30
0.0
 11
150.3776621819
 21
51.3020943867
 31
0.0
  0
LINE
  5
411
330
46E
100
AcDbEntity
  8
0
  6
Continuous
 62
     7
100
AcDbLine
 10
150.3776621819
 20
51.3020943867
 30
0.0
 11
149.6705554007
 21
51.3020943867
 31
0.0
  0
LINE
  5
412
330
46E
100
AcDbEntity
  8
0
  6
Continuous
 62
     7
100
AcDbLine
 10
149.6705554007
 20
51.3020943867
 30
0.0
 11
149.6705554007
 21
64.8020943867
 31
0.0
  0
LINE
  5
413
330
46E
100
AcDbEntity
  8
0
  6
Continuous
 62
     7
100
AcDbLine
 10
110.6847689631
 20
65.8020943867
 30
0.0
 11
149.6705554007
 21
65.8020943867
 31
0.0
  0
ARC
  5
414
330
46E
100
AcDbEntity
  8
0
  6
Continuous
 62
     7
100
AcDbCircle
 10
149.4937787054
 20
51.1770943867
 30
0.0
 40
0.892678553567815
100
AcDbArc
 50
281.421753659
 51
8.0494669755
  0
LINE
  5
415
330
46E
100
AcDbEntity
  8
0
  6
Continuous
 62
     7
100
AcDbLine
 10
149.6705554007
 20
51.3020943867
 30
0.0
 11
149.6705554007
 21
50.3020943867
 31
0.0
  0
LINE
  5
416
330
46E
100
AcDbEntity
  8
0
  6
Continuous
 62
     7
100
AcDbLine
 10
149.6705554007
 20
50.3020943867
 30
0.0
 11
110.6847689631
 21
50.3020943867
 31
0.0
  0
LINE
  5
417
330
46E
100
AcDbEntity
  8
0
  6
Continuous
 62
     7
100
AcDbLine
 10
149.6705554007
 20
65.8020943867
 30
0.0
 11
166.0847689631
 21
65.8020943867
 31
0.0
  0
ARC
  5
418
330
46E
100
AcDbEntity
  8
0
  6
Continuous
 62
     7
100
AcDbCircle
 10
165.9079922678
 20
64.9270943867
 30
0.0
 40
0.892678553567813
100
AcDbArc
 50
351.9505330245
 51
78.578246341
  0
LINE
  5
419
330
46E
100
AcDbEntity
  8
0
  6
Continuous
 62
     7
100
AcDbLine
 10
166.7918757443
 20
64.8020943867
 30
0.0
 11
150.3776621819
 21
64.8020943867
 31
0.0
  0
LINE
  5
41A
330
46E
100
AcDbEntity
  8
0
  6
Continuous
 62
     7
100
AcDbLine
 10
166.7918757443
 20
51.3020943867
 30
0.0
 11
166.7918757443
 21
64.8020943867
 31
0.0
  0
LINE
  5
41B
330
46E
100
AcDbEntity
  8
0
  6
Continuous
 62
     7
100
AcDbLine
 10
150.3776621819
 20
51.3020943867
 30
0.0
 11
166.7918757443
 21
51.3020943867
 31
0.0
  0
ARC
  5
41C
330
46E
100
AcDbEntity
  8
0
  6
Continuous
 62
     7
100
AcDbCircle
 10
165.9079922678
 20
51.1770943867
 30
0.0
 40
0.8926785535678036
100
AcDbArc
 50
281.421753659
 51
8.0494669755
  0
LINE
  5
41D
330
46E
100
AcDbEntity
  8
0
  6
Continuous
 62
     7
100
AcDbLine
 10
166.0847689631
 20
50.3020943867
 30
0.0
 11
149.6705554007
 21
50.3020943867
 31
0.0
  0
LINE
  5
41E
330
46E
100
AcDbEntity
  8
0
  6
Continuous
 62
     7
100
AcDbLine
 10
66.9881485095
 20
61.3920943867
 30
0.0
 11
66.2257594689
 21
62.1544834272
 31
0.0
  0
ARC
  5
41F
330
46E
100
AcDbEntity
  8
0
  6
Continuous
 62
     7
100
AcDbCircle
 10
66.5847689631
 20
62.5024951843
 30
0.0
 40
0.500000000000005
100
AcDbArc
 50
103.4087835357
 51
224.1088342795
  0
LINE
  5
420
330
46E
100
AcDbEntity
  8
0
  6
Continuous
 62
     7
100
AcDbLine
 10
76.5847689631
 20
64.0520943867
 30
0.0
 11
66.4688204487
 21
62.9888653541
 31
0.0
  0
LINE
  5
421
330
46E
100
AcDbEntity
  8
0
  6
Continuous
 62
     7
100
AcDbLine
 10
76.5847689631
 20
64.0520943867
 30
0.0
 11
77.0847689631
 21
64.0520943867
 31
0.0
  0
LINE
  5
422
330
46E
100
AcDbEntity
  8
0
  6
Continuous
 62
     7
100
AcDbLine
 10
66.9881485095
 20
61.3920943867
 30
0.0
 11
77.0847689631
 21
61.3920943867
 31
0.0
  0
LINE
  5
423
330
46E
100
AcDbEntity
  8
0
  6
Continuous
 62
     7
100
AcDbLine
 10
68.3281485095
 20
60.0520943867
 30
0.0
 11
66.9881485095
 21
61.3920943867
 31
0.0
  0
LINE
  5
424
330
46E
100
AcDbEntity
  8
0
  6
Continuous
 62
     7
100
AcDbLine
 10
68.3281485095
 20
60.0520943867
 30
0.0
 11
77.0847689631
 21
60.0520943867
 31
0.0
  0
ARC
  5
425
330
46E
100
AcDbEntity
  8
0
  6
Continuous
 62
     7
100
AcDbCircle
 10
166.0847689631
 20
64.8020943867
 30
0.0
 40
1.0
100
AcDbArc
 50
0.0
 51
90.0
  0
LINE
  5
426
330
46E
100
AcDbEntity
  8
0
  6
Continuous
 62
     7
100
AcDbLine
 10
166.7918757443
 20
64.8020943867
 30
0.0
 11
167.0847689631
 21
64.8020943867
 31
0.0
  0
LINE
  5
427
330
46E
100
AcDbEntity
  8
0
  6
Continuous
 62
     7
100
AcDbLine
 10
167.0847689631
 20
64.8020943867
 30
0.0
 11
167.0847689631
 21
51.3020943867
 31
0.0
  0
LINE
  5
428
330
46E
100
AcDbEntity
  8
0
  6
Continuous
 62
     7
100
AcDbLine
 10
167.0847689631
 20
51.3020943867
 30
0.0
 11
166.7918757443
 21
51.3020943867
 31
0.0
  0
ARC
  5
429
330
46E
100
AcDbEntity
  8
0
  6
Continuous
 62
     7
100
AcDbCircle
 10
166.0847689631
 20
51.3020943867
 30
0.0
 40
1.0
100
AcDbArc
 50
270.0
 51
0.0
  0
LINE
  5
42A
330
46E
100
AcDbEntity
  8
0
  6
Continuous
 62
     7
100
AcDbLine
 10
77.0847689631
 20
52.4166035599
 30
0.0
 11
73.8707689631
 21
54.584473933
 31
0.0
  0
ARC
  5
42B
330
46E
100
AcDbEntity
  8
0
  6
Continuous
 62
     7
100
AcDbCircle
 10
75.5574415213
 20
57.0654285238
 30
0.0
 40
3.000000000000004
100
AcDbArc
 50
224.855256431
 51
235.7902449846
  0
LINE
  5
42C
330
46E
100
AcDbEntity
  8
0
  6
Continuous
 62
     7
100
AcDbLine
 10
73.4307689631
 20
54.949473933
 30
0.0
 11
68.3281485095
 21
60.0520943867
 31
0.0
  0
LINE
  5
42D
330
46E
100
AcDbEntity
  8
0
  6
Continuous
 62
     7
100
AcDbLine
 10
57.3847689631
 20
62.0520943867
 30
0.0
 11
66.3281485095
 21
62.0520943867
 31
0.0
  0
LINE
  5
42E
330
46E
100
AcDbEntity
  8
0
  6
Continuous
 62
     7
100
AcDbLine
 10
57.3847689631
 20
62.0520943867
 30
0.0
 11
57.3847689631
 21
61.7520943867
 31
0.0
  0
LINE
  5
42F
330
46E
100
AcDbEntity
  8
0
  6
Continuous
 62
     7
100
AcDbLine
 10
57.3847689631
 20
61.7520943867
 30
0.0
 11
57.3847689631
 21
54.3520943867
 31
0.0
  0
LINE
  5
430
330
46E
100
AcDbEntity
  8
0
  6
Continuous
 62
     7
100
AcDbLine
 10
74.660054099
 20
54.0520943867
 30
0.0
 11
57.3847689631
 21
54.0520943867
 31
0.0
  0
LINE
  5
431
330
46E
100
AcDbEntity
  8
0
  6
Continuous
 62
     7
100
AcDbLine
 10
57.3847689631
 20
54.3520943867
 30
0.0
 11
57.3847689631
 21
54.0520943867
 31
0.0
  0
LINE
  5
432
330
46E
100
AcDbEntity
  8
0
  6
Continuous
 62
     7
100
AcDbLine
 10
57.3847689631
 20
54.3520943867
 30
0.0
 11
57.0847689631
 21
54.3520943867
 31
0.0
  0
LINE
  5
433
330
46E
100
AcDbEntity
  8
0
  6
Continuous
 62
     7
100
AcDbLine
 10
57.0847689631
 20
54.3520943867
 30
0.0
 11
57.0847689631
 21
61.7520943867
 31
0.0
  0
LINE
  5
434
330
46E
100
AcDbEntity
  8
0
  6
Continuous
 62
     7
100
AcDbLine
 10
57.3847689631
 20
61.7520943867
 30
0.0
 11
57.0847689631
 21
61.7520943867
 31
0.0
  0
ARC
  5
435
330
46E
100
AcDbEntity
  8
0
  6
Continuous
 62
     7
100
AcDbCircle
 10
57.3847689631
 20
61.7520943867
 30
0.0
 40
0.3000000000000114
100
AcDbArc
 50
90.0
 51
180.0
  0
ARC
  5
436
330
46E
100
AcDbEntity
  8
0
  6
Continuous
 62
     7
100
AcDbCircle
 10
57.3847689631
 20
54.3520943867
 30
0.0
 40
0.3000000000000114
100
AcDbArc
 50
180.0
 51
270.0
  0
LINE
  5
437
330
46E
100
AcDbEntity
  8
0
  6
Continuous
 62
     7
100
AcDbLine
 10
149.6705554007
 20
64.8020943867
 30
0.0
 11
112.4168197707
 21
64.8020943867
 31
0.0
  0
LINE
  5
438
330
46E
100
AcDbEntity
  8
0
  6
Continuous
 62
     7
100
AcDbLine
 10
112.4168197707
 20
51.3020943867
 30
0.0
 11
149.6705554007
 21
51.3020943867
 31
0.0
  0
LINE
  5
439
330
46E
100
AcDbEntity
  8
0
  6
Continuous
 62
     7
100
AcDbLine
 10
66.6281485095
 20
61.7520943867
 30
0.0
 11
57.3847689631
 21
61.7520943867
 31
0.0
  0
LINE
  5
43A
330
46E
100
AcDbEntity
  8
0
  6
Continuous
 62
     7
100
AcDbLine
 10
57.3847689631
 20
54.3520943867
 30
0.0
 11
74.2152858085
 21
54.3520943867
 31
0.0
  0
LINE
  5
453
330
46E
100
AcDbEntity
  8
0
  6
CENTERX2
 62
     7
100
AcDbLine
 10
53.1125893023
 20
58.0520943867
 30
0.0
 11
171.0526114298
 21
58.0520943867
 31
0.0
  0
ENDSEC
  0
SECTION
  2
OBJECTS
  0
DICTIONARY
  5
45E
330
0
100
AcDbDictionary
281
     1
  3
ACAD_DETAILVIEWSTYLE
350
539
  3
ACAD_GROUP
350
45F
  3
ACAD_LAYOUT
350
46B
  3
ACAD_MATERIAL
350
479
  3
ACAD_MLEADERSTYLE
350
529
  3
ACAD_MLINESTYLE
350
468
  3
ACAD_PLOTSETTINGS
350
46A
  3
ACAD_PLOTSTYLENAME
350
460
  3
ACAD_SCALELIST
350
4EC
  3
ACAD_SECTIONVIEWSTYLE
350
53A
  3
ACAD_TABLESTYLE
350
527
  3
ACAD_VISUALSTYLE
350
50E
  3
ACDB_RECOMPOSE_DATA
350
535
  3
AcDbVariableDictionary
350
531
  3
APPDATA
350
52B
  3
FX_DICT_DIMENSION_PALETTE
350
52D
  0
DICTIONARY
  5
52F
330
46E
100
AcDbDictionary
280
     1
281
     1
  3
DIM_BOUNDING_BOXES_V1
360
530
  0
DICTIONARY
  5
539
102
{ACAD_REACTORS
330
45E
102
}
330
45E
100
AcDbDictionary
281
     1
  0
DICTIONARY
  5
45F
102
{ACAD_REACTORS
330
45E
102
}
330
45E
100
AcDbDictionary
281
     1
  0
DICTIONARY
  5
46B
102
{ACAD_REACTORS
330
45E
102
}
330
45E
100
AcDbDictionary
281
     1
  3
Blatt1
350
46D
  3
Model
350
46F
  0
DICTIONARY
  5
479
102
{ACAD_REACTORS
330
45E
102
}
330
45E
100
AcDbDictionary
281
     1
  3
ByBlock
350
47B
  3
ByLayer
350
47A
  3
Global
350
47C
  0
DICTIONARY
  5
529
102
{ACAD_REACTORS
330
45E
102
}
330
45E
100
AcDbDictionary
281
     1
  3
Standard
350
52A
  0
DICTIONARY
  5
468
102
{ACAD_REACTORS
330
45E
102
}
330
45E
100
AcDbDictionary
281
     1
  3
Standard
350
469
  0
DICTIONARY
  5
46A
102
{ACAD_REACTORS
330
45E
102
}
330
45E
100
AcDbDictionary
281
     1
  0
ACDBDICTIONARYWDFLT
  5
460
102
{ACAD_REACTORS
330
45E
102
}
330
45E
100
AcDbDictionary
281
     1
  3
Normal
350
461
100
AcDbDictionaryWithDefault
340
461
  0
DICTIONARY
  5
4EC
102
{ACAD_REACTORS
330
45E
102
}
330
45E
100
AcDbDictionary
281
     1
  3
A0
350
4ED
  3
A1
350
4EE
  3
A2
350
4EF
  3
A3
350
4F0
  3
A4
350
4F1
  3
A5
350
4F2
  3
A6
350
4F3
  3
A7
350
4F4
  3
A8
350
4F5
  3
A9
350
4F6
  3
B0
350
4F7
  3
B1
350
4F8
  3
B2
350
4F9
  3
B3
350
4FA
  3
B4
350
4FB
  3
B5
350
4FC
  3
B6
350
4FD
  3
B7
350
4FE
  3
B8
350
4FF
  3
B9
350
500
  3
C0
350
501
  3
C1
350
502
  3
C2
350
503
  3
C3
350
504
  3
C4
350
505
  3
C5
350
506
  3
C6
350
507
  3
C7
350
508
  3
C8
350
509
  3
C9
350
50A
  3
D0
350
50B
  3
D1
350
50C
  3
D2
350
50D
  0
DICTIONARY
  5
53A
102
{ACAD_REACTORS
330
45E
102
}
330
45E
100
AcDbDictionary
281
     1
  0
DICTIONARY
  5
527
102
{ACAD_REACTORS
330
45E
102
}
330
45E
100
AcDbDictionary
281
     1
  3
Standard
350
528
  0
DICTIONARY
  5
50E
102
{ACAD_REACTORS
330
45E
102
}
330
45E
100
AcDbDictionary
281
     1
  3
2dWireframe
350
513
  3
Basic
350
516
  3
Brighten
350
51A
  3
ColorChange
350
51E
  3
Conceptual
350
518
  3
Dim
350
519
  3
EdgeColorOff
350
521
  3
Facepattern
350
51D
  3
Flat
350
50F
  3
FlatWithEdges
350
510
  3
Gouraud
350
511
  3
GouraudWithEdges
350
512
  3
Hidden
350
515
  3
JitterOff
350
51F
  3
Linepattern
350
51C
  3
OverhangOff
350
520
  3
Realistic
350
517
  3
Shaded
350
526
  3
Shaded with edges
350
525
  3
Shades of Gray
350
522
  3
Sketchy
350
523
  3
Thicken
350
51B
  3
Wireframe
350
514
  3
X-Ray
350
524
  0
XRECORD
  5
535
102
{ACAD_REACTORS
330
45E
102
}
330
45E
100
AcDbXrecord
280
     1
 90
        1
330
528
  0
DICTIONARY
  5
531
102
{ACAD_REACTORS
330
45E
102
}
330
45E
100
AcDbDictionary
281
     1
  3
CANNOSCALE
350
532
  3
CMLEADERSTYLE
350
537
  3
CTABLESTYLE
350
536
  3
MSLTSCALE
350
538
  0
DICTIONARY
  5
52B
102
{ACAD_REACTORS
330
45E
102
}
330
45E
100
AcDbDictionary
281
     1
  0
DICTIONARY
  5
52D
102
{ACAD_REACTORS
330
45E
102
}
330
45E
100
AcDbDictionary
281
     1
1001
FX_DIMP_FAV_VERSION
1071
        1
  0
DICTIONARY
  5
530
102
{ACAD_REACTORS
330
52F
102
}
330
52F
100
AcDbDictionary
281
     1
  0
LAYOUT
  5
46D
102
{ACAD_REACTORS
330
46B
102
}
330
46B
100
AcDbPlotSettings
  1

  2
none_device
  4

  6

 40
0.0
 41
0.0
 42
0.0
 43
0.0
 44
0.0
 45
0.0
 46
0.0
 47
0.0
 48
0.0
 49
0.0
140
0.0
141
0.0
142
1.0
143
1.0
 70
   688
 72
     0
 73
     0
 74
     5
  7

 75
    16
 76
     0
 77
     2
 78
   300
147
1.0
148
0.0
149
0.0
100
AcDbLayout
  1
Blatt1
 70
     1
 71
     1
 10
0.0
 20
0.0
 11
0.0
 21
0.0
 12
0.0
 22
0.0
 32
0.0
 14
1.000000000000000E+20
 24
1.000000000000000E+20
 34
1.000000000000000E+20
 15
-1.000000000000000E+20
 25
-1.000000000000000E+20
 35
-1.000000000000000E+20
146
0.0
 13
0.0
 23
0.0
 33
0.0
 16
1.0
 26
0.0
 36
0.0
 17
0.0
 27
1.0
 37
0.0
 76
     0
330
46C
  0
LAYOUT
  5
46F
102
{ACAD_REACTORS
330
46B
102
}
330
46B
100
AcDbPlotSettings
  1

  2
none_device
  4
Letter_(8.50_x_11.00_Inches)
  6

 40
6.35
 41
6.35
 42
6.35
 43
6.35
 44
215.9
 45
279.4
 46
0.0
 47
0.0
 48
0.0
 49
0.0
140
0.0
141
0.0
142
1.0
143
1.0
 70
  1712
 72
     0
 73
     0
 74
     0
  7

 75
     0
 76
     0
 77
     2
 78
   300
147
1.0
148
0.0
149
0.0
100
AcDbLayout
  1
Model
 70
     1
 71
     0
 10
0.0
 20
0.0
 11
12.0
 21
9.0
 12
0.0
 22
0.0
 32
0.0
 14
53.11258930229999
 24
49.05209438669999
 34
0.0
 15
242.8980970029
 25
360.9453748209
 35
0.0
146
0.0
 13
0.0
 23
0.0
 33
0.0
 16
1.0
 26
0.0
 36
0.0
 17
0.0
 27
1.0
 37
0.0
 76
     0
330
46E
331
471
  0
MATERIAL
  5
47B
102
{ACAD_REACTORS
330
479
102
}
330
479
100
AcDbMaterial
  1
ByBlock
 72
     1
 94
      127
  0
MATERIAL
  5
47A
102
{ACAD_REACTORS
330
479
102
}
330
479
100
AcDbMaterial
  1
ByLayer
 72
     1
 94
      127
  0
MATERIAL
  5
47C
102
{ACAD_REACTORS
330
479
102
}
330
479
100
AcDbMaterial
  1
Global
 72
     1
 94
      127
  0
MLEADERSTYLE
  5
52A
102
{ACAD_REACTORS
330
529
102
}
330
529
100
AcDbMLeaderStyle
179
     2
170
     2
171
     1
172
     0
 90
        2
 40
0.0
 41
0.0
173
     1
 91
-1056964608
340
465
 92
       -2
290
     1
 42
0.09
291
     1
 43
0.36
  3
Standard
341
0
 44
0.18
300

342
463
174
     1
178
     1
175
     1
176
     0
 93
-1056964608
 45
0.18
292
     0
297
     0
 46
0.18
343
0
 94
-1056964608
 47
1.0
 49
1.0
140
1.0
293
     1
141
0.0
294
     1
177
     0
142
1.0
295
     0
296
     0
143
0.125
271
     0
272
     9
273
     9
298
     0
  0
MLINESTYLE
  5
469
102
{ACAD_REACTORS
330
468
102
}
330
468
100
AcDbMlineStyle
  2
Standard
 70
     0
  3

 62
   256
 51
90.0
 52
90.0
 71
     2
 49
0.5
 62
   256
  6
BYLAYER
 49
-0.5
 62
   256
  6
BYLAYER
  0
ACDBPLACEHOLDER
  5
461
102
{ACAD_REACTORS
330
460
102
}
330
460
  0
SCALE
  5
4ED
102
{ACAD_REACTORS
330
4EC
102
}
330
4EC
100
AcDbScale
 70
     0
300
1:1
140
1.0
141
1.0
290
     1
  0
SCALE
  5
4EE
102
{ACAD_REACTORS
330
4EC
102
}
330
4EC
100
AcDbScale
 70
     0
300
1:2
140
1.0
141
2.0
290
     0
  0
SCALE
  5
4EF
102
{ACAD_REACTORS
330
4EC
102
}
330
4EC
100
AcDbScale
 70
     0
300
1:4
140
1.0
141
4.0
290
     0
  0
SCALE
  5
4F0
102
{ACAD_REACTORS
330
4EC
102
}
330
4EC
100
AcDbScale
 70
     0
300
1:5
140
1.0
141
5.0
290
     0
  0
SCALE
  5
4F1
102
{ACAD_REACTORS
330
4EC
102
}
330
4EC
100
AcDbScale
 70
     0
300
1:8
140
1.0
141
8.0
290
     0
  0
SCALE
  5
4F2
102
{ACAD_REACTORS
330
4EC
102
}
330
4EC
100
AcDbScale
 70
     0
300
1:10
140
1.0
141
10.0
290
     0
  0
SCALE
  5
4F3
102
{ACAD_REACTORS
330
4EC
102
}
330
4EC
100
AcDbScale
 70
     0
300
1:16
140
1.0
141
16.0
290
     0
  0
SCALE
  5
4F4
102
{ACAD_REACTORS
330
4EC
102
}
330
4EC
100
AcDbScale
 70
     0
300
1:20
140
1.0
141
20.0
290
     0
  0
SCALE
  5
4F5
102
{ACAD_REACTORS
330
4EC
102
}
330
4EC
100
AcDbScale
 70
     0
300
1:30
140
1.0
141
30.0
290
     0
  0
SCALE
  5
4F6
102
{ACAD_REACTORS
330
4EC
102
}
330
4EC
100
AcDbScale
 70
     0
300
1:40
140
1.0
141
40.0
290
     0
  0
SCALE
  5
4F7
102
{ACAD_REACTORS
330
4EC
102
}
330
4EC
100
AcDbScale
 70
     0
300
1:50
140
1.0
141
50.0
290
     0
  0
SCALE
  5
4F8
102
{ACAD_REACTORS
330
4EC
102
}
330
4EC
100
AcDbScale
 70
     0
300
1:100
140
1.0
141
100.0
290
     0
  0
SCALE
  5
4F9
102
{ACAD_REACTORS
330
4EC
102
}
330
4EC
100
AcDbScale
 70
     0
300
2:1
140
2.0
141
1.0
290
     0
  0
SCALE
  5
4FA
102
{ACAD_REACTORS
330
4EC
102
}
330
4EC
100
AcDbScale
 70
     0
300
4:1
140
4.0
141
1.0
290
     0
  0
SCALE
  5
4FB
102
{ACAD_REACTORS
330
4EC
102
}
330
4EC
100
AcDbScale
 70
     0
300
8:1
140
8.0
141
1.0
290
     0
  0
SCALE
  5
4FC
102
{ACAD_REACTORS
330
4EC
102
}
330
4EC
100
AcDbScale
 70
     0
300
10:1
140
10.0
141
1.0
290
     0
  0
SCALE
  5
4FD
102
{ACAD_REACTORS
330
4EC
102
}
330
4EC
100
AcDbScale
 70
     0
300
100:1
140
100.0
141
1.0
290
     0
  0
SCALE
  5
4FE
102
{ACAD_REACTORS
330
4EC
102
}
330
4EC
100
AcDbScale
 70
     0
300
1/128" = 1'-0"
140
0.0078125
141
12.0
290
     0
  0
SCALE
  5
4FF
102
{ACAD_REACTORS
330
4EC
102
}
330
4EC
100
AcDbScale
 70
     0
300
1/64" = 1'-0"
140
0.015625
141
12.0
290
     0
  0
SCALE
  5
500
102
{ACAD_REACTORS
330
4EC
102
}
330
4EC
100
AcDbScale
 70
     0
300
1/32" = 1'-0"
140
0.03125
141
12.0
290
     0
  0
SCALE
  5
501
102
{ACAD_REACTORS
330
4EC
102
}
330
4EC
100
AcDbScale
 70
     0
300
1/16" = 1'-0"
140
0.0625
141
12.0
290
     0
  0
SCALE
  5
502
102
{ACAD_REACTORS
330
4EC
102
}
330
4EC
100
AcDbScale
 70
     0
300
3/32" = 1'-0"
140
0.09375
141
12.0
290
     0
  0
SCALE
  5
503
102
{ACAD_REACTORS
330
4EC
102
}
330
4EC
100
AcDbScale
 70
     0
300
1/8" = 1'-0"
140
0.125
141
12.0
290
     0
  0
SCALE
  5
504
102
{ACAD_REACTORS
330
4EC
102
}
330
4EC
100
AcDbScale
 70
     0
300
3/16" = 1'-0"
140
0.1875
141
12.0
290
     0
  0
SCALE
  5
505
102
{ACAD_REACTORS
330
4EC
102
}
330
4EC
100
AcDbScale
 70
     0
300
1/4" = 1'-0"
140
0.25
141
12.0
290
     0
  0
SCALE
  5
506
102
{ACAD_REACTORS
330
4EC
102
}
330
4EC
100
AcDbScale
 70
     0
300
3/8" = 1'-0"
140
0.375
141
12.0
290
     0
  0
SCALE
  5
507
102
{ACAD_REACTORS
330
4EC
102
}
330
4EC
100
AcDbScale
 70
     0
300
1/2" = 1'-0"
140
0.5
141
12.0
290
     0
  0
SCALE
  5
508
102
{ACAD_REACTORS
330
4EC
102
}
330
4EC
100
AcDbScale
 70
     0
300
3/4" = 1'-0"
140
0.75
141
12.0
290
     0
  0
SCALE
  5
509
102
{ACAD_REACTORS
330
4EC
102
}
330
4EC
100
AcDbScale
 70
     0
300
1" = 1'-0"
140
1.0
141
12.0
290
     0
  0
SCALE
  5
50A
102
{ACAD_REACTORS
330
4EC
102
}
330
4EC
100
AcDbScale
 70
     0
300
1-1/2" = 1'-0"
140
1.5
141
12.0
290
     0
  0
SCALE
  5
50B
102
{ACAD_REACTORS
330
4EC
102
}
330
4EC
100
AcDbScale
 70
     0
300
3" = 1'-0"
140
3.0
141
12.0
290
     0
  0
SCALE
  5
50C
102
{ACAD_REACTORS
330
4EC
102
}
330
4EC
100
AcDbScale
 70
     0
300
6" = 1'-0"
140
6.0
141
12.0
290
     0
  0
SCALE
  5
50D
102
{ACAD_REACTORS
330
4EC
102
}
330
4EC
100
AcDbScale
 70
     0
300
1'-0" = 1'-0"
140
12.0
141
12.0
290
     0
  0
TABLESTYLE
  5
528
102
{ACAD_REACTORS
330
527
102
}
102
{ACAD_XDICTIONARY
360
533
102
}
330
527
100
AcDbTableStyle
  3
Standard
 70
     0
 71
     0
 40
0.06
 41
0.06
280
     0
281
     0
  7
STANDARD
140
0.18
170
     2
 62
     0
 63
   257
283
     0
 90
        4
 91
        0
  1

274
    -2
284
     1
 64
     0
275
    -2
285
     1
 65
     0
276
    -2
286
     1
 66
     0
277
    -2
287
     1
 67
     0
278
    -2
288
     1
 68
     0
279
    -2
289
     1
 69
     0
  7
STANDARD
140
0.25
170
     5
 62
     0
 63
   257
283
     0
 90
        4
 91
        0
  1

274
    -2
284
     1
 64
     0
275
    -2
285
     1
 65
     0
276
    -2
286
     1
 66
     0
277
    -2
287
     1
 67
     0
278
    -2
288
     1
 68
     0
279
    -2
289
     1
 69
     0
  7
STANDARD
140
0.18
170
     5
 62
     0
 63
   257
283
     0
 90
        4
 91
        0
  1

274
    -2
284
     1
 64
     0
275
    -2
285
     1
 65
     0
276
    -2
286
     1
 66
     0
277
    -2
287
     1
 67
     0
278
    -2
288
     1
 68
     0
279
    -2
289
     1
 69
     0
  0
VISUALSTYLE
  5
513
102
{ACAD_REACTORS
330
50E
102
}
330
50E
100
AcDbVisualStyle
  2
2dWireframe
 70
     4
177
     3
291
     0
 70
    58
 90
        0
176
     1
 90
        2
176
     1
 90
        0
176
     1
 90
        0
176
     1
 40
0.6
176
     1
 40
30.0
176
     1
 62
     7
420
 16777215
176
     1
 90
        1
176
     1
 90
        4
176
     1
 62
     7
176
     1
 62
   257
176
     1
 90
        1
176
     1
 90
        1
176
     1
 40
1.0
176
     1
 90
        0
176
     1
 62
   257
176
     1
 40
1.0
176
     1
 90
        1
176
     1
 90
        6
176
     1
 90
        2
176
     1
 62
     7
176
     1
 90
        5
176
     1
 90
        0
176
     1
 90
        0
176
     1
290
     0
176
     1
 90
        1
176
     1
 40
0.0
176
     1
 90
        0
176
     1
290
     1
176
     1
290
     1
176
     1
290
     0
176
     1
290
     0
176
     1
290
     0
176
     1
290
     0
176
     1
290
     0
176
     1
290
     0
176
     1
290
     0
176
     1
 90
       50
176
     1
 40
0.0
176
     1
 40
1.0
176
     1
 90
        0
176
     1
 62
    18
420
        0
176
     1
 90
       50
176
     1
 90
        3
176
     1
 62
     5
420
      255
176
     1
290
     0
176
     1
 90
       50
176
     1
 90
       50
176
     1
 90
       50
176
     1
290
     0
176
     1
 90
       50
176
     1
 62
   256
176
     0
 40
1.0
176
     0
 90
        2
176
     1
  1
strokes_ogs.tif
176
     1
290
     0
176
     1
 40
1.0
176
     1
 40
1.0
176
     1
  0
VISUALSTYLE
  5
516
102
{ACAD_REACTORS
330
50E
102
}
330
50E
100
AcDbVisualStyle
  2
Basic
 70
     7
177
     3
291
     1
 70
    58
 90
        1
176
     1
 90
        0
176
     1
 90
        1
176
     1
 90
        0
176
     1
 40
0.6
176
     1
 40
30.0
176
     1
 62
     7
420
 16777215
176
     1
 90
        0
176
     1
 90
        4
176
     1
 62
     7
176
     1
 62
   257
176
     1
 90
        1
176
     1
 90
        1
176
     1
 40
1.0
176
     1
 90
        8
176
     1
 62
     7
176
     1
 40
1.0
176
     1
 90
        1
176
     1
 90
        6
176
     1
 90
        2
176
     1
 62
     7
176
     1
 90
        5
176
     1
 90
        0
176
     1
 90
        0
176
     1
290
     0
176
     1
 90
        1
176
     1
 40
0.0
176
     1
 90
        0
176
     1
290
     0
176
     1
290
     1
176
     1
290
     1
176
     1
290
     0
176
     1
290
     0
176
     1
290
     0
176
     1
290
     0
176
     1
290
     0
176
     1
290
     0
176
     1
 90
       50
176
     1
 40
0.0
176
     1
 40
1.0
176
     1
 90
        0
176
     1
 62
    18
420
        0
176
     1
 90
       50
176
     1
 90
        3
176
     1
 62
     5
420
      255
176
     1
290
     0
176
     1
 90
       50
176
     1
 90
       50
176
     1
 90
       50
176
     1
290
     0
176
     1
 90
       50
176
     1
 62
   256
176
     0
 40
1.0
176
     0
 90
        2
176
     1
  1
strokes_ogs.tif
176
     1
290
     0
176
     1
 40
1.0
176
     1
 40
1.0
176
     1
  0
VISUALSTYLE
  5
51A
102
{ACAD_REACTORS
330
50E
102
}
330
50E
100
AcDbVisualStyle
  2
Brighten
 70
    12
177
     3
291
     1
 70
    58
 90
        2
176
     1
 90
        2
176
     1
 90
        0
176
     1
 90
        0
176
     1
 40
0.6
176
     1
 40
30.0
176
     1
 62
     7
420
 16777215
176
     1
 90
        1
176
     1
 90
        4
176
     1
 62
     7
176
     1
 62
   257
176
     1
 90
        1
176
     1
 90
        1
176
     1
 40
1.0
176
     1
 90
        8
176
     1
 62
     7
176
     1
 40
1.0
176
     1
 90
        1
176
     1
 90
        6
176
     1
 90
        2
176
     1
 62
     7
176
     1
 90
        5
176
     1
 90
        0
176
     1
 90
        0
176
     1
290
     0
176
     1
 90
        1
176
     1
 40
50.0
176
     1
 90
        0
176
     1
290
     0
176
     1
290
     1
176
     1
290
     1
176
     1
290
     0
176
     1
290
     0
176
     1
290
     0
176
     1
290
     0
176
     1
290
     0
176
     1
290
     0
176
     1
 90
       50
176
     1
 40
0.0
176
     1
 40
1.0
176
     1
 90
        0
176
     1
 62
    18
420
        0
176
     1
 90
       50
176
     1
 90
        3
176
     1
 62
     5
420
      255
176
     1
290
     0
176
     1
 90
       50
176
     1
 90
       50
176
     1
 90
       50
176
     1
290
     0
176
     1
 90
       50
176
     1
 62
   256
176
     0
 40
1.0
176
     0
 90
        2
176
     1
  1
strokes_ogs.tif
176
     1
290
     0
176
     1
 40
1.0
176
     1
 40
1.0
176
     1
  0
VISUALSTYLE
  5
51E
102
{ACAD_REACTORS
330
50E
102
}
330
50E
100
AcDbVisualStyle
  2
ColorChange
 70
    16
177
     3
291
     1
 70
    58
 90
        2
176
     1
 90
        2
176
     1
 90
        3
176
     1
 90
        0
176
     1
 40
0.6
176
     1
 40
30.0
176
     1
 62
     8
420
  8421504
176
     1
 90
        1
176
     1
 90
        4
176
     1
 62
     7
176
     1
 62
   257
176
     1
 90
        1
176
     1
 90
        1
176
     1
 40
1.0
176
     1
 90
        8
176
     1
 62
     8
420
  8421504
176
     1
 40
1.0
176
     1
 90
        1
176
     1
 90
        6
176
     1
 90
        2
176
     1
 62
     7
176
     1
 90
        5
176
     1
 90
        0
176
     1
 90
        0
176
     1
290
     0
176
     1
 90
        1
176
     1
 40
0.0
176
     1
 90
        0
176
     1
290
     0
176
     1
290
     1
176
     1
290
     1
176
     1
290
     0
176
     1
290
     0
176
     1
290
     0
176
     1
290
     0
176
     1
290
     0
176
     1
290
     0
176
     1
 90
       50
176
     1
 40
0.0
176
     1
 40
1.0
176
     1
 90
        0
176
     1
 62
    18
420
        0
176
     1
 90
       50
176
     1
 90
        3
176
     1
 62
     5
420
      255
176
     1
290
     0
176
     1
 90
       50
176
     1
 90
       50
176
     1
 90
       50
176
     1
290
     0
176
     1
 90
       50
176
     1
 62
   256
176
     0
 40
1.0
176
     0
 90
        2
176
     1
  1
strokes_ogs.tif
176
     1
290
     0
176
     1
 40
1.0
176
     1
 40
1.0
176
     1
  0
VISUALSTYLE
  5
518
102
{ACAD_REACTORS
330
50E
102
}
330
50E
100
AcDbVisualStyle
  2
Conceptual
 70
     9
177
     3
291
     0
 70
    58
 90
        3
176
     1
 90
        2
176
     1
 90
        0
176
     1
 90
        0
176
     1
 40
0.6
176
     1
 40
30.0
176
     1
 62
     7
420
 16777215
176
     1
 90
        2
176
     1
 90
        2
176
     1
 62
     7
176
     1
 62
   257
176
     1
 90
        1
176
     1
 90
        1
176
     1
 40
179.0
176
     1
 90
        8
176
     1
 62
     7
176
     1
 40
1.0
176
     1
 90
        1
176
     1
 90
        6
176
     1
 90
        2
176
     1
 62
     7
176
     1
 90
        3
176
     1
 90
        0
176
     1
 90
        0
176
     1
290
     0
176
     1
 90
        1
176
     1
 40
0.0
176
     1
 90
        0
176
     1
290
     0
176
     1
290
     1
176
     1
290
     1
176
     1
290
     0
176
     1
290
     0
176
     1
290
     0
176
     1
290
     0
176
     1
290
     0
176
     1
290
     0
176
     1
 90
       50
176
     1
 40
0.0
176
     1
 40
1.0
176
     1
 90
        0
176
     1
 62
    18
420
        0
176
     1
 90
       50
176
     1
 90
        3
176
     1
 62
     5
420
      255
176
     1
290
     0
176
     1
 90
       50
176
     1
 90
       50
176
     1
 90
       50
176
     1
290
     0
176
     1
 90
       50
176
     1
 62
   256
176
     0
 40
1.0
176
     0
 90
        2
176
     1
  1
strokes_ogs.tif
176
     1
290
     0
176
     1
 40
1.0
176
     1
 40
1.0
176
     1
  0
VISUALSTYLE
  5
519
102
{ACAD_REACTORS
330
50E
102
}
330
50E
100
AcDbVisualStyle
  2
Dim
 70
    11
177
     3
291
     1
 70
    58
 90
        2
176
     1
 90
        2
176
     1
 90
        0
176
     1
 90
        0
176
     1
 40
0.6
176
     1
 40
30.0
176
     1
 62
     7
420
 16777215
176
     1
 90
        1
176
     1
 90
        4
176
     1
 62
     7
176
     1
 62
   257
176
     1
 90
        1
176
     1
 90
        1
176
     1
 40
1.0
176
     1
 90
        8
176
     1
 62
     7
176
     1
 40
1.0
176
     1
 90
        1
176
     1
 90
        6
176
     1
 90
        2
176
     1
 62
     7
176
     1
 90
        5
176
     1
 90
        0
176
     1
 90
        0
176
     1
290
     0
176
     1
 90
        1
176
     1
 40
-50.0
176
     1
 90
        0
176
     1
290
     0
176
     1
290
     1
176
     1
290
     1
176
     1
290
     0
176
     1
290
     0
176
     1
290
     0
176
     1
290
     0
176
     1
290
     0
176
     1
290
     0
176
     1
 90
       50
176
     1
 40
0.0
176
     1
 40
1.0
176
     1
 90
        0
176
     1
 62
    18
420
        0
176
     1
 90
       50
176
     1
 90
        3
176
     1
 62
     5
420
      255
176
     1
290
     0
176
     1
 90
       50
176
     1
 90
       50
176
     1
 90
       50
176
     1
290
     0
176
     1
 90
       50
176
     1
 62
   256
176
     0
 40
1.0
176
     0
 90
        2
176
     1
  1
strokes_ogs.tif
176
     1
290
     0
176
     1
 40
1.0
176
     1
 40
1.0
176
     1
  0
VISUALSTYLE
  5
521
102
{ACAD_REACTORS
330
50E
102
}
330
50E
100
AcDbVisualStyle
  2
EdgeColorOff
 70
    22
177
     3
291
     1
 70
    58
 90
        2
176
     0
 90
        2
176
     0
 90
        0
176
     0
 90
        0
176
     0
 40
0.6
176
     0
 40
30.0
176
     0
 62
     7
420
 16777215
176
     0
 90
        1
176
     0
 90
        4
176
     0
 62
     7
176
     0
 62
   257
176
     0
 90
        1
176
     0
 90
        1
176
     0
 40
1.0
176
     0
 90
        8
176
     2
 62
     7
176
     0
 40
1.0
176
     0
 90
        1
176
     0
 90
        6
176
     0
 90
        2
176
     0
 62
     7
176
     0
 90
        5
176
     0
 90
        0
176
     0
 90
        0
176
     0
290
     0
176
     0
 90
        1
176
     0
 40
0.0
176
     0
 90
        0
176
     0
290
     0
176
     0
290
     1
176
     0
290
     1
176
     0
290
     0
176
     0
290
     0
176
     0
290
     0
176
     0
290
     0
176
     0
290
     0
176
     0
290
     0
176
     0
 90
       50
176
     0
 40
0.0
176
     0
 40
1.0
176
     0
 90
        0
176
     0
 62
    18
420
        0
176
     0
 90
       50
176
     0
 90
        3
176
     0
 62
     5
420
      255
176
     0
290
     0
176
     0
 90
       50
176
     0
 90
       50
176
     0
 90
       50
176
     0
290
     0
176
     0
 90
       50
176
     0
 62
   256
176
     0
 40
1.0
176
     0
 90
        2
176
     0
  1
strokes_ogs.tif
176
     0
290
     0
176
     0
 40
1.0
176
     0
 40
1.0
176
     0
  0
VISUALSTYLE
  5
51D
102
{ACAD_REACTORS
330
50E
102
}
330
50E
100
AcDbVisualStyle
  2
Facepattern
 70
    15
177
     3
291
     1
 70
    58
 90
        2
176
     1
 90
        2
176
     1
 90
        0
176
     1
 90
        0
176
     1
 40
0.6
176
     1
 40
30.0
176
     1
 62
     7
420
 16777215
176
     1
 90
        1
176
     1
 90
        4
176
     1
 62
     7
176
     1
 62
   257
176
     1
 90
        1
176
     1
 90
        1
176
     1
 40
1.0
176
     1
 90
        8
176
     1
 62
     7
176
     1
 40
1.0
176
     1
 90
        1
176
     1
 90
        6
176
     1
 90
        2
176
     1
 62
     7
176
     1
 90
        5
176
     1
 90
        0
176
     1
 90
        0
176
     1
290
     0
176
     1
 90
        1
176
     1
 40
0.0
176
     1
 90
        0
176
     1
290
     0
176
     1
290
     1
176
     1
290
     1
176
     1
290
     0
176
     1
290
     0
176
     1
290
     0
176
     1
290
     0
176
     1
290
     0
176
     1
290
     0
176
     1
 90
       50
176
     1
 40
0.0
176
     1
 40
1.0
176
     1
 90
        0
176
     1
 62
    18
420
        0
176
     1
 90
       50
176
     1
 90
        3
176
     1
 62
     5
420
      255
176
     1
290
     0
176
     1
 90
       50
176
     1
 90
       50
176
     1
 90
       50
176
     1
290
     0
176
     1
 90
       50
176
     1
 62
   256
176
     0
 40
1.0
176
     0
 90
        2
176
     1
  1
strokes_ogs.tif
176
     1
290
     0
176
     1
 40
1.0
176
     1
 40
1.0
176
     1
  0
VISUALSTYLE
  5
50F
102
{ACAD_REACTORS
330
50E
102
}
330
50E
100
AcDbVisualStyle
  2
Flat
 70
     0
177
     3
291
     1
 70
    58
 90
        2
176
     1
 90
        1
176
     1
 90
        1
176
     1
 90
        2
176
     1
 40
0.6
176
     1
 40
30.0
176
     1
 62
     7
420
 16777215
176
     1
 90
        0
176
     1
 90
        0
176
     1
 62
     7
176
     1
 62
   257
176
     1
 90
        1
176
     1
 90
        1
176
     1
 40
1.0
176
     1
 90
        8
176
     1
 62
     7
176
     1
 40
1.0
176
     1
 90
        1
176
     1
 90
        6
176
     1
 90
        2
176
     1
 62
     7
176
     1
 90
        5
176
     1
 90
        0
176
     1
 90
        0
176
     1
290
     0
176
     1
 90
       13
176
     1
 40
0.0
176
     1
 90
        0
176
     1
290
     0
176
     1
290
     1
176
     1
290
     1
176
     1
290
     0
176
     1
290
     0
176
     1
290
     0
176
     1
290
     0
176
     1
290
     0
176
     1
290
     0
176
     1
 90
       50
176
     1
 40
0.0
176
     1
 40
1.0
176
     1
 90
        0
176
     1
 62
    18
420
        0
176
     1
 90
       50
176
     1
 90
        3
176
     1
 62
     5
420
      255
176
     1
290
     0
176
     1
 90
       50
176
     1
 90
       50
176
     1
 90
       50
176
     1
290
     0
176
     1
 90
       50
176
     1
 62
   256
176
     0
 40
1.0
176
     0
 90
        2
176
     1
  1
strokes_ogs.tif
176
     1
290
     0
176
     1
 40
1.0
176
     1
 40
1.0
176
     1
  0
VISUALSTYLE
  5
510
102
{ACAD_REACTORS
330
50E
102
}
330
50E
100
AcDbVisualStyle
  2
FlatWithEdges
 70
     1
177
     3
291
     1
 70
    58
 90
        2
176
     1
 90
        1
176
     1
 90
        1
176
     1
 90
        2
176
     1
 40
0.6
176
     1
 40
30.0
176
     1
 62
     7
420
 16777215
176
     1
 90
        1
176
     1
 90
        0
176
     1
 62
     7
176
     1
 62
   257
176
     1
 90
        1
176
     1
 90
        1
176
     1
 40
1.0
176
     1
 90
        0
176
     1
 62
   257
176
     1
 40
1.0
176
     1
 90
        1
176
     1
 90
        6
176
     1
 90
        2
176
     1
 62
     7
176
     1
 90
        5
176
     1
 90
        0
176
     1
 90
        0
176
     1
290
     0
176
     1
 90
       13
176
     1
 40
0.0
176
     1
 90
        0
176
     1
290
     0
176
     1
290
     1
176
     1
290
     1
176
     1
290
     0
176
     1
290
     0
176
     1
290
     0
176
     1
290
     0
176
     1
290
     0
176
     1
290
     0
176
     1
 90
       50
176
     1
 40
0.0
176
     1
 40
1.0
176
     1
 90
        0
176
     1
 62
    18
420
        0
176
     1
 90
       50
176
     1
 90
        3
176
     1
 62
     5
420
      255
176
     1
290
     0
176
     1
 90
       50
176
     1
 90
       50
176
     1
 90
       50
176
     1
290
     0
176
     1
 90
       50
176
     1
 62
   256
176
     0
 40
1.0
176
     0
 90
        2
176
     1
  1
strokes_ogs.tif
176
     1
290
     0
176
     1
 40
1.0
176
     1
 40
1.0
176
     1
  0
VISUALSTYLE
  5
511
102
{ACAD_REACTORS
330
50E
102
}
330
50E
100
AcDbVisualStyle
  2
Gouraud
 70
     2
177
     3
291
     1
 70
    58
 90
        2
176
     1
 90
        2
176
     1
 90
        1
176
     1
 90
        2
176
     1
 40
0.6
176
     1
 40
30.0
176
     1
 62
     7
420
 16777215
176
     1
 90
        0
176
     1
 90
        0
176
     1
 62
     7
176
     1
 62
   257
176
     1
 90
        1
176
     1
 90
        1
176
     1
 40
1.0
176
     1
 90
        0
176
     1
 62
     7
176
     1
 40
1.0
176
     1
 90
        1
176
     1
 90
        6
176
     1
 90
        2
176
     1
 62
     7
176
     1
 90
        5
176
     1
 90
        0
176
     1
 90
        0
176
     1
290
     0
176
     1
 90
       13
176
     1
 40
0.0
176
     1
 90
        0
176
     1
290
     0
176
     1
290
     1
176
     1
290
     1
176
     1
290
     0
176
     1
290
     0
176
     1
290
     0
176
     1
290
     0
176
     1
290
     0
176
     1
290
     0
176
     1
 90
       50
176
     1
 40
0.0
176
     1
 40
1.0
176
     1
 90
        0
176
     1
 62
    18
420
        0
176
     1
 90
       50
176
     1
 90
        3
176
     1
 62
     5
420
      255
176
     1
290
     0
176
     1
 90
       50
176
     1
 90
       50
176
     1
 90
       50
176
     1
290
     0
176
     1
 90
       50
176
     1
 62
   256
176
     0
 40
1.0
176
     0
 90
        2
176
     1
  1
strokes_ogs.tif
176
     1
290
     0
176
     1
 40
1.0
176
     1
 40
1.0
176
     1
  0
VISUALSTYLE
  5
512
102
{ACAD_REACTORS
330
50E
102
}
330
50E
100
AcDbVisualStyle
  2
GouraudWithEdges
 70
     3
177
     3
291
     1
 70
    58
 90
        2
176
     1
 90
        2
176
     1
 90
        1
176
     1
 90
        2
176
     1
 40
0.6
176
     1
 40
30.0
176
     1
 62
     7
420
 16777215
176
     1
 90
        1
176
     1
 90
        0
176
     1
 62
     7
176
     1
 62
   257
176
     1
 90
        1
176
     1
 90
        1
176
     1
 40
1.0
176
     1
 90
        0
176
     1
 62
   257
176
     1
 40
1.0
176
     1
 90
        1
176
     1
 90
        6
176
     1
 90
        2
176
     1
 62
     7
176
     1
 90
        5
176
     1
 90
        0
176
     1
 90
        0
176
     1
290
     0
176
     1
 90
       13
176
     1
 40
0.0
176
     1
 90
        0
176
     1
290
     0
176
     1
290
     1
176
     1
290
     1
176
     1
290
     0
176
     1
290
     0
176
     1
290
     0
176
     1
290
     0
176
     1
290
     0
176
     1
290
     0
176
     1
 90
       50
176
     1
 40
0.0
176
     1
 40
1.0
176
     1
 90
        0
176
     1
 62
    18
420
        0
176
     1
 90
       50
176
     1
 90
        3
176
     1
 62
     5
420
      255
176
     1
290
     0
176
     1
 90
       50
176
     1
 90
       50
176
     1
 90
       50
176
     1
290
     0
176
     1
 90
       50
176
     1
 62
   256
176
     0
 40
1.0
176
     0
 90
        2
176
     1
  1
strokes_ogs.tif
176
     1
290
     0
176
     1
 40
1.0
176
     1
 40
1.0
176
     1
  0
VISUALSTYLE
  5
515
102
{ACAD_REACTORS
330
50E
102
}
330
50E
100
AcDbVisualStyle
  2
Hidden
 70
     6
177
     3
291
     0
 70
    58
 90
        1
176
     1
 90
        2
176
     1
 90
        2
176
     1
 90
        0
176
     1
 40
0.6
176
     1
 40
30.0
176
     1
 62
     7
420
 16777215
176
     1
 90
        2
176
     1
 90
        2
176
     1
 62
     7
176
     1
 62
   257
176
     1
 90
        2
176
     1
 90
        1
176
     1
 40
40.0
176
     1
 90
        0
176
     1
 62
   257
176
     1
 40
1.0
176
     1
 90
        1
176
     1
 90
        6
176
     1
 90
        2
176
     1
 62
     7
176
     1
 90
        3
176
     1
 90
        0
176
     1
 90
        0
176
     1
290
     0
176
     1
 90
        1
176
     1
 40
0.0
176
     1
 90
        0
176
     1
290
     0
176
     1
290
     1
176
     1
290
     1
176
     1
290
     0
176
     1
290
     0
176
     1
290
     0
176
     1
290
     0
176
     1
290
     0
176
     1
290
     0
176
     1
 90
       50
176
     1
 40
0.0
176
     1
 40
1.0
176
     1
 90
        0
176
     1
 62
    18
420
        0
176
     1
 90
       50
176
     1
 90
        3
176
     1
 62
     5
420
      255
176
     1
290
     0
176
     1
 90
       50
176
     1
 90
       50
176
     1
 90
       50
176
     1
290
     0
176
     1
 90
       50
176
     1
 62
   256
176
     0
 40
1.0
176
     0
 90
        2
176
     1
  1
strokes_ogs.tif
176
     1
290
     0
176
     1
 40
1.0
176
     1
 40
1.0
176
     1
  0
VISUALSTYLE
  5
51F
102
{ACAD_REACTORS
330
50E
102
}
330
50E
100
AcDbVisualStyle
  2
JitterOff
 70
    20
177
     3
291
     1
 70
    58
 90
        2
176
     0
 90
        2
176
     0
 90
        0
176
     0
 90
        0
176
     0
 40
0.6
176
     0
 40
30.0
176
     0
 62
     7
420
 16777215
176
     0
 90
        1
176
     0
 90
        4
176
     0
 62
     7
176
     0
 62
   257
176
     0
 90
        1
176
     0
 90
        1
176
     0
 40
1.0
176
     0
 90
       10
176
     2
 62
     7
176
     0
 40
1.0
176
     0
 90
        1
176
     0
 90
        6
176
     0
 90
        2
176
     0
 62
     7
176
     0
 90
        5
176
     0
 90
        0
176
     0
 90
        0
176
     0
290
     0
176
     0
 90
        1
176
     0
 40
0.0
176
     0
 90
        0
176
     0
290
     0
176
     0
290
     1
176
     0
290
     1
176
     0
290
     0
176
     0
290
     0
176
     0
290
     0
176
     0
290
     0
176
     0
290
     0
176
     0
290
     0
176
     0
 90
       50
176
     0
 40
0.0
176
     0
 40
1.0
176
     0
 90
        0
176
     0
 62
    18
420
        0
176
     0
 90
       50
176
     0
 90
        3
176
     0
 62
     5
420
      255
176
     0
290
     0
176
     0
 90
       50
176
     0
 90
       50
176
     0
 90
       50
176
     0
290
     0
176
     0
 90
       50
176
     0
 62
   256
176
     0
 40
1.0
176
     0
 90
        2
176
     0
  1
strokes_ogs.tif
176
     0
290
     0
176
     0
 40
1.0
176
     0
 40
1.0
176
     0
  0
VISUALSTYLE
  5
51C
102
{ACAD_REACTORS
330
50E
102
}
330
50E
100
AcDbVisualStyle
  2
Linepattern
 70
    14
177
     3
291
     1
 70
    58
 90
        2
176
     1
 90
        2
176
     1
 90
        0
176
     1
 90
        0
176
     1
 40
0.6
176
     1
 40
30.0
176
     1
 62
     7
420
 16777215
176
     1
 90
        1
176
     1
 90
        4
176
     1
 62
     7
176
     1
 62
   257
176
     1
 90
        7
176
     1
 90
        7
176
     1
 40
1.0
176
     1
 90
        8
176
     1
 62
     7
176
     1
 40
1.0
176
     1
 90
        1
176
     1
 90
        6
176
     1
 90
        2
176
     1
 62
     7
176
     1
 90
        5
176
     1
 90
        0
176
     1
 90
        0
176
     1
290
     0
176
     1
 90
        1
176
     1
 40
0.0
176
     1
 90
        0
176
     1
290
     0
176
     1
290
     1
176
     1
290
     1
176
     1
290
     0
176
     1
290
     0
176
     1
290
     0
176
     1
290
     0
176
     1
290
     0
176
     1
290
     0
176
     1
 90
       50
176
     1
 40
0.0
176
     1
 40
1.0
176
     1
 90
        0
176
     1
 62
    18
420
        0
176
     1
 90
       50
176
     1
 90
        3
176
     1
 62
     5
420
      255
176
     1
290
     0
176
     1
 90
       50
176
     1
 90
       50
176
     1
 90
       50
176
     1
290
     0
176
     1
 90
       50
176
     1
 62
   256
176
     0
 40
1.0
176
     0
 90
        2
176
     1
  1
strokes_ogs.tif
176
     1
290
     0
176
     1
 40
1.0
176
     1
 40
1.0
176
     1
  0
VISUALSTYLE
  5
520
102
{ACAD_REACTORS
330
50E
102
}
330
50E
100
AcDbVisualStyle
  2
OverhangOff
 70
    21
177
     3
291
     1
 70
    58
 90
        2
176
     0
 90
        2
176
     0
 90
        0
176
     0
 90
        0
176
     0
 40
0.6
176
     0
 40
30.0
176
     0
 62
     7
420
 16777215
176
     0
 90
        1
176
     0
 90
        4
176
     0
 62
     7
176
     0
 62
   257
176
     0
 90
        1
176
     0
 90
        1
176
     0
 40
1.0
176
     0
 90
        9
176
     2
 62
     7
176
     0
 40
1.0
176
     0
 90
        1
176
     0
 90
        6
176
     0
 90
        2
176
     0
 62
     7
176
     0
 90
        5
176
     0
 90
        0
176
     0
 90
        0
176
     0
290
     0
176
     0
 90
        1
176
     0
 40
0.0
176
     0
 90
        0
176
     0
290
     0
176
     0
290
     1
176
     0
290
     1
176
     0
290
     0
176
     0
290
     0
176
     0
290
     0
176
     0
290
     0
176
     0
290
     0
176
     0
290
     0
176
     0
 90
       50
176
     0
 40
0.0
176
     0
 40
1.0
176
     0
 90
        0
176
     0
 62
    18
420
        0
176
     0
 90
       50
176
     0
 90
        3
176
     0
 62
     5
420
      255
176
     0
290
     0
176
     0
 90
       50
176
     0
 90
       50
176
     0
 90
       50
176
     0
290
     0
176
     0
 90
       50
176
     0
 62
   256
176
     0
 40
1.0
176
     0
 90
        2
176
     0
  1
strokes_ogs.tif
176
     0
290
     0
176
     0
 40
1.0
176
     0
 40
1.0
176
     0
  0
VISUALSTYLE
  5
517
102
{ACAD_REACTORS
330
50E
102
}
330
50E
100
AcDbVisualStyle
  2
Realistic
 70
     8
177
     3
291
     0
 70
    58
 90
        2
176
     1
 90
        3
176
     1
 90
        0
176
     1
 90
        2
176
     1
 40
0.6
176
     1
 40
30.0
176
     1
 62
     7
420
 16777215
176
     1
 90
        0
176
     1
 90
        0
176
     1
 62
     7
176
     1
 62
   257
176
     1
 90
        1
176
     1
 90
        1
176
     1
 40
1.0
176
     1
 90
        8
176
     1
 62
   257
176
     1
 40
1.0
176
     1
 90
        1
176
     1
 90
        6
176
     1
 90
        2
176
     1
 62
     7
176
     1
 90
        3
176
     1
 90
        0
176
     1
 90
        0
176
     1
290
     0
176
     1
 90
       13
176
     1
 40
0.0
176
     1
 90
        0
176
     1
290
     0
176
     1
290
     1
176
     1
290
     1
176
     1
290
     0
176
     1
290
     0
176
     1
290
     0
176
     1
290
     0
176
     1
290
     0
176
     1
290
     0
176
     1
 90
       50
176
     1
 40
0.0
176
     1
 40
1.0
176
     1
 90
        0
176
     1
 62
    18
420
        0
176
     1
 90
       50
176
     1
 90
        3
176
     1
 62
     5
420
      255
176
     1
290
     0
176
     1
 90
       50
176
     1
 90
       50
176
     1
 90
       50
176
     1
290
     0
176
     1
 90
       50
176
     1
 62
   256
176
     0
 40
1.0
176
     0
 90
        2
176
     1
  1
strokes_ogs.tif
176
     1
290
     0
176
     1
 40
1.0
176
     1
 40
1.0
176
     1
  0
VISUALSTYLE
  5
526
102
{ACAD_REACTORS
330
50E
102
}
330
50E
100
AcDbVisualStyle
  2
Shaded
 70
    27
177
     3
291
     0
 70
    58
 90
        2
176
     1
 90
        2
176
     1
 90
        1
176
     1
 90
        2
176
     1
 40
0.6
176
     1
 40
30.0
176
     1
 62
     7
420
 16777215
176
     1
 90
        0
176
     1
 90
        4
176
     1
 62
     7
176
     1
 62
   257
176
     1
 90
        1
176
     1
 90
        1
176
     1
 40
1.0
176
     1
 90
        8
176
     1
 62
   257
176
     1
 40
1.0
176
     1
 90
        1
176
     1
 90
        6
176
     1
 90
        2
176
     1
 62
     8
420
  7895160
176
     1
 90
        3
176
     1
 90
        0
176
     1
 90
        0
176
     1
290
     0
176
     1
 90
        5
176
     1
 40
0.0
176
     1
 90
        0
176
     1
290
     0
176
     1
290
     1
176
     1
290
     1
176
     1
290
     0
176
     1
290
     0
176
     1
290
     0
176
     1
290
     0
176
     1
290
     0
176
     1
290
     0
176
     1
 90
       50
176
     1
 40
0.0
176
     1
 40
1.0
176
     1
 90
        0
176
     1
 62
    18
420
        0
176
     1
 90
       50
176
     1
 90
        3
176
     1
 62
     5
420
      255
176
     1
290
     0
176
     1
 90
       50
176
     1
 90
       50
176
     1
 90
       50
176
     1
290
     0
176
     1
 90
       50
176
     1
 62
   256
176
     0
 40
1.0
176
     0
 90
        2
176
     1
  1
strokes_ogs.tif
176
     1
290
     0
176
     1
 40
1.0
176
     1
 40
1.0
176
     1
  0
VISUALSTYLE
  5
525
102
{ACAD_REACTORS
330
50E
102
}
330
50E
100
AcDbVisualStyle
  2
Shaded with edges
 70
    26
177
     3
291
     0
 70
    58
 90
        2
176
     1
 90
        2
176
     1
 90
        1
176
     1
 90
        2
176
     1
 40
0.6
176
     1
 40
30.0
176
     1
 62
     7
420
 16777215
176
     1
 90
        1
176
     1
 90
       10
176
     1
 62
     7
176
     1
 62
   257
176
     1
 90
        2
176
     1
 90
        1
176
     1
 40
1.0
176
     1
 90
        8
176
     1
 62
   257
176
     1
 40
1.0
176
     1
 90
        1
176
     1
 90
        6
176
     1
 90
        2
176
     1
 62
     7
176
     1
 90
        3
176
     1
 90
        0
176
     1
 90
        0
176
     1
290
     0
176
     1
 90
        5
176
     1
 40
0.0
176
     1
 90
        0
176
     1
290
     0
176
     1
290
     1
176
     1
290
     1
176
     1
290
     0
176
     1
290
     0
176
     1
290
     0
176
     1
290
     0
176
     1
290
     0
176
     1
290
     0
176
     1
 90
       50
176
     1
 40
0.0
176
     1
 40
1.0
176
     1
 90
        0
176
     1
 62
    18
420
        0
176
     1
 90
       50
176
     1
 90
        3
176
     1
 62
     5
420
      255
176
     1
290
     0
176
     1
 90
       50
176
     1
 90
       50
176
     1
 90
       50
176
     1
290
     0
176
     1
 90
       50
176
     1
 62
   256
176
     0
 40
1.0
176
     0
 90
        2
176
     1
  1
strokes_ogs.tif
176
     1
290
     0
176
     1
 40
1.0
176
     1
 40
1.0
176
     1
  0
VISUALSTYLE
  5
522
102
{ACAD_REACTORS
330
50E
102
}
330
50E
100
AcDbVisualStyle
  2
Shades of Gray
 70
    23
177
     3
291
     0
 70
    58
 90
        2
176
     1
 90
        2
176
     1
 90
        3
176
     1
 90
        0
176
     1
 40
0.6
176
     1
 40
30.0
176
     1
 62
     7
420
 16777215
176
     1
 90
        2
176
     1
 90
        2
176
     1
 62
     7
176
     1
 62
     7
176
     1
 90
        1
176
     1
 90
        1
176
     1
 40
40.0
176
     1
 90
        8
176
     1
 62
     7
176
     1
 40
1.0
176
     1
 90
        1
176
     1
 90
        6
176
     1
 90
        2
176
     1
 62
     7
176
     1
 90
        3
176
     1
 90
        0
176
     1
 90
        0
176
     1
290
     0
176
     1
 90
        1
176
     1
 40
0.0
176
     1
 90
        0
176
     1
290
     0
176
     1
290
     1
176
     1
290
     1
176
     1
290
     0
176
     1
290
     0
176
     1
290
     0
176
     1
290
     0
176
     1
290
     0
176
     1
290
     0
176
     1
 90
       50
176
     1
 40
0.0
176
     1
 40
1.0
176
     1
 90
        0
176
     1
 62
    18
420
        0
176
     1
 90
       50
176
     1
 90
        3
176
     1
 62
     5
420
      255
176
     1
290
     0
176
     1
 90
       50
176
     1
 90
       50
176
     1
 90
       50
176
     1
290
     0
176
     1
 90
       50
176
     1
 62
   256
176
     0
 40
1.0
176
     0
 90
        2
176
     1
  1
strokes_ogs.tif
176
     1
290
     0
176
     1
 40
1.0
176
     1
 40
1.0
176
     1
  0
VISUALSTYLE
  5
523
102
{ACAD_REACTORS
330
50E
102
}
330
50E
100
AcDbVisualStyle
  2
Sketchy
 70
    24
177
     3
291
     0
 70
    58
 90
        1
176
     1
 90
        2
176
     1
 90
        2
176
     1
 90
        0
176
     1
 40
0.6
176
     1
 40
30.0
176
     1
 62
     7
420
 16777215
176
     1
 90
        2
176
     1
 90
        2
176
     1
 62
     7
176
     1
 62
     7
176
     1
 90
        1
176
     1
 90
        1
176
     1
 40
40.0
176
     1
 90
       11
176
     1
 62
     7
176
     1
 40
1.0
176
     1
 90
        1
176
     1
 90
        6
176
     1
 90
        2
176
     1
 62
     7
176
     1
 90
        6
176
     1
 90
        0
176
     1
 90
        0
176
     1
290
     0
176
     1
 90
        1
176
     1
 40
0.0
176
     1
 90
        0
176
     1
290
     0
176
     1
290
     1
176
     1
290
     1
176
     1
290
     0
176
     1
290
     0
176
     1
290
     0
176
     1
290
     0
176
     1
290
     0
176
     1
290
     0
176
     1
 90
       50
176
     1
 40
0.0
176
     1
 40
1.0
176
     1
 90
        0
176
     1
 62
    18
420
        0
176
     1
 90
       50
176
     1
 90
        3
176
     1
 62
     5
420
      255
176
     1
290
     0
176
     1
 90
       50
176
     1
 90
       50
176
     1
 90
       50
176
     1
290
     0
176
     1
 90
       50
176
     1
 62
   256
176
     0
 40
1.0
176
     0
 90
        2
176
     1
  1
strokes_ogs.tif
176
     1
290
     0
176
     1
 40
1.0
176
     1
 40
1.0
176
     1
  0
VISUALSTYLE
  5
51B
102
{ACAD_REACTORS
330
50E
102
}
330
50E
100
AcDbVisualStyle
  2
Thicken
 70
    13
177
     3
291
     1
 70
    58
 90
        2
176
     1
 90
        2
176
     1
 90
        0
176
     1
 90
        0
176
     1
 40
0.6
176
     1
 40
30.0
176
     1
 62
     7
420
 16777215
176
     1
 90
        1
176
     1
 90
        4
176
     1
 62
     7
176
     1
 62
   257
176
     1
 90
        1
176
     1
 90
        1
176
     1
 40
1.0
176
     1
 90
       12
176
     1
 62
     7
176
     1
 40
1.0
176
     1
 90
        1
176
     1
 90
        6
176
     1
 90
        2
176
     1
 62
     7
176
     1
 90
        5
176
     1
 90
        0
176
     1
 90
        0
176
     1
290
     0
176
     1
 90
        1
176
     1
 40
0.0
176
     1
 90
        0
176
     1
290
     0
176
     1
290
     1
176
     1
290
     1
176
     1
290
     0
176
     1
290
     0
176
     1
290
     0
176
     1
290
     0
176
     1
290
     0
176
     1
290
     0
176
     1
 90
       50
176
     1
 40
0.0
176
     1
 40
1.0
176
     1
 90
        0
176
     1
 62
    18
420
        0
176
     1
 90
       50
176
     1
 90
        3
176
     1
 62
     5
420
      255
176
     1
290
     0
176
     1
 90
       50
176
     1
 90
       50
176
     1
 90
       50
176
     1
290
     0
176
     1
 90
       50
176
     1
 62
   256
176
     0
 40
1.0
176
     0
 90
        2
176
     1
  1
strokes_ogs.tif
176
     1
290
     0
176
     1
 40
1.0
176
     1
 40
1.0
176
     1
  0
VISUALSTYLE
  5
514
102
{ACAD_REACTORS
330
50E
102
}
330
50E
100
AcDbVisualStyle
  2
Wireframe
 70
     5
177
     3
291
     0
 70
    58
 90
        0
176
     1
 90
        2
176
     1
 90
        0
176
     1
 90
        0
176
     1
 40
0.6
176
     1
 40
30.0
176
     1
 62
     7
420
 16777215
176
     1
 90
        1
176
     1
 90
        4
176
     1
 62
     7
176
     1
 62
   257
176
     1
 90
        1
176
     1
 90
        1
176
     1
 40
1.0
176
     1
 90
        0
176
     1
 62
   257
176
     1
 40
1.0
176
     1
 90
        1
176
     1
 90
        6
176
     1
 90
        2
176
     1
 62
     7
176
     1
 90
        3
176
     1
 90
        0
176
     1
 90
        0
176
     1
290
     0
176
     1
 90
        1
176
     1
 40
0.0
176
     1
 90
        0
176
     1
290
     0
176
     1
290
     1
176
     1
290
     1
176
     1
290
     0
176
     1
290
     0
176
     1
290
     0
176
     1
290
     0
176
     1
290
     0
176
     1
290
     0
176
     1
 90
       50
176
     1
 40
0.0
176
     1
 40
1.0
176
     1
 90
        0
176
     1
 62
    18
420
        0
176
     1
 90
       50
176
     1
 90
        3
176
     1
 62
     5
420
      255
176
     1
290
     0
176
     1
 90
       50
176
     1
 90
       50
176
     1
 90
       50
176
     1
290
     0
176
     1
 90
       50
176
     1
 62
   256
176
     0
 40
1.0
176
     0
 90
        2
176
     1
  1
strokes_ogs.tif
176
     1
290
     0
176
     1
 40
1.0
176
     1
 40
1.0
176
     1
  0
VISUALSTYLE
  5
524
102
{ACAD_REACTORS
330
50E
102
}
330
50E
100
AcDbVisualStyle
  2
X-Ray
 70
    25
177
     3
291
     0
 70
    58
 90
        2
176
     1
 90
        2
176
     1
 90
        1
176
     1
 90
        1
176
     1
 40
0.5
176
     1
 40
30.0
176
     1
 62
     7
420
 16777215
176
     1
 90
        1
176
     1
 90
        0
176
     1
 62
     7
176
     1
 62
   257
176
     1
 90
        1
176
     1
 90
        1
176
     1
 40
1.0
176
     1
 90
        8
176
     1
 62
     7
176
     1
 40
1.0
176
     1
 90
        1
176
     1
 90
        6
176
     1
 90
        2
176
     1
 62
     7
176
     1
 90
        3
176
     1
 90
        0
176
     1
 90
        0
176
     1
290
     0
176
     1
 90
       13
176
     1
 40
0.0
176
     1
 90
        0
176
     1
290
     0
176
     1
290
     1
176
     1
290
     1
176
     1
290
     0
176
     1
290
     0
176
     1
290
     0
176
     1
290
     0
176
     1
290
     0
176
     1
290
     0
176
     1
 90
       50
176
     1
 40
0.0
176
     1
 40
1.0
176
     1
 90
        0
176
     1
 62
    18
420
        0
176
     1
 90
       50
176
     1
 90
        3
176
     1
 62
     5
420
      255
176
     1
290
     0
176
     1
 90
       50
176
     1
 90
       50
176
     1
 90
       50
176
     1
290
     0
176
     1
 90
       50
176
     1
 62
   256
176
     0
 40
1.0
176
     0
 90
        2
176
     1
  1
strokes_ogs.tif
176
     1
290
     0
176
     1
 40
1.0
176
     1
 40
1.0
176
     1
  0
DICTIONARYVAR
  5
532
102
{ACAD_REACTORS
330
531
102
}
330
531
100
DictionaryVariables
280
     0
  1
1:1
  0
DICTIONARYVAR
  5
537
102
{ACAD_REACTORS
330
531
102
}
330
531
100
DictionaryVariables
280
     0
  1
Standard
  0
DICTIONARYVAR
  5
536
102
{ACAD_REACTORS
330
531
102
}
330
531
100
DictionaryVariables
280
     0
  1
Standard
  0
DICTIONARYVAR
  5
538
102
{ACAD_REACTORS
330
531
102
}
330
531
100
DictionaryVariables
280
     0
  1
0
  0
DICTIONARY
  5
533
330
528
100
AcDbDictionary
280
     1
281
     1
  3
ACAD_ROUNDTRIP_2008_TABLESTYLE_CELLSTYLEMAP
360
534
  0
CELLSTYLEMAP
  5
534
102
{ACAD_REACTORS
330
533
102
}
330
533
100
AcDbCellStyleMap
 90
        3
300
CELLSTYLE
  1
TABLEFORMAT_BEGIN
 90
        5
170
     1
 91
        0
 92
    32768
 62
   257
 93
        1
300
CONTENTFORMAT
  1
CONTENTFORMAT_BEGIN
 90
        0
 91
        0
 92
        4
 93
        0
300

 40
0.0
140
1.0
 94
        5
 62
     0
340
463
144
0.25
309
CONTENTFORMAT_END
171
     1
301
MARGIN
  1
CELLMARGIN_BEGIN
 40
0.06
 40
0.06
 40
0.06
 40
0.06
 40
0.06
 40
0.06
309
CELLMARGIN_END
 94
        6
 95
        1
302
GRIDFORMAT
  1
GRIDFORMAT_BEGIN
 90
        0
 91
        1
 62
     0
 92
       -2
340
465
 93
        0
 40
0.045
309
GRIDFORMAT_END
 95
        2
302
GRIDFORMAT
  1
GRIDFORMAT_BEGIN
 90
        0
 91
        1
 62
     0
 92
       -2
340
465
 93
        0
 40
0.045
309
GRIDFORMAT_END
 95
        4
302
GRIDFORMAT
  1
GRIDFORMAT_BEGIN
 90
        0
 91
        1
 62
     0
 92
       -2
340
465
 93
        0
 40
0.045
309
GRIDFORMAT_END
 95
        8
302
GRIDFORMAT
  1
GRIDFORMAT_BEGIN
 90
        0
 91
        1
 62
     0
 92
       -2
340
465
 93
        0
 40
0.045
309
GRIDFORMAT_END
 95
       16
302
GRIDFORMAT
  1
GRIDFORMAT_BEGIN
 90
        0
 91
        1
 62
     0
 92
       -2
340
465
 93
        0
 40
0.045
309
GRIDFORMAT_END
 95
       32
302
GRIDFORMAT
  1
GRIDFORMAT_BEGIN
 90
        0
 91
        1
 62
     0
 92
       -2
340
465
 93
        0
 40
0.045
309
GRIDFORMAT_END
309
TABLEFORMAT_END
  1
CELLSTYLE_BEGIN
 90
        1
 91
        1
300
_TITLE
309
CELLSTYLE_END
300
CELLSTYLE
  1
TABLEFORMAT_BEGIN
 90
        5
170
     1
 91
        0
 92
        0
 62
   257
 93
        1
300
CONTENTFORMAT
  1
CONTENTFORMAT_BEGIN
 90
        0
 91
        0
 92
        4
 93
        0
300

 40
0.0
140
1.0
 94
        5
 62
     0
340
463
144
0.18
309
CONTENTFORMAT_END
171
     1
301
MARGIN
  1
CELLMARGIN_BEGIN
 40
0.06
 40
0.06
 40
0.06
 40
0.06
 40
0.06
 40
0.06
309
CELLMARGIN_END
 94
        6
 95
        1
302
GRIDFORMAT
  1
GRIDFORMAT_BEGIN
 90
        0
 91
        1
 62
     0
 92
       -2
340
465
 93
        0
 40
0.045
309
GRIDFORMAT_END
 95
        2
302
GRIDFORMAT
  1
GRIDFORMAT_BEGIN
 90
        0
 91
        1
 62
     0
 92
       -2
340
465
 93
        0
 40
0.045
309
GRIDFORMAT_END
 95
        4
302
GRIDFORMAT
  1
GRIDFORMAT_BEGIN
 90
        0
 91
        1
 62
     0
 92
       -2
340
465
 93
        0
 40
0.045
309
GRIDFORMAT_END
 95
        8
302
GRIDFORMAT
  1
GRIDFORMAT_BEGIN
 90
        0
 91
        1
 62
     0
 92
       -2
340
465
 93
        0
 40
0.045
309
GRIDFORMAT_END
 95
       16
302
GRIDFORMAT
  1
GRIDFORMAT_BEGIN
 90
        0
 91
        1
 62
     0
 92
       -2
340
465
 93
        0
 40
0.045
309
GRIDFORMAT_END
 95
       32
302
GRIDFORMAT
  1
GRIDFORMAT_BEGIN
 90
        0
 91
        1
 62
     0
 92
       -2
340
465
 93
        0
 40
0.045
309
GRIDFORMAT_END
309
TABLEFORMAT_END
  1
CELLSTYLE_BEGIN
 90
        2
 91
        1
300
_HEADER
309
CELLSTYLE_END
300
CELLSTYLE
  1
TABLEFORMAT_BEGIN
 90
        5
170
     1
 91
        0
 92
        0
 62
   257
 93
        1
300
CONTENTFORMAT
  1
CONTENTFORMAT_BEGIN
 90
        0
 91
        0
 92
        4
 93
        0
300

 40
0.0
140
1.0
 94
        2
 62
     0
340
463
144
0.18
309
CONTENTFORMAT_END
171
     1
301
MARGIN
  1
CELLMARGIN_BEGIN
 40
0.06
 40
0.06
 40
0.06
 40
0.06
 40
0.06
 40
0.06
309
CELLMARGIN_END
 94
        6
 95
        1
302
GRIDFORMAT
  1
GRIDFORMAT_BEGIN
 90
        0
 91
        1
 62
     0
 92
       -2
340
465
 93
        0
 40
0.045
309
GRIDFORMAT_END
 95
        2
302
GRIDFORMAT
  1
GRIDFORMAT_BEGIN
 90
        0
 91
        1
 62
     0
 92
       -2
340
465
 93
        0
 40
0.045
309
GRIDFORMAT_END
 95
        4
302
GRIDFORMAT
  1
GRIDFORMAT_BEGIN
 90
        0
 91
        1
 62
     0
 92
       -2
340
465
 93
        0
 40
0.045
309
GRIDFORMAT_END
 95
        8
302
GRIDFORMAT
  1
GRIDFORMAT_BEGIN
 90
        0
 91
        1
 62
     0
 92
       -2
340
465
 93
        0
 40
0.045
309
GRIDFORMAT_END
 95
       16
302
GRIDFORMAT
  1
GRIDFORMAT_BEGIN
 90
        0
 91
        1
 62
     0
 92
       -2
340
465
 93
        0
 40
0.045
309
GRIDFORMAT_END
 95
       32
302
GRIDFORMAT
  1
GRIDFORMAT_BEGIN
 90
        0
 91
        1
 62
     0
 92
       -2
340
465
 93
        0
 40
0.045
309
GRIDFORMAT_END
309
TABLEFORMAT_END
  1
CELLSTYLE_BEGIN
 90
        3
 91
        2
300
_DATA
309
CELLSTYLE_END
  0
ENDSEC
  0
EOF
