  0
SECTION
  2
HEADER
  9
$ACADVER
  1
AC1009
999
I-DEAS 9 Not Encoded
  9
$EXTMIN
 10
0.0
 20
0.0
  9
$EXTMAX
 10
2.1E+002
 20
2.97E+002
  9
$TEXTSIZE
 40
1.25E-001
  9
$LTSCALE
 40
1.0
  9
$CLAYER
  8
LAYER1
  9
$CECOLOR
 62
2
  9
$DIMASZ
 40
1.25E-001
  9
$DIMEXO
 40
6.25E-002
  9
$DIMDLI
 40
2.5E-001
  9
$DIMEXE
 40
1.25E-001
  9
$DIMTP
 40
5.0E-003
  9
$DIMTM
 40
-5.0E-003
  9
$DIMTXT
 40
3.0
  9
$DIMLIM
 70
0
  9
$DIMTIH
 70
1
  9
$DIMTOH
 70
1
  9
$DIMSE1
 70
0
  9
$DIMSE2
 70
0
  9
$DIMTAD
 70
0
  9
$DIMASO
 70
1
  9
$DIMALT
 70
0
  9
$DIMALTD
 70
0
  9
$DIMTOFL
 70
1
  9
$DIMTIX
 70
0
  9
$DIMSAH
 70
0
  9
$DIMTFAC
 40
1.0
  9
$DIMGAP
 40
6.25E-002
  9
$LUNITS
 70
2
  9
$LUPREC
 70
3
  9
$FILLETRAD
 40
1.0E+001
  9
$AUNITS
 70
0
  9
$AUPREC
 70
1
  9
$CHAMFERA
 40
6.0
  9
$CHAMFERB
 40
6.0
  9
$ANGBASE
 50
0.0
  9
$ANGDIR
 70
0
  9
$PEXTMIN
 10
0.0
 20
0.0
 30
0.0
  9
$PEXTMAX
 10
2.1E+002
 20
2.97E+002
 30
0.0
  9
$PLIMMIN
 10
0.0
 20
0.0
  9
$PLIMMAX
 10
2.1E+002
 20
2.97E+002
  9
$PDMODE
 70
2
  9
$PDSIZE
 40
-1.0E-002
  9
$SPLINETYPE
 70
6
  9
$TILEMODE
 70
1
  0
ENDSEC
  0
SECTION
  2
TABLES
  0
TABLE
  2
VPORT
 70
2
  0
VPORT
  2
*Active
 70
0
 10
0.0
 20
0.0
 11
2.1E+002
 21
2.97E+002
 12
1.05E+002
 22
1.485E+002
 13
0.0
 23
0.0
 14
1.0
 24
1.0
 15
0.0
 25
0.0
 16
0.0
 26
0.0
 36
1.0
 17
0.0
 27
0.0
 37
0.0
 40
2.97E+002
 41
7.0707071E-001
 42
5.0E+001
 43
0.0
 44
0.0
 50
0.0
 51
0.0
 71
0
 72
100
 73
1
 74
3
 75
0
 76
0
 77
0
 78
0
  0
ENDTAB
  0
TABLE
  2
LTYPE
 70
7
  0
LTYPE
  2
HIDDENNEW0
  3
_ 
 70
64
 72
65
 73
3
 40
4.5
 49
1.5
 49
-1.5
 49
1.5
  0
LTYPE
  2
HIDDENNEW1
  3
_ 
 70
64
 72
65
 73
3
 40
4.5
 49
1.5
 49
-1.5
 49
1.5
  0
LTYPE
  2
HIDDEN
  3
_ 
 70
64
 72
65
 73
3
 40
4.5
 49
1.5
 49
-1.5
 49
1.5
  0
LTYPE
  2
CENTERLINE
  3
_ 
 70
64
 72
65
 73
5
 40
3.0E+001
 49
1.2E+001
 49
-1.5
 49
3.0
 49
-1.5
 49
1.2E+001
  0
LTYPE
  2
PHANTOM
  3
_ 
 70
64
 72
65
 73
7
 40
2.95E+001
 49
9.5
 49
-1.5
 49
3.0
 49
-1.5
 49
3.0
 49
-1.5
 49
9.5
  0
LTYPE
  2
SHORT_DASH
  3
_ 
 70
64
 72
65
 73
3
 40
3.0
 49
7.5E-001
 49
-1.5
 49
7.5E-001
  0
LTYPE
  2
LONG_DASH
  3
_ 
 70
64
 72
65
 73
3
 40
9.0
 49
2.25
 49
-4.5
 49
2.25
  0
ENDTAB
  0
TABLE
  2
LAYER
 70
258
  0
LAYER
  2
LAYER1
 70
0
 62
1
  6
CONTINUOUS
  0
LAYER
  2
2
 70
0
 62
7
  6
CONTINUOUS
  0
LAYER
  2
3
 70
0
 62
7
  6
CONTINUOUS
  0
LAYER
  2
4
 70
0
 62
7
  6
CONTINUOUS
  0
LAYER
  2
5
 70
0
 62
7
  6
CONTINUOUS
  0
LAYER
  2
6
 70
0
 62
7
  6
CONTINUOUS
  0
LAYER
  2
7
 70
0
 62
7
  6
CONTINUOUS
  0
LAYER
  2
8
 70
0
 62
7
  6
CONTINUOUS
  0
LAYER
  2
9
 70
0
 62
7
  6
CONTINUOUS
  0
LAYER
  2
10
 70
0
 62
7
  6
CONTINUOUS
  0
LAYER
  2
11
 70
0
 62
7
  6
CONTINUOUS
  0
LAYER
  2
12
 70
0
 62
7
  6
CONTINUOUS
  0
LAYER
  2
13
 70
0
 62
7
  6
CONTINUOUS
  0
LAYER
  2
14
 70
0
 62
7
  6
CONTINUOUS
  0
LAYER
  2
15
 70
0
 62
7
  6
CONTINUOUS
  0
LAYER
  2
16
 70
0
 62
7
  6
CONTINUOUS
  0
LAYER
  2
17
 70
0
 62
7
  6
CONTINUOUS
  0
LAYER
  2
18
 70
0
 62
7
  6
CONTINUOUS
  0
LAYER
  2
19
 70
0
 62
7
  6
CONTINUOUS
  0
LAYER
  2
20
 70
0
 62
7
  6
CONTINUOUS
  0
LAYER
  2
21
 70
0
 62
7
  6
CONTINUOUS
  0
LAYER
  2
22
 70
0
 62
7
  6
CONTINUOUS
  0
LAYER
  2
23
 70
0
 62
7
  6
CONTINUOUS
  0
LAYER
  2
24
 70
0
 62
7
  6
CONTINUOUS
  0
LAYER
  2
25
 70
0
 62
7
  6
CONTINUOUS
  0
LAYER
  2
26
 70
0
 62
7
  6
CONTINUOUS
  0
LAYER
  2
27
 70
0
 62
7
  6
CONTINUOUS
  0
LAYER
  2
28
 70
0
 62
7
  6
CONTINUOUS
  0
LAYER
  2
29
 70
0
 62
7
  6
CONTINUOUS
  0
LAYER
  2
30
 70
0
 62
7
  6
CONTINUOUS
  0
LAYER
  2
31
 70
0
 62
7
  6
CONTINUOUS
  0
LAYER
  2
32
 70
0
 62
7
  6
CONTINUOUS
  0
LAYER
  2
33
 70
0
 62
7
  6
CONTINUOUS
  0
LAYER
  2
34
 70
0
 62
7
  6
CONTINUOUS
  0
LAYER
  2
35
 70
0
 62
7
  6
CONTINUOUS
  0
LAYER
  2
36
 70
0
 62
7
  6
CONTINUOUS
  0
LAYER
  2
37
 70
0
 62
7
  6
CONTINUOUS
  0
LAYER
  2
38
 70
0
 62
7
  6
CONTINUOUS
  0
LAYER
  2
39
 70
0
 62
7
  6
CONTINUOUS
  0
LAYER
  2
40
 70
0
 62
7
  6
CONTINUOUS
  0
LAYER
  2
41
 70
0
 62
7
  6
CONTINUOUS
  0
LAYER
  2
42
 70
0
 62
7
  6
CONTINUOUS
  0
LAYER
  2
43
 70
0
 62
7
  6
CONTINUOUS
  0
LAYER
  2
44
 70
0
 62
7
  6
CONTINUOUS
  0
LAYER
  2
45
 70
0
 62
7
  6
CONTINUOUS
  0
LAYER
  2
46
 70
0
 62
7
  6
CONTINUOUS
  0
LAYER
  2
47
 70
0
 62
7
  6
CONTINUOUS
  0
LAYER
  2
48
 70
0
 62
7
  6
CONTINUOUS
  0
LAYER
  2
49
 70
0
 62
7
  6
CONTINUOUS
  0
LAYER
  2
50
 70
0
 62
7
  6
CONTINUOUS
  0
LAYER
  2
51
 70
0
 62
7
  6
CONTINUOUS
  0
LAYER
  2
52
 70
0
 62
7
  6
CONTINUOUS
  0
LAYER
  2
53
 70
0
 62
7
  6
CONTINUOUS
  0
LAYER
  2
54
 70
0
 62
7
  6
CONTINUOUS
  0
LAYER
  2
55
 70
0
 62
7
  6
CONTINUOUS
  0
LAYER
  2
56
 70
0
 62
7
  6
CONTINUOUS
  0
LAYER
  2
57
 70
0
 62
7
  6
CONTINUOUS
  0
LAYER
  2
58
 70
0
 62
7
  6
CONTINUOUS
  0
LAYER
  2
59
 70
0
 62
7
  6
CONTINUOUS
  0
LAYER
  2
60
 70
0
 62
7
  6
CONTINUOUS
  0
LAYER
  2
61
 70
0
 62
7
  6
CONTINUOUS
  0
LAYER
  2
62
 70
0
 62
7
  6
CONTINUOUS
  0
LAYER
  2
63
 70
0
 62
7
  6
CONTINUOUS
  0
LAYER
  2
64
 70
0
 62
7
  6
CONTINUOUS
  0
LAYER
  2
65
 70
0
 62
7
  6
CONTINUOUS
  0
LAYER
  2
66
 70
0
 62
7
  6
CONTINUOUS
  0
LAYER
  2
67
 70
0
 62
7
  6
CONTINUOUS
  0
LAYER
  2
68
 70
0
 62
7
  6
CONTINUOUS
  0
LAYER
  2
69
 70
0
 62
7
  6
CONTINUOUS
  0
LAYER
  2
70
 70
0
 62
7
  6
CONTINUOUS
  0
LAYER
  2
71
 70
0
 62
7
  6
CONTINUOUS
  0
LAYER
  2
72
 70
0
 62
7
  6
CONTINUOUS
  0
LAYER
  2
73
 70
0
 62
7
  6
CONTINUOUS
  0
LAYER
  2
74
 70
0
 62
7
  6
CONTINUOUS
  0
LAYER
  2
75
 70
0
 62
7
  6
CONTINUOUS
  0
LAYER
  2
76
 70
0
 62
7
  6
CONTINUOUS
  0
LAYER
  2
77
 70
0
 62
7
  6
CONTINUOUS
  0
LAYER
  2
78
 70
0
 62
7
  6
CONTINUOUS
  0
LAYER
  2
79
 70
0
 62
7
  6
CONTINUOUS
  0
LAYER
  2
80
 70
0
 62
7
  6
CONTINUOUS
  0
LAYER
  2
81
 70
0
 62
7
  6
CONTINUOUS
  0
LAYER
  2
82
 70
0
 62
7
  6
CONTINUOUS
  0
LAYER
  2
83
 70
0
 62
7
  6
CONTINUOUS
  0
LAYER
  2
84
 70
0
 62
7
  6
CONTINUOUS
  0
LAYER
  2
85
 70
0
 62
7
  6
CONTINUOUS
  0
LAYER
  2
86
 70
0
 62
7
  6
CONTINUOUS
  0
LAYER
  2
87
 70
0
 62
7
  6
CONTINUOUS
  0
LAYER
  2
88
 70
0
 62
7
  6
CONTINUOUS
  0
LAYER
  2
89
 70
0
 62
7
  6
CONTINUOUS
  0
LAYER
  2
90
 70
0
 62
7
  6
CONTINUOUS
  0
LAYER
  2
91
 70
0
 62
7
  6
CONTINUOUS
  0
LAYER
  2
92
 70
0
 62
7
  6
CONTINUOUS
  0
LAYER
  2
93
 70
0
 62
7
  6
CONTINUOUS
  0
LAYER
  2
94
 70
0
 62
7
  6
CONTINUOUS
  0
LAYER
  2
2D_KATALOG-MITTEL
 70
0
 62
230
  6
HIDDENNEW0
  0
LAYER
  2
96
 70
0
 62
7
  6
CONTINUOUS
  0
LAYER
  2
97
 70
0
 62
7
  6
CONTINUOUS
  0
LAYER
  2
98
 70
0
 62
7
  6
CONTINUOUS
  0
LAYER
  2
99
 70
0
 62
7
  6
CONTINUOUS
  0
LAYER
  2
2D_BEMASSUNG
 70
0
 62
1
  6
HIDDENNEW0
  0
LAYER
  2
101
 70
0
 62
7
  6
CONTINUOUS
  0
LAYER
  2
102
 70
0
 62
7
  6
CONTINUOUS
  0
LAYER
  2
103
 70
0
 62
7
  6
CONTINUOUS
  0
LAYER
  2
104
 70
0
 62
7
  6
CONTINUOUS
  0
LAYER
  2
2D_VERDECKTE_KANTEN
 70
0
 62
150
  6
HIDDEN
  0
LAYER
  2
2D_MITTELLINIEN
 70
0
 62
3
  6
PHANTOM
  0
LAYER
  2
Drafting_Hidden_Entities
 70
1
 62
7
  6
CONTINUOUS
  0
ENDTAB
  0
TABLE
  2
STYLE
 70
1
  0
STYLE
  2
STANDARD
 70
64
 40
0.0
 41
1.0
 50
0.0
 71
0
 42
1.0
  3
monotxt.shx
  4

  0
ENDTAB
  0
TABLE
  2
VIEW
 70
0
  0
ENDTAB
  0
TABLE
  2
DIMSTYLE
 70
0
  0
ENDTAB
  0
ENDSEC
  0
SECTION
  2
BLOCKS
  0
BLOCK
  2
_AH12
  3
_AH
 10
0.0
 20
0.0
 70
64
  0
LINE
  8
0
  6
CONTINUOUS
 62
0
 10
0.0
 20
0.0
 11
1.0
 21
0.0
  0
LINE
  8
0
  6
CONTINUOUS
 62
0
 10
0.0
 20
0.0
 11
-1.0
 21
0.0
  0
ENDBLK
  0
BLOCK
  2
_AH13
  3
_AH
 10
0.0
 20
0.0
 70
64
  0
SOLID
  8
0
  6
CONTINUOUS
 62
0
 10
0.0
 20
0.0
 11
-1.0
 21
1.66667E-001
 12
-1.0
 22
-1.66667E-001
 13
0.0
 23
0.0
  0
ENDBLK
  0
BLOCK
  2
_AH14
  3
_AH
 10
0.0
 20
0.0
 70
64
  0
ENDBLK
  0
BLOCK
  2
_AH15
  3
_AH
 10
0.0
 20
0.0
 70
64
  0
CIRCLE
  8
0
  6
CONTINUOUS
 62
0
 10
0.0
 20
0.0
 40
1.66667E-001
  0
LINE
  8
0
  6
CONTINUOUS
 62
0
 10
0.0
 20
0.0
 11
-1.0
 21
0.0
  0
ENDBLK
  0
BLOCK
  2
_AH16
  3
_AH
 10
0.0
 20
0.0
 70
64
  0
POLYLINE
  8
0
  6
CONTINUOUS
 62
0
 66
1
 40
0.0
 41
0.0
 70
0
  0
VERTEX
  8
0
 42
1.0
 10
8.3335E-002
 20
0.0
 70
0
  0
VERTEX
  8
0
 42
1.0
 10
-8.3335E-002
 20
0.0
 70
0
  0
VERTEX
  8
0
 42
0.0
 10
8.3335E-002
 20
0.0
 70
0
  0
SEQEND
  0
LINE
  8
0
  6
CONTINUOUS
 62
0
 10
0.0
 20
0.0
 11
-1.0
 21
0.0
  0
ENDBLK
  0
BLOCK
  2
_AH17
  3
_AH
 10
0.0
 20
0.0
 70
64
  0
LINE
  8
0
  6
CONTINUOUS
 62
0
 10
-1.66667E-001
 20
-1.66667E-001
 11
1.66667E-001
 21
-1.66667E-001
  0
LINE
  8
0
  6
CONTINUOUS
 62
0
 10
1.66667E-001
 20
-1.66667E-001
 11
1.66667E-001
 21
1.66667E-001
  0
LINE
  8
0
  6
CONTINUOUS
 62
0
 10
1.66667E-001
 20
1.66667E-001
 11
-1.66667E-001
 21
1.66667E-001
  0
LINE
  8
0
  6
CONTINUOUS
 62
0
 10
-1.66667E-001
 20
1.66667E-001
 11
-1.66667E-001
 21
-1.66667E-001
  0
LINE
  8
0
  6
CONTINUOUS
 62
0
 10
0.0
 20
0.0
 11
-1.0
 21
0.0
  0
ENDBLK
  0
BLOCK
  2
_AH18
  3
_AH
 10
0.0
 20
0.0
 70
64
  0
SOLID
  8
0
  6
CONTINUOUS
 62
0
 10
-1.66667E-001
 20
-1.66667E-001
 11
1.66667E-001
 21
-1.66667E-001
 12
-1.66667E-001
 22
1.66667E-001
 13
1.66667E-001
 23
1.66667E-001
  0
LINE
  8
0
  6
CONTINUOUS
 62
0
 10
0.0
 20
0.0
 11
-1.0
 21
0.0
  0
ENDBLK
  0
BLOCK
  2
_AH19
  3
_AH
 10
0.0
 20
0.0
 70
64
  0
LINE
  8
0
  6
CONTINUOUS
 62
0
 10
-5.0E-001
 20
-5.0E-001
 11
5.0E-001
 21
5.0E-001
  0
LINE
  8
0
  6
CONTINUOUS
 62
0
 10
0.0
 20
0.0
 11
-1.0
 21
0.0
  0
ENDBLK
  0
BLOCK
  2
_AH20
  3
_AH
 10
0.0
 20
0.0
 70
64
  0
POLYLINE
  8
0
  6
CONTINUOUS
 62
0
 66
1
 40
5.0E-001
 41
5.0E-001
 70
0
  0
VERTEX
  8
0
 42
4.1421356E-001
 10
-1.66667E-001
 20
-1.66667E-001
 70
0
  0
VERTEX
  8
0
 42
0.0
 10
0.0
 20
0.0
 70
0
  0
SEQEND
  0
POLYLINE
  8
0
  6
CONTINUOUS
 62
0
 66
1
 40
5.0E-001
 41
5.0E-001
 70
0
  0
VERTEX
  8
0
 42
4.1421356E-001
 10
1.66667E-001
 20
1.66667E-001
 70
0
  0
VERTEX
  8
0
 42
0.0
 10
0.0
 20
0.0
 70
0
  0
SEQEND
  0
LINE
  8
0
  6
CONTINUOUS
 62
0
 10
0.0
 20
0.0
 11
-1.0
 21
0.0
  0
ENDBLK
  0
BLOCK
  2
_AH21
  3
_AH
 10
0.0
 20
0.0
 70
64
  0
LINE
  8
0
  6
CONTINUOUS
 62
0
 10
0.0
 20
0.0
 11
-1.0
 21
-1.66667E-001
  0
LINE
  8
0
  6
CONTINUOUS
 62
0
 10
-1.0
 20
-1.66667E-001
 11
-1.0
 21
1.66667E-001
  0
LINE
  8
0
  6
CONTINUOUS
 62
0
 10
-1.0
 20
1.66667E-001
 11
0.0
 21
0.0
  0
ENDBLK
  0
BLOCK
  2
_AH1
 70
0
 10
0.0
 20
0.0
  3
_AH1
  0
LINE
  8
0
  6
CONTINUOUS
 62
0
 10
-1.0
 20
1.66667E-001
 11
0.0
 21
0.0
  0
LINE
  8
0
  6
CONTINUOUS
 62
0
 10
0.0
 20
0.0
 11
-1.0
 21
-1.66667E-001
  0
LINE
  8
0
  6
CONTINUOUS
 62
0
 10
-1.0
 20
1.66667E-001
 11
-1.0
 21
-1.66667E-001
  0
LINE
  8
0
  6
CONTINUOUS
 62
0
 10
0.0
 20
0.0
 11
-1.0
 21
0.0
  0
ENDBLK
  0
BLOCK
  2
_AH2
 70
0
 10
0.0
 20
0.0
  3
_AH2
  0
LINE
  8
0
  6
CONTINUOUS
 62
0
 10
-1.0
 20
1.66667E-001
 11
0.0
 21
0.0
  0
LINE
  8
0
  6
CONTINUOUS
 62
0
 10
0.0
 20
0.0
 11
-1.0
 21
-1.66667E-001
  0
LINE
  8
0
  6
CONTINUOUS
 62
0
 10
0.0
 20
0.0
 11
-1.0
 21
0.0
  0
ENDBLK
  0
ENDSEC
  0
SECTION
  2
ENTITIES
  0
POLYLINE
  8
2D_KATALOG-MITTEL
  6
CONTINUOUS
 62
230
 66
1
 40
5.0E-001
 41
5.0E-001
 70
0
  0
VERTEX
  8
2D_KATALOG-MITTEL
 42
0.0
 10
8.4411989E+001
 20
1.9644502E+002
 70
0
  0
VERTEX
  8
2D_KATALOG-MITTEL
 42
0.0
 10
9.1611989E+001
 20
1.9644502E+002
 70
0
  0
SEQEND
  0
POLYLINE
  8
2D_KATALOG-MITTEL
  6
CONTINUOUS
 62
230
 66
1
 40
5.0E-001
 41
5.0E-001
 70
0
  0
VERTEX
  8
2D_KATALOG-MITTEL
 42
0.0
 10
9.1611989E+001
 20
1.9644502E+002
 70
0
  0
VERTEX
  8
2D_KATALOG-MITTEL
 42
0.0
 10
9.1611989E+001
 20
2.0864502E+002
 70
0
  0
SEQEND
  0
POLYLINE
  8
2D_KATALOG-MITTEL
  6
CONTINUOUS
 62
230
 66
1
 40
5.0E-001
 41
5.0E-001
 70
0
  0
VERTEX
  8
2D_KATALOG-MITTEL
 42
0.0
 10
8.6211989E+001
 20
2.1424502E+002
 70
0
  0
VERTEX
  8
2D_KATALOG-MITTEL
 42
0.0
 10
9.1611989E+001
 20
2.1424502E+002
 70
0
  0
SEQEND
  0
POLYLINE
  8
2D_KATALOG-MITTEL
  6
CONTINUOUS
 62
230
 66
1
 40
5.0E-001
 41
5.0E-001
 70
0
  0
VERTEX
  8
2D_KATALOG-MITTEL
 42
0.0
 10
6.7611989E+001
 20
2.1424502E+002
 70
0
  0
VERTEX
  8
2D_KATALOG-MITTEL
 42
0.0
 10
6.7611989E+001
 20
2.1398534E+002
 70
0
  0
SEQEND
  0
POLYLINE
  8
2D_KATALOG-MITTEL
  6
CONTINUOUS
 62
230
 66
1
 40
5.0E-001
 41
5.0E-001
 70
0
  0
VERTEX
  8
2D_KATALOG-MITTEL
 42
0.0
 10
6.7611989E+001
 20
1.9644502E+002
 70
0
  0
VERTEX
  8
2D_KATALOG-MITTEL
 42
0.0
 10
7.4811989E+001
 20
1.9644502E+002
 70
0
  0
SEQEND
  0
POLYLINE
  8
2D_KATALOG-MITTEL
  6
CONTINUOUS
 62
230
 66
1
 40
5.0E-001
 41
5.0E-001
 70
0
  0
VERTEX
  8
2D_KATALOG-MITTEL
 42
0.0
 10
6.7611989E+001
 20
2.0864502E+002
 70
0
  0
VERTEX
  8
2D_KATALOG-MITTEL
 42
0.0
 10
7.3011989E+001
 20
2.0864502E+002
 70
0
  0
SEQEND
  0
POLYLINE
  8
2D_KATALOG-MITTEL
  6
CONTINUOUS
 62
230
 66
1
 40
5.0E-001
 41
5.0E-001
 70
0
  0
VERTEX
  8
2D_KATALOG-MITTEL
 42
0.0
 10
6.7611989E+001
 20
2.1424502E+002
 70
0
  0
VERTEX
  8
2D_KATALOG-MITTEL
 42
0.0
 10
7.3011989E+001
 20
2.1424502E+002
 70
0
  0
SEQEND
  0
POLYLINE
  8
2D_KATALOG-MITTEL
  6
CONTINUOUS
 62
230
 66
1
 40
5.0E-001
 41
5.0E-001
 70
0
  0
VERTEX
  8
2D_KATALOG-MITTEL
 42
0.0
 10
6.7611989E+001
 20
2.0864502E+002
 70
0
  0
VERTEX
  8
2D_KATALOG-MITTEL
 42
0.0
 10
6.7611989E+001
 20
1.9644502E+002
 70
0
  0
SEQEND
  0
POLYLINE
  8
2D_KATALOG-MITTEL
  6
CONTINUOUS
 62
230
 66
1
 40
5.0E-001
 41
5.0E-001
 70
0
  0
VERTEX
  8
2D_KATALOG-MITTEL
 42
0.0
 10
8.6211989E+001
 20
2.0864502E+002
 70
0
  0
VERTEX
  8
2D_KATALOG-MITTEL
 42
0.0
 10
9.1611989E+001
 20
2.0864502E+002
 70
0
  0
SEQEND
  0
POLYLINE
  8
2D_KATALOG-MITTEL
  6
CONTINUOUS
 62
230
 66
1
 40
5.0E-001
 41
5.0E-001
 70
0
  0
VERTEX
  8
2D_KATALOG-MITTEL
 42
0.0
 10
8.6211989E+001
 20
2.1404502E+002
 70
0
  0
VERTEX
  8
2D_KATALOG-MITTEL
 42
0.0
 10
8.6211989E+001
 20
2.1424502E+002
 70
0
  0
SEQEND
  0
POLYLINE
  8
2D_KATALOG-MITTEL
  6
CONTINUOUS
 62
230
 66
1
 40
5.0E-001
 41
5.0E-001
 70
0
  0
VERTEX
  8
2D_KATALOG-MITTEL
 42
0.0
 10
7.3011989E+001
 20
2.1404502E+002
 70
0
  0
VERTEX
  8
2D_KATALOG-MITTEL
 42
0.0
 10
7.3011989E+001
 20
2.1424502E+002
 70
0
  0
SEQEND
  0
POLYLINE
  8
2D_KATALOG-MITTEL
  6
CONTINUOUS
 62
230
 66
1
 40
5.0E-001
 41
5.0E-001
 70
0
  0
VERTEX
  8
2D_KATALOG-MITTEL
 42
1.9492014
 10
7.3011989E+001
 20
2.0332954E+002
 70
0
  0
VERTEX
  8
2D_KATALOG-MITTEL
 42
0.0
 10
7.3965239E+001
 20
2.0144502E+002
 70
0
  0
SEQEND
  0
POLYLINE
  8
2D_KATALOG-MITTEL
  6
CONTINUOUS
 62
230
 66
1
 40
5.0E-001
 41
5.0E-001
 70
0
  0
VERTEX
  8
2D_KATALOG-MITTEL
 42
4.6021246E-001
 10
8.7711989E+001
 20
2.0204502E+002
 70
0
  0
VERTEX
  8
2D_KATALOG-MITTEL
 42
0.0
 10
8.6211988E+001
 20
2.0332954E+002
 70
0
  0
SEQEND
  0
POLYLINE
  8
2D_KATALOG-MITTEL
  6
CONTINUOUS
 62
230
 66
1
 40
5.0E-001
 41
5.0E-001
 70
0
  0
VERTEX
  8
2D_KATALOG-MITTEL
 42
7.8489837E-001
 10
8.5258749E+001
 20
2.0144502E+002
 70
0
  0
VERTEX
  8
2D_KATALOG-MITTEL
 42
0.0
 10
8.7711974E+001
 20
2.0204502E+002
 70
0
  0
SEQEND
  0
POLYLINE
  8
2D_KATALOG-MITTEL
  6
CONTINUOUS
 62
230
 66
1
 40
5.0E-001
 41
5.0E-001
 70
0
  0
VERTEX
  8
2D_KATALOG-MITTEL
 42
0.0
 10
6.5819029E+001
 20
2.0890466E+002
 70
0
  0
VERTEX
  8
2D_KATALOG-MITTEL
 42
0.0
 10
6.7404949E+001
 20
2.0890466E+002
 70
0
  0
SEQEND
  0
POLYLINE
  8
2D_KATALOG-MITTEL
  6
CONTINUOUS
 62
230
 66
1
 40
5.0E-001
 41
5.0E-001
 70
0
  0
VERTEX
  8
2D_KATALOG-MITTEL
 42
0.0
 10
6.7404989E+001
 20
2.1398534E+002
 70
0
  0
VERTEX
  8
2D_KATALOG-MITTEL
 42
0.0
 10
6.5818989E+001
 20
2.1398534E+002
 70
0
  0
SEQEND
  0
POLYLINE
  8
2D_KATALOG-MITTEL
  6
CONTINUOUS
 62
230
 66
1
 40
5.0E-001
 41
5.0E-001
 70
0
  0
VERTEX
  8
2D_KATALOG-MITTEL
 42
0.0
 10
6.5611989E+001
 20
2.1362678E+002
 70
0
  0
VERTEX
  8
2D_KATALOG-MITTEL
 42
0.0
 10
6.5611989E+001
 20
2.1304502E+002
 70
0
  0
SEQEND
  0
POLYLINE
  8
2D_KATALOG-MITTEL
  6
CONTINUOUS
 62
230
 66
1
 40
5.0E-001
 41
5.0E-001
 70
0
  0
VERTEX
  8
2D_KATALOG-MITTEL
 42
0.0
 10
6.7611989E+001
 20
2.1398534E+002
 70
0
  0
VERTEX
  8
2D_KATALOG-MITTEL
 42
0.0
 10
6.7611989E+001
 20
2.0890466E+002
 70
0
  0
SEQEND
  0
POLYLINE
  8
2D_KATALOG-MITTEL
  6
CONTINUOUS
 62
230
 66
1
 40
5.0E-001
 41
5.0E-001
 70
0
  0
VERTEX
  8
2D_KATALOG-MITTEL
 42
0.0
 10
6.7611989E+001
 20
2.0890466E+002
 70
0
  0
VERTEX
  8
2D_KATALOG-MITTEL
 42
0.0
 10
6.7611989E+001
 20
2.0864502E+002
 70
0
  0
SEQEND
  0
POLYLINE
  8
2D_KATALOG-MITTEL
  6
CONTINUOUS
 62
230
 66
1
 40
5.0E-001
 41
5.0E-001
 70
0
  0
VERTEX
  8
2D_KATALOG-MITTEL
 42
0.0
 10
6.5830549E+001
 20
2.1271518E+002
 70
0
  0
VERTEX
  8
2D_KATALOG-MITTEL
 42
0.0
 10
6.7393429E+001
 20
2.1271518E+002
 70
0
  0
SEQEND
  0
POLYLINE
  8
2D_KATALOG-MITTEL
  6
CONTINUOUS
 62
230
 66
1
 40
5.0E-001
 41
5.0E-001
 70
0
  0
VERTEX
  8
2D_KATALOG-MITTEL
 42
0.0
 10
6.5830549E+001
 20
2.1017486E+002
 70
0
  0
VERTEX
  8
2D_KATALOG-MITTEL
 42
0.0
 10
6.7393429E+001
 20
2.1017486E+002
 70
0
  0
SEQEND
  0
POLYLINE
  8
2D_KATALOG-MITTEL
  6
CONTINUOUS
 62
230
 66
1
 40
5.0E-001
 41
5.0E-001
 70
0
  0
VERTEX
  8
2D_KATALOG-MITTEL
 42
0.0
 10
6.5611989E+001
 20
2.1271518E+002
 70
0
  0
VERTEX
  8
2D_KATALOG-MITTEL
 42
0.0
 10
6.5611989E+001
 20
2.1017486E+002
 70
0
  0
SEQEND
  0
POLYLINE
  8
2D_KATALOG-MITTEL
  6
CONTINUOUS
 62
230
 66
1
 40
5.0E-001
 41
5.0E-001
 70
0
  0
VERTEX
  8
2D_KATALOG-MITTEL
 42
0.0
 10
6.5611989E+001
 20
2.1017486E+002
 70
0
  0
VERTEX
  8
2D_KATALOG-MITTEL
 42
0.0
 10
6.5611989E+001
 20
2.0984502E+002
 70
0
  0
SEQEND
  0
POLYLINE
  8
2D_KATALOG-MITTEL
  6
CONTINUOUS
 62
230
 66
1
 40
5.0E-001
 41
5.0E-001
 70
0
  0
VERTEX
  8
2D_KATALOG-MITTEL
 42
3.056459E-001
 10
6.5750229E+001
 20
2.1386626E+002
 70
0
  0
VERTEX
  8
2D_KATALOG-MITTEL
 42
0.0
 10
6.5830532E+001
 20
2.1271517E+002
 70
0
  0
SEQEND
  0
POLYLINE
  8
2D_KATALOG-MITTEL
  6
CONTINUOUS
 62
230
 66
1
 40
5.0E-001
 41
5.0E-001
 70
0
  0
VERTEX
  8
2D_KATALOG-MITTEL
 42
3.4414922E-001
 10
6.7393429E+001
 20
2.1271518E+002
 70
0
  0
VERTEX
  8
2D_KATALOG-MITTEL
 42
0.0
 10
6.7393429E+001
 20
2.1398534E+002
 70
0
  0
SEQEND
  0
POLYLINE
  8
2D_KATALOG-MITTEL
  6
CONTINUOUS
 62
230
 66
1
 40
5.0E-001
 41
5.0E-001
 70
0
  0
VERTEX
  8
2D_KATALOG-MITTEL
 42
8.5409756E-002
 10
6.5830549E+001
 20
2.1271518E+002
 70
0
  0
VERTEX
  8
2D_KATALOG-MITTEL
 42
0.0
 10
6.5611986E+001
 20
2.1144502E+002
 70
0
  0
SEQEND
  0
POLYLINE
  8
2D_KATALOG-MITTEL
  6
CONTINUOUS
 62
230
 66
1
 40
5.0E-001
 41
5.0E-001
 70
0
  0
VERTEX
  8
2D_KATALOG-MITTEL
 42
1.7207477E-001
 10
6.7393429E+001
 20
2.1017486E+002
 70
0
  0
VERTEX
  8
2D_KATALOG-MITTEL
 42
0.0
 10
6.7393429E+001
 20
2.1271518E+002
 70
0
  0
SEQEND
  0
POLYLINE
  8
2D_KATALOG-MITTEL
  6
CONTINUOUS
 62
230
 66
1
 40
5.0E-001
 41
5.0E-001
 70
0
  0
VERTEX
  8
2D_KATALOG-MITTEL
 42
3.4846365E-002
 10
6.5750229E+001
 20
2.0902378E+002
 70
0
  0
VERTEX
  8
2D_KATALOG-MITTEL
 42
0.0
 10
6.5830551E+001
 20
2.0890466E+002
 70
0
  0
SEQEND
  0
POLYLINE
  8
2D_KATALOG-MITTEL
  6
CONTINUOUS
 62
230
 66
1
 40
5.0E-001
 41
5.0E-001
 70
0
  0
VERTEX
  8
2D_KATALOG-MITTEL
 42
3.4415777E-001
 10
6.7393429E+001
 20
2.0890466E+002
 70
0
  0
VERTEX
  8
2D_KATALOG-MITTEL
 42
0.0
 10
6.7393448E+001
 20
2.1017488E+002
 70
0
  0
SEQEND
  0
POLYLINE
  8
2D_KATALOG-MITTEL
  6
CONTINUOUS
 62
230
 66
1
 40
5.0E-001
 41
5.0E-001
 70
0
  0
VERTEX
  8
2D_KATALOG-MITTEL
 42
0.0
 10
6.5611989E+001
 20
2.1362678E+002
 70
0
  0
VERTEX
  8
2D_KATALOG-MITTEL
 42
0.0
 10
6.5750229E+001
 20
2.1386626E+002
 70
0
  0
SEQEND
  0
POLYLINE
  8
2D_KATALOG-MITTEL
  6
CONTINUOUS
 62
230
 66
1
 40
5.0E-001
 41
5.0E-001
 70
0
  0
VERTEX
  8
2D_KATALOG-MITTEL
 42
0.0
 10
6.5750229E+001
 20
2.1386626E+002
 70
0
  0
VERTEX
  8
2D_KATALOG-MITTEL
 42
0.0
 10
6.5819029E+001
 20
2.1398538E+002
 70
0
  0
SEQEND
  0
POLYLINE
  8
2D_KATALOG-MITTEL
  6
CONTINUOUS
 62
230
 66
1
 40
5.0E-001
 41
5.0E-001
 70
0
  0
VERTEX
  8
2D_KATALOG-MITTEL
 42
3.4838718E-002
 10
6.5830549E+001
 20
2.1398534E+002
 70
0
  0
VERTEX
  8
2D_KATALOG-MITTEL
 42
0.0
 10
6.5750248E+001
 20
2.1386625E+002
 70
0
  0
SEQEND
  0
POLYLINE
  8
2D_KATALOG-MITTEL
  6
CONTINUOUS
 62
230
 66
1
 40
5.0E-001
 41
5.0E-001
 70
0
  0
VERTEX
  8
2D_KATALOG-MITTEL
 42
0.0
 10
6.7611989E+001
 20
2.1362678E+002
 70
0
  0
VERTEX
  8
2D_KATALOG-MITTEL
 42
0.0
 10
6.7473749E+001
 20
2.1386622E+002
 70
0
  0
SEQEND
  0
POLYLINE
  8
2D_KATALOG-MITTEL
  6
CONTINUOUS
 62
230
 66
1
 40
5.0E-001
 41
5.0E-001
 70
0
  0
VERTEX
  8
2D_KATALOG-MITTEL
 42
0.0
 10
6.7473749E+001
 20
2.1386622E+002
 70
0
  0
VERTEX
  8
2D_KATALOG-MITTEL
 42
0.0
 10
6.7404989E+001
 20
2.1398534E+002
 70
0
  0
SEQEND
  0
POLYLINE
  8
2D_KATALOG-MITTEL
  6
CONTINUOUS
 62
230
 66
1
 40
5.0E-001
 41
5.0E-001
 70
0
  0
VERTEX
  8
2D_KATALOG-MITTEL
 42
0.0
 10
6.5819029E+001
 20
2.0890466E+002
 70
0
  0
VERTEX
  8
2D_KATALOG-MITTEL
 42
0.0
 10
6.5750229E+001
 20
2.0902378E+002
 70
0
  0
SEQEND
  0
POLYLINE
  8
2D_KATALOG-MITTEL
  6
CONTINUOUS
 62
230
 66
1
 40
5.0E-001
 41
5.0E-001
 70
0
  0
VERTEX
  8
2D_KATALOG-MITTEL
 42
0.0
 10
6.5750229E+001
 20
2.0902378E+002
 70
0
  0
VERTEX
  8
2D_KATALOG-MITTEL
 42
0.0
 10
6.5611989E+001
 20
2.0926326E+002
 70
0
  0
SEQEND
  0
POLYLINE
  8
2D_KATALOG-MITTEL
  6
CONTINUOUS
 62
230
 66
1
 40
5.0E-001
 41
5.0E-001
 70
0
  0
VERTEX
  8
2D_KATALOG-MITTEL
 42
3.056459E-001
 10
6.5830549E+001
 20
2.1017486E+002
 70
0
  0
VERTEX
  8
2D_KATALOG-MITTEL
 42
0.0
 10
6.5750248E+001
 20
2.0902379E+002
 70
0
  0
SEQEND
  0
POLYLINE
  8
2D_KATALOG-MITTEL
  6
CONTINUOUS
 62
230
 66
1
 40
5.0E-001
 41
5.0E-001
 70
0
  0
VERTEX
  8
2D_KATALOG-MITTEL
 42
0.0
 10
6.7404949E+001
 20
2.0890466E+002
 70
0
  0
VERTEX
  8
2D_KATALOG-MITTEL
 42
0.0
 10
6.7611989E+001
 20
2.0926326E+002
 70
0
  0
SEQEND
  0
POLYLINE
  8
2D_KATALOG-MITTEL
  6
CONTINUOUS
 62
230
 66
1
 40
5.0E-001
 41
5.0E-001
 70
0
  0
VERTEX
  8
2D_KATALOG-MITTEL
 42
0.0
 10
6.5611989E+001
 20
2.1304502E+002
 70
0
  0
VERTEX
  8
2D_KATALOG-MITTEL
 42
0.0
 10
6.5211989E+001
 20
2.1304502E+002
 70
0
  0
SEQEND
  0
POLYLINE
  8
2D_KATALOG-MITTEL
  6
CONTINUOUS
 62
230
 66
1
 40
5.0E-001
 41
5.0E-001
 70
0
  0
VERTEX
  8
2D_KATALOG-MITTEL
 42
0.0
 10
6.5211989E+001
 20
2.1304502E+002
 70
0
  0
VERTEX
  8
2D_KATALOG-MITTEL
 42
0.0
 10
6.5211989E+001
 20
2.0984502E+002
 70
0
  0
SEQEND
  0
POLYLINE
  8
2D_KATALOG-MITTEL
  6
CONTINUOUS
 62
230
 66
1
 40
5.0E-001
 41
5.0E-001
 70
0
  0
VERTEX
  8
2D_KATALOG-MITTEL
 42
0.0
 10
6.5211989E+001
 20
2.0984502E+002
 70
0
  0
VERTEX
  8
2D_KATALOG-MITTEL
 42
0.0
 10
6.5611989E+001
 20
2.0984502E+002
 70
0
  0
SEQEND
  0
LINE
  8
LAYER1
  6
CONTINUOUS
 62
5
 10
6.5611989E+001
 20
2.1273822E+002
 11
6.5211989E+001
 21
2.1273822E+002
  0
LINE
  8
LAYER1
  6
CONTINUOUS
 62
5
 10
6.5611989E+001
 20
2.1015182E+002
 11
6.5211989E+001
 21
2.1015182E+002
  0
POLYLINE
  8
2D_KATALOG-MITTEL
  6
CONTINUOUS
 62
230
 66
1
 40
5.0E-001
 41
5.0E-001
 70
0
  0
VERTEX
  8
2D_KATALOG-MITTEL
 42
0.0
 10
6.5611989E+001
 20
2.1304502E+002
 70
0
  0
VERTEX
  8
2D_KATALOG-MITTEL
 42
0.0
 10
6.5611989E+001
 20
2.1271518E+002
 70
0
  0
SEQEND
  0
POLYLINE
  8
2D_KATALOG-MITTEL
  6
CONTINUOUS
 62
230
 66
1
 40
5.0E-001
 41
5.0E-001
 70
0
  0
VERTEX
  8
2D_KATALOG-MITTEL
 42
0.0
 10
6.5611989E+001
 20
2.0984502E+002
 70
0
  0
VERTEX
  8
2D_KATALOG-MITTEL
 42
0.0
 10
6.5611989E+001
 20
2.0926326E+002
 70
0
  0
SEQEND
  0
POLYLINE
  8
2D_KATALOG-MITTEL
  6
CONTINUOUS
 62
230
 66
1
 40
5.0E-001
 41
5.0E-001
 70
0
  0
VERTEX
  8
2D_KATALOG-MITTEL
 42
8.5409756E-002
 10
6.5611989E+001
 20
2.1144502E+002
 70
0
  0
VERTEX
  8
2D_KATALOG-MITTEL
 42
0.0
 10
6.5830551E+001
 20
2.1017486E+002
 70
0
  0
SEQEND
  0
POLYLINE
  8
2D_KATALOG-MITTEL
  6
CONTINUOUS
 62
230
 66
1
 40
5.0E-001
 41
5.0E-001
 70
0
  0
VERTEX
  8
2D_KATALOG-MITTEL
 42
1.0819422E-001
 10
6.5211989E+001
 20
2.1304502E+002
 70
0
  0
VERTEX
  8
2D_KATALOG-MITTEL
 42
0.0
 10
6.4817876E+001
 20
2.1164502E+002
 70
0
  0
SEQEND
  0
POLYLINE
  8
2D_KATALOG-MITTEL
  6
CONTINUOUS
 62
230
 66
1
 40
5.0E-001
 41
5.0E-001
 70
0
  0
VERTEX
  8
2D_KATALOG-MITTEL
 42
1.0819422E-001
 10
6.4817869E+001
 20
2.1124502E+002
 70
0
  0
VERTEX
  8
2D_KATALOG-MITTEL
 42
0.0
 10
6.5211982E+001
 20
2.0984502E+002
 70
0
  0
SEQEND
  0
POLYLINE
  8
2D_KATALOG-MITTEL
  6
CONTINUOUS
 62
230
 66
1
 40
5.0E-001
 41
5.0E-001
 70
0
  0
VERTEX
  8
2D_KATALOG-MITTEL
 42
0.0
 10
6.5211989E+001
 20
2.1164502E+002
 70
0
  0
VERTEX
  8
2D_KATALOG-MITTEL
 42
0.0
 10
6.4817869E+001
 20
2.1164502E+002
 70
0
  0
SEQEND
  0
POLYLINE
  8
2D_KATALOG-MITTEL
  6
CONTINUOUS
 62
230
 66
1
 40
5.0E-001
 41
5.0E-001
 70
0
  0
VERTEX
  8
2D_KATALOG-MITTEL
 42
0.0
 10
6.5211989E+001
 20
2.1124502E+002
 70
0
  0
VERTEX
  8
2D_KATALOG-MITTEL
 42
0.0
 10
6.4817869E+001
 20
2.1124502E+002
 70
0
  0
SEQEND
  0
POLYLINE
  8
2D_KATALOG-MITTEL
  6
CONTINUOUS
 62
230
 66
1
 40
5.0E-001
 41
5.0E-001
 70
0
  0
VERTEX
  8
2D_KATALOG-MITTEL
 42
0.0
 10
9.1611989E+001
 20
2.1424502E+002
 70
0
  0
VERTEX
  8
2D_KATALOG-MITTEL
 42
0.0
 10
9.1611989E+001
 20
2.1398534E+002
 70
0
  0
SEQEND
  0
POLYLINE
  8
2D_KATALOG-MITTEL
  6
CONTINUOUS
 62
230
 66
1
 40
5.0E-001
 41
5.0E-001
 70
0
  0
VERTEX
  8
2D_KATALOG-MITTEL
 42
0.0
 10
9.3404949E+001
 20
2.0890466E+002
 70
0
  0
VERTEX
  8
2D_KATALOG-MITTEL
 42
0.0
 10
9.1819029E+001
 20
2.0890466E+002
 70
0
  0
SEQEND
  0
POLYLINE
  8
2D_KATALOG-MITTEL
  6
CONTINUOUS
 62
230
 66
1
 40
5.0E-001
 41
5.0E-001
 70
0
  0
VERTEX
  8
2D_KATALOG-MITTEL
 42
0.0
 10
9.1818989E+001
 20
2.1398534E+002
 70
0
  0
VERTEX
  8
2D_KATALOG-MITTEL
 42
0.0
 10
9.3404989E+001
 20
2.1398534E+002
 70
0
  0
SEQEND
  0
POLYLINE
  8
2D_KATALOG-MITTEL
  6
CONTINUOUS
 62
230
 66
1
 40
5.0E-001
 41
5.0E-001
 70
0
  0
VERTEX
  8
2D_KATALOG-MITTEL
 42
0.0
 10
9.3611989E+001
 20
2.1362678E+002
 70
0
  0
VERTEX
  8
2D_KATALOG-MITTEL
 42
0.0
 10
9.3611989E+001
 20
2.1304502E+002
 70
0
  0
SEQEND
  0
POLYLINE
  8
2D_KATALOG-MITTEL
  6
CONTINUOUS
 62
230
 66
1
 40
5.0E-001
 41
5.0E-001
 70
0
  0
VERTEX
  8
2D_KATALOG-MITTEL
 42
0.0
 10
9.1611989E+001
 20
2.1398534E+002
 70
0
  0
VERTEX
  8
2D_KATALOG-MITTEL
 42
0.0
 10
9.1611989E+001
 20
2.0890466E+002
 70
0
  0
SEQEND
  0
POLYLINE
  8
2D_KATALOG-MITTEL
  6
CONTINUOUS
 62
230
 66
1
 40
5.0E-001
 41
5.0E-001
 70
0
  0
VERTEX
  8
2D_KATALOG-MITTEL
 42
0.0
 10
9.3393429E+001
 20
2.1271518E+002
 70
0
  0
VERTEX
  8
2D_KATALOG-MITTEL
 42
0.0
 10
9.1830549E+001
 20
2.1271518E+002
 70
0
  0
SEQEND
  0
POLYLINE
  8
2D_KATALOG-MITTEL
  6
CONTINUOUS
 62
230
 66
1
 40
5.0E-001
 41
5.0E-001
 70
0
  0
VERTEX
  8
2D_KATALOG-MITTEL
 42
0.0
 10
9.3393429E+001
 20
2.1017486E+002
 70
0
  0
VERTEX
  8
2D_KATALOG-MITTEL
 42
0.0
 10
9.1830549E+001
 20
2.1017486E+002
 70
0
  0
SEQEND
  0
POLYLINE
  8
2D_KATALOG-MITTEL
  6
CONTINUOUS
 62
230
 66
1
 40
5.0E-001
 41
5.0E-001
 70
0
  0
VERTEX
  8
2D_KATALOG-MITTEL
 42
0.0
 10
9.3611989E+001
 20
2.1271518E+002
 70
0
  0
VERTEX
  8
2D_KATALOG-MITTEL
 42
0.0
 10
9.3611989E+001
 20
2.1017486E+002
 70
0
  0
SEQEND
  0
POLYLINE
  8
2D_KATALOG-MITTEL
  6
CONTINUOUS
 62
230
 66
1
 40
5.0E-001
 41
5.0E-001
 70
0
  0
VERTEX
  8
2D_KATALOG-MITTEL
 42
0.0
 10
9.3611989E+001
 20
2.1017486E+002
 70
0
  0
VERTEX
  8
2D_KATALOG-MITTEL
 42
0.0
 10
9.3611989E+001
 20
2.0984502E+002
 70
0
  0
SEQEND
  0
POLYLINE
  8
2D_KATALOG-MITTEL
  6
CONTINUOUS
 62
230
 66
1
 40
5.0E-001
 41
5.0E-001
 70
0
  0
VERTEX
  8
2D_KATALOG-MITTEL
 42
3.056459E-001
 10
9.3393429E+001
 20
2.1271518E+002
 70
0
  0
VERTEX
  8
2D_KATALOG-MITTEL
 42
0.0
 10
9.347373E+001
 20
2.1386625E+002
 70
0
  0
SEQEND
  0
POLYLINE
  8
2D_KATALOG-MITTEL
  6
CONTINUOUS
 62
230
 66
1
 40
5.0E-001
 41
5.0E-001
 70
0
  0
VERTEX
  8
2D_KATALOG-MITTEL
 42
3.4414922E-001
 10
9.1830549E+001
 20
2.1398534E+002
 70
0
  0
VERTEX
  8
2D_KATALOG-MITTEL
 42
0.0
 10
9.1830549E+001
 20
2.1271518E+002
 70
0
  0
SEQEND
  0
POLYLINE
  8
2D_KATALOG-MITTEL
  6
CONTINUOUS
 62
230
 66
1
 40
5.0E-001
 41
5.0E-001
 70
0
  0
VERTEX
  8
2D_KATALOG-MITTEL
 42
8.5409756E-002
 10
9.3611989E+001
 20
2.1144502E+002
 70
0
  0
VERTEX
  8
2D_KATALOG-MITTEL
 42
0.0
 10
9.3393426E+001
 20
2.1271518E+002
 70
0
  0
SEQEND
  0
POLYLINE
  8
2D_KATALOG-MITTEL
  6
CONTINUOUS
 62
230
 66
1
 40
5.0E-001
 41
5.0E-001
 70
0
  0
VERTEX
  8
2D_KATALOG-MITTEL
 42
1.7207477E-001
 10
9.1830549E+001
 20
2.1271518E+002
 70
0
  0
VERTEX
  8
2D_KATALOG-MITTEL
 42
0.0
 10
9.1830549E+001
 20
2.1017486E+002
 70
0
  0
SEQEND
  0
POLYLINE
  8
2D_KATALOG-MITTEL
  6
CONTINUOUS
 62
230
 66
1
 40
5.0E-001
 41
5.0E-001
 70
0
  0
VERTEX
  8
2D_KATALOG-MITTEL
 42
3.4846365E-002
 10
9.3393429E+001
 20
2.0890466E+002
 70
0
  0
VERTEX
  8
2D_KATALOG-MITTEL
 42
0.0
 10
9.3473751E+001
 20
2.0902378E+002
 70
0
  0
SEQEND
  0
POLYLINE
  8
2D_KATALOG-MITTEL
  6
CONTINUOUS
 62
230
 66
1
 40
5.0E-001
 41
5.0E-001
 70
0
  0
VERTEX
  8
2D_KATALOG-MITTEL
 42
3.4415777E-001
 10
9.1830549E+001
 20
2.1017486E+002
 70
0
  0
VERTEX
  8
2D_KATALOG-MITTEL
 42
0.0
 10
9.1830568E+001
 20
2.0890468E+002
 70
0
  0
SEQEND
  0
POLYLINE
  8
2D_KATALOG-MITTEL
  6
CONTINUOUS
 62
230
 66
1
 40
5.0E-001
 41
5.0E-001
 70
0
  0
VERTEX
  8
2D_KATALOG-MITTEL
 42
0.0
 10
9.3611989E+001
 20
2.1362678E+002
 70
0
  0
VERTEX
  8
2D_KATALOG-MITTEL
 42
0.0
 10
9.3473749E+001
 20
2.1386626E+002
 70
0
  0
SEQEND
  0
POLYLINE
  8
2D_KATALOG-MITTEL
  6
CONTINUOUS
 62
230
 66
1
 40
5.0E-001
 41
5.0E-001
 70
0
  0
VERTEX
  8
2D_KATALOG-MITTEL
 42
0.0
 10
9.3473749E+001
 20
2.1386626E+002
 70
0
  0
VERTEX
  8
2D_KATALOG-MITTEL
 42
0.0
 10
9.3404949E+001
 20
2.1398538E+002
 70
0
  0
SEQEND
  0
POLYLINE
  8
2D_KATALOG-MITTEL
  6
CONTINUOUS
 62
230
 66
1
 40
5.0E-001
 41
5.0E-001
 70
0
  0
VERTEX
  8
2D_KATALOG-MITTEL
 42
3.4838718E-002
 10
9.3473749E+001
 20
2.1386626E+002
 70
0
  0
VERTEX
  8
2D_KATALOG-MITTEL
 42
0.0
 10
9.3393446E+001
 20
2.1398535E+002
 70
0
  0
SEQEND
  0
POLYLINE
  8
2D_KATALOG-MITTEL
  6
CONTINUOUS
 62
230
 66
1
 40
5.0E-001
 41
5.0E-001
 70
0
  0
VERTEX
  8
2D_KATALOG-MITTEL
 42
0.0
 10
9.1611989E+001
 20
2.1362678E+002
 70
0
  0
VERTEX
  8
2D_KATALOG-MITTEL
 42
0.0
 10
9.1750229E+001
 20
2.1386622E+002
 70
0
  0
SEQEND
  0
POLYLINE
  8
2D_KATALOG-MITTEL
  6
CONTINUOUS
 62
230
 66
1
 40
5.0E-001
 41
5.0E-001
 70
0
  0
VERTEX
  8
2D_KATALOG-MITTEL
 42
0.0
 10
9.1750229E+001
 20
2.1386622E+002
 70
0
  0
VERTEX
  8
2D_KATALOG-MITTEL
 42
0.0
 10
9.1818989E+001
 20
2.1398534E+002
 70
0
  0
SEQEND
  0
POLYLINE
  8
2D_KATALOG-MITTEL
  6
CONTINUOUS
 62
230
 66
1
 40
5.0E-001
 41
5.0E-001
 70
0
  0
VERTEX
  8
2D_KATALOG-MITTEL
 42
0.0
 10
9.3404949E+001
 20
2.0890466E+002
 70
0
  0
VERTEX
  8
2D_KATALOG-MITTEL
 42
0.0
 10
9.3473749E+001
 20
2.0902378E+002
 70
0
  0
SEQEND
  0
POLYLINE
  8
2D_KATALOG-MITTEL
  6
CONTINUOUS
 62
230
 66
1
 40
5.0E-001
 41
5.0E-001
 70
0
  0
VERTEX
  8
2D_KATALOG-MITTEL
 42
0.0
 10
9.3473749E+001
 20
2.0902378E+002
 70
0
  0
VERTEX
  8
2D_KATALOG-MITTEL
 42
0.0
 10
9.3611989E+001
 20
2.0926326E+002
 70
0
  0
SEQEND
  0
POLYLINE
  8
2D_KATALOG-MITTEL
  6
CONTINUOUS
 62
230
 66
1
 40
5.0E-001
 41
5.0E-001
 70
0
  0
VERTEX
  8
2D_KATALOG-MITTEL
 42
3.056459E-001
 10
9.3473749E+001
 20
2.0902378E+002
 70
0
  0
VERTEX
  8
2D_KATALOG-MITTEL
 42
0.0
 10
9.3393446E+001
 20
2.1017487E+002
 70
0
  0
SEQEND
  0
POLYLINE
  8
2D_KATALOG-MITTEL
  6
CONTINUOUS
 62
230
 66
1
 40
5.0E-001
 41
5.0E-001
 70
0
  0
VERTEX
  8
2D_KATALOG-MITTEL
 42
0.0
 10
9.3611989E+001
 20
2.1304502E+002
 70
0
  0
VERTEX
  8
2D_KATALOG-MITTEL
 42
0.0
 10
9.4011989E+001
 20
2.1304502E+002
 70
0
  0
SEQEND
  0
POLYLINE
  8
2D_KATALOG-MITTEL
  6
CONTINUOUS
 62
230
 66
1
 40
5.0E-001
 41
5.0E-001
 70
0
  0
VERTEX
  8
2D_KATALOG-MITTEL
 42
0.0
 10
9.4011989E+001
 20
2.1304502E+002
 70
0
  0
VERTEX
  8
2D_KATALOG-MITTEL
 42
0.0
 10
9.4011989E+001
 20
2.0984502E+002
 70
0
  0
SEQEND
  0
POLYLINE
  8
2D_KATALOG-MITTEL
  6
CONTINUOUS
 62
230
 66
1
 40
5.0E-001
 41
5.0E-001
 70
0
  0
VERTEX
  8
2D_KATALOG-MITTEL
 42
0.0
 10
9.4011989E+001
 20
2.0984502E+002
 70
0
  0
VERTEX
  8
2D_KATALOG-MITTEL
 42
0.0
 10
9.3611989E+001
 20
2.0984502E+002
 70
0
  0
SEQEND
  0
LINE
  8
LAYER1
  6
CONTINUOUS
 62
5
 10
9.3611989E+001
 20
2.1273822E+002
 11
9.4011989E+001
 21
2.1273822E+002
  0
LINE
  8
LAYER1
  6
CONTINUOUS
 62
5
 10
9.3611989E+001
 20
2.1015182E+002
 11
9.4011989E+001
 21
2.1015182E+002
  0
POLYLINE
  8
2D_KATALOG-MITTEL
  6
CONTINUOUS
 62
230
 66
1
 40
5.0E-001
 41
5.0E-001
 70
0
  0
VERTEX
  8
2D_KATALOG-MITTEL
 42
0.0
 10
9.3611989E+001
 20
2.1304502E+002
 70
0
  0
VERTEX
  8
2D_KATALOG-MITTEL
 42
0.0
 10
9.3611989E+001
 20
2.1271518E+002
 70
0
  0
SEQEND
  0
POLYLINE
  8
2D_KATALOG-MITTEL
  6
CONTINUOUS
 62
230
 66
1
 40
5.0E-001
 41
5.0E-001
 70
0
  0
VERTEX
  8
2D_KATALOG-MITTEL
 42
0.0
 10
9.3611989E+001
 20
2.0984502E+002
 70
0
  0
VERTEX
  8
2D_KATALOG-MITTEL
 42
0.0
 10
9.3611989E+001
 20
2.0926326E+002
 70
0
  0
SEQEND
  0
POLYLINE
  8
2D_KATALOG-MITTEL
  6
CONTINUOUS
 62
230
 66
1
 40
5.0E-001
 41
5.0E-001
 70
0
  0
VERTEX
  8
2D_KATALOG-MITTEL
 42
8.5409756E-002
 10
9.3393429E+001
 20
2.1017486E+002
 70
0
  0
VERTEX
  8
2D_KATALOG-MITTEL
 42
0.0
 10
9.3611991E+001
 20
2.1144502E+002
 70
0
  0
SEQEND
  0
POLYLINE
  8
2D_KATALOG-MITTEL
  6
CONTINUOUS
 62
230
 66
1
 40
5.0E-001
 41
5.0E-001
 70
0
  0
VERTEX
  8
2D_KATALOG-MITTEL
 42
1.0819422E-001
 10
9.4406109E+001
 20
2.1164502E+002
 70
0
  0
VERTEX
  8
2D_KATALOG-MITTEL
 42
0.0
 10
9.4011995E+001
 20
2.1304502E+002
 70
0
  0
SEQEND
  0
POLYLINE
  8
2D_KATALOG-MITTEL
  6
CONTINUOUS
 62
230
 66
1
 40
5.0E-001
 41
5.0E-001
 70
0
  0
VERTEX
  8
2D_KATALOG-MITTEL
 42
1.0819422E-001
 10
9.4011989E+001
 20
2.0984502E+002
 70
0
  0
VERTEX
  8
2D_KATALOG-MITTEL
 42
0.0
 10
9.4406101E+001
 20
2.1124502E+002
 70
0
  0
SEQEND
  0
POLYLINE
  8
2D_KATALOG-MITTEL
  6
CONTINUOUS
 62
230
 66
1
 40
5.0E-001
 41
5.0E-001
 70
0
  0
VERTEX
  8
2D_KATALOG-MITTEL
 42
0.0
 10
9.4011989E+001
 20
2.1164502E+002
 70
0
  0
VERTEX
  8
2D_KATALOG-MITTEL
 42
0.0
 10
9.4406109E+001
 20
2.1164502E+002
 70
0
  0
SEQEND
  0
POLYLINE
  8
2D_KATALOG-MITTEL
  6
CONTINUOUS
 62
230
 66
1
 40
5.0E-001
 41
5.0E-001
 70
0
  0
VERTEX
  8
2D_KATALOG-MITTEL
 42
0.0
 10
9.4011989E+001
 20
2.1124502E+002
 70
0
  0
VERTEX
  8
2D_KATALOG-MITTEL
 42
0.0
 10
9.4406109E+001
 20
2.1124502E+002
 70
0
  0
SEQEND
  0
POLYLINE
  8
2D_KATALOG-MITTEL
  6
CONTINUOUS
 62
230
 66
1
 40
5.0E-001
 41
5.0E-001
 70
0
  0
VERTEX
  8
2D_KATALOG-MITTEL
 42
0.0
 10
9.1611989E+001
 20
2.0864502E+002
 70
0
  0
VERTEX
  8
2D_KATALOG-MITTEL
 42
0.0
 10
9.1611989E+001
 20
2.0890466E+002
 70
0
  0
SEQEND
  0
POLYLINE
  8
2D_KATALOG-MITTEL
  6
CONTINUOUS
 62
230
 66
1
 40
5.0E-001
 41
5.0E-001
 70
0
  0
VERTEX
  8
2D_KATALOG-MITTEL
 42
0.0
 10
7.9611989E+001
 20
2.0144502E+002
 70
0
  0
VERTEX
  8
2D_KATALOG-MITTEL
 42
0.0
 10
7.4811989E+001
 20
2.0144502E+002
 70
0
  0
SEQEND
  0
POLYLINE
  8
2D_KATALOG-MITTEL
  6
CONTINUOUS
 62
230
 66
1
 40
5.0E-001
 41
5.0E-001
 70
0
  0
VERTEX
  8
2D_KATALOG-MITTEL
 42
0.0
 10
7.4811989E+001
 20
2.0144502E+002
 70
0
  0
VERTEX
  8
2D_KATALOG-MITTEL
 42
0.0
 10
7.4811989E+001
 20
1.3784502E+002
 70
0
  0
SEQEND
  0
POLYLINE
  8
2D_KATALOG-MITTEL
  6
CONTINUOUS
 62
230
 66
1
 40
5.0E-001
 41
5.0E-001
 70
0
  0
VERTEX
  8
2D_KATALOG-MITTEL
 42
0.0
 10
7.4811989E+001
 20
1.3784502E+002
 70
0
  0
VERTEX
  8
2D_KATALOG-MITTEL
 42
0.0
 10
7.5273869E+001
 20
1.3704502E+002
 70
0
  0
SEQEND
  0
POLYLINE
  8
2D_KATALOG-MITTEL
  6
CONTINUOUS
 62
230
 66
1
 40
5.0E-001
 41
5.0E-001
 70
0
  0
VERTEX
  8
2D_KATALOG-MITTEL
 42
0.0
 10
7.5273869E+001
 20
1.3704502E+002
 70
0
  0
VERTEX
  8
2D_KATALOG-MITTEL
 42
0.0
 10
7.8011989E+001
 20
1.3704502E+002
 70
0
  0
SEQEND
  0
POLYLINE
  8
2D_KATALOG-MITTEL
  6
CONTINUOUS
 62
230
 66
1
 40
5.0E-001
 41
5.0E-001
 70
0
  0
VERTEX
  8
2D_KATALOG-MITTEL
 42
0.0
 10
8.3950109E+001
 20
1.3704502E+002
 70
0
  0
VERTEX
  8
2D_KATALOG-MITTEL
 42
0.0
 10
8.4411989E+001
 20
1.3784502E+002
 70
0
  0
SEQEND
  0
POLYLINE
  8
2D_KATALOG-MITTEL
  6
CONTINUOUS
 62
230
 66
1
 40
5.0E-001
 41
5.0E-001
 70
0
  0
VERTEX
  8
2D_KATALOG-MITTEL
 42
0.0
 10
8.4411989E+001
 20
1.3784502E+002
 70
0
  0
VERTEX
  8
2D_KATALOG-MITTEL
 42
0.0
 10
8.4411989E+001
 20
2.0144502E+002
 70
0
  0
SEQEND
  0
POLYLINE
  8
2D_KATALOG-MITTEL
  6
CONTINUOUS
 62
230
 66
1
 40
5.0E-001
 41
5.0E-001
 70
0
  0
VERTEX
  8
2D_KATALOG-MITTEL
 42
0.0
 10
8.4411989E+001
 20
2.0144502E+002
 70
0
  0
VERTEX
  8
2D_KATALOG-MITTEL
 42
0.0
 10
7.9611989E+001
 20
2.0144502E+002
 70
0
  0
SEQEND
  0
POLYLINE
  8
2D_KATALOG-MITTEL
  6
CONTINUOUS
 62
230
 66
1
 40
5.0E-001
 41
5.0E-001
 70
0
  0
VERTEX
  8
2D_KATALOG-MITTEL
 42
0.0
 10
7.4811989E+001
 20
1.3784502E+002
 70
0
  0
VERTEX
  8
2D_KATALOG-MITTEL
 42
0.0
 10
8.4411989E+001
 20
1.3784502E+002
 70
0
  0
SEQEND
  0
POLYLINE
  8
2D_KATALOG-MITTEL
  6
CONTINUOUS
 62
230
 66
1
 40
5.0E-001
 41
5.0E-001
 70
0
  0
VERTEX
  8
2D_KATALOG-MITTEL
 42
0.0
 10
7.9611989E+001
 20
2.0164502E+002
 70
0
  0
VERTEX
  8
2D_KATALOG-MITTEL
 42
0.0
 10
8.6211989E+001
 20
2.0164502E+002
 70
0
  0
SEQEND
  0
POLYLINE
  8
2D_KATALOG-MITTEL
  6
CONTINUOUS
 62
230
 66
1
 40
5.0E-001
 41
5.0E-001
 70
0
  0
VERTEX
  8
2D_KATALOG-MITTEL
 42
0.0
 10
8.6211989E+001
 20
2.0164502E+002
 70
0
  0
VERTEX
  8
2D_KATALOG-MITTEL
 42
0.0
 10
8.6211989E+001
 20
2.1404502E+002
 70
0
  0
SEQEND
  0
POLYLINE
  8
2D_KATALOG-MITTEL
  6
CONTINUOUS
 62
230
 66
1
 40
5.0E-001
 41
5.0E-001
 70
0
  0
VERTEX
  8
2D_KATALOG-MITTEL
 42
0.0
 10
8.6211989E+001
 20
2.1404502E+002
 70
0
  0
VERTEX
  8
2D_KATALOG-MITTEL
 42
0.0
 10
8.6011989E+001
 20
2.1424502E+002
 70
0
  0
SEQEND
  0
POLYLINE
  8
2D_KATALOG-MITTEL
  6
CONTINUOUS
 62
230
 66
1
 40
5.0E-001
 41
5.0E-001
 70
0
  0
VERTEX
  8
2D_KATALOG-MITTEL
 42
0.0
 10
8.6011989E+001
 20
2.1424502E+002
 70
0
  0
VERTEX
  8
2D_KATALOG-MITTEL
 42
0.0
 10
8.3611989E+001
 20
2.1424502E+002
 70
0
  0
SEQEND
  0
POLYLINE
  8
2D_KATALOG-MITTEL
  6
CONTINUOUS
 62
230
 66
1
 40
5.0E-001
 41
5.0E-001
 70
0
  0
VERTEX
  8
2D_KATALOG-MITTEL
 42
0.0
 10
7.3211989E+001
 20
2.1424502E+002
 70
0
  0
VERTEX
  8
2D_KATALOG-MITTEL
 42
0.0
 10
7.3011989E+001
 20
2.1404502E+002
 70
0
  0
SEQEND
  0
POLYLINE
  8
2D_KATALOG-MITTEL
  6
CONTINUOUS
 62
230
 66
1
 40
5.0E-001
 41
5.0E-001
 70
0
  0
VERTEX
  8
2D_KATALOG-MITTEL
 42
0.0
 10
7.3011989E+001
 20
2.1404502E+002
 70
0
  0
VERTEX
  8
2D_KATALOG-MITTEL
 42
0.0
 10
7.3011989E+001
 20
2.0164502E+002
 70
0
  0
SEQEND
  0
POLYLINE
  8
2D_KATALOG-MITTEL
  6
CONTINUOUS
 62
230
 66
1
 40
5.0E-001
 41
5.0E-001
 70
0
  0
VERTEX
  8
2D_KATALOG-MITTEL
 42
0.0
 10
7.3011989E+001
 20
2.0164502E+002
 70
0
  0
VERTEX
  8
2D_KATALOG-MITTEL
 42
0.0
 10
7.9611989E+001
 20
2.0164502E+002
 70
0
  0
SEQEND
  0
POLYLINE
  8
2D_KATALOG-MITTEL
  6
CONTINUOUS
 62
230
 66
1
 40
5.0E-001
 41
5.0E-001
 70
0
  0
VERTEX
  8
2D_KATALOG-MITTEL
 42
0.0
 10
8.6211989E+001
 20
2.1404502E+002
 70
0
  0
VERTEX
  8
2D_KATALOG-MITTEL
 42
0.0
 10
7.3011989E+001
 20
2.1404502E+002
 70
0
  0
SEQEND
  0
POLYLINE
  8
2D_KATALOG-MITTEL
  6
CONTINUOUS
 62
230
 66
1
 40
5.0E-001
 41
5.0E-001
 70
0
  0
VERTEX
  8
2D_KATALOG-MITTEL
 42
0.0
 10
7.3011989E+001
 20
2.0164502E+002
 70
0
  0
VERTEX
  8
2D_KATALOG-MITTEL
 42
0.0
 10
7.3211989E+001
 20
2.0144502E+002
 70
0
  0
SEQEND
  0
POLYLINE
  8
2D_KATALOG-MITTEL
  6
CONTINUOUS
 62
230
 66
1
 40
5.0E-001
 41
5.0E-001
 70
0
  0
VERTEX
  8
2D_KATALOG-MITTEL
 42
0.0
 10
7.3211989E+001
 20
2.0144502E+002
 70
0
  0
VERTEX
  8
2D_KATALOG-MITTEL
 42
0.0
 10
7.4811989E+001
 20
2.0144502E+002
 70
0
  0
SEQEND
  0
POLYLINE
  8
2D_KATALOG-MITTEL
  6
CONTINUOUS
 62
230
 66
1
 40
5.0E-001
 41
5.0E-001
 70
0
  0
VERTEX
  8
2D_KATALOG-MITTEL
 42
0.0
 10
8.4411989E+001
 20
2.0144502E+002
 70
0
  0
VERTEX
  8
2D_KATALOG-MITTEL
 42
0.0
 10
8.6011989E+001
 20
2.0144502E+002
 70
0
  0
SEQEND
  0
POLYLINE
  8
2D_KATALOG-MITTEL
  6
CONTINUOUS
 62
230
 66
1
 40
5.0E-001
 41
5.0E-001
 70
0
  0
VERTEX
  8
2D_KATALOG-MITTEL
 42
0.0
 10
8.6011989E+001
 20
2.0144502E+002
 70
0
  0
VERTEX
  8
2D_KATALOG-MITTEL
 42
0.0
 10
8.6211989E+001
 20
2.0164502E+002
 70
0
  0
SEQEND
  0
POLYLINE
  8
2D_KATALOG-MITTEL
  6
CONTINUOUS
 62
230
 66
1
 40
5.0E-001
 41
5.0E-001
 70
0
  0
VERTEX
  8
2D_KATALOG-MITTEL
 42
0.0
 10
7.8011989E+001
 20
1.3704502E+002
 70
0
  0
VERTEX
  8
2D_KATALOG-MITTEL
 42
0.0
 10
7.8011989E+001
 20
1.2264502E+002
 70
0
  0
SEQEND
  0
POLYLINE
  8
2D_KATALOG-MITTEL
  6
CONTINUOUS
 62
230
 66
1
 40
5.0E-001
 41
5.0E-001
 70
0
  0
VERTEX
  8
2D_KATALOG-MITTEL
 42
0.0
 10
8.1211989E+001
 20
1.2264502E+002
 70
0
  0
VERTEX
  8
2D_KATALOG-MITTEL
 42
0.0
 10
8.1211989E+001
 20
1.3704502E+002
 70
0
  0
SEQEND
  0
POLYLINE
  8
2D_KATALOG-MITTEL
  6
CONTINUOUS
 62
230
 66
1
 40
5.0E-001
 41
5.0E-001
 70
0
  0
VERTEX
  8
2D_KATALOG-MITTEL
 42
0.0
 10
7.8011989E+001
 20
1.3704502E+002
 70
0
  0
VERTEX
  8
2D_KATALOG-MITTEL
 42
0.0
 10
8.1211989E+001
 20
1.3704502E+002
 70
0
  0
SEQEND
  0
POLYLINE
  8
2D_KATALOG-MITTEL
  6
CONTINUOUS
 62
230
 66
1
 40
5.0E-001
 41
5.0E-001
 70
0
  0
VERTEX
  8
2D_KATALOG-MITTEL
 42
0.0
 10
8.1211989E+001
 20
1.3704502E+002
 70
0
  0
VERTEX
  8
2D_KATALOG-MITTEL
 42
0.0
 10
8.3950109E+001
 20
1.3704502E+002
 70
0
  0
SEQEND
  0
POLYLINE
  8
2D_KATALOG-MITTEL
  6
CONTINUOUS
 62
230
 66
1
 40
5.0E-001
 41
5.0E-001
 70
0
  0
VERTEX
  8
2D_KATALOG-MITTEL
 42
4.1421356E-001
 10
7.8011989E+001
 20
1.2264502E+002
 70
0
  0
VERTEX
  8
2D_KATALOG-MITTEL
 42
0.0
 10
7.9611989E+001
 20
1.2104502E+002
 70
0
  0
SEQEND
  0
POLYLINE
  8
2D_KATALOG-MITTEL
  6
CONTINUOUS
 62
230
 66
1
 40
5.0E-001
 41
5.0E-001
 70
0
  0
VERTEX
  8
2D_KATALOG-MITTEL
 42
4.1421356E-001
 10
7.9611989E+001
 20
1.2104502E+002
 70
0
  0
VERTEX
  8
2D_KATALOG-MITTEL
 42
0.0
 10
8.1211989E+001
 20
1.2264502E+002
 70
0
  0
SEQEND
  0
POLYLINE
  8
2D_KATALOG-MITTEL
  6
CONTINUOUS
 62
230
 66
1
 40
5.0E-001
 41
5.0E-001
 70
0
  0
VERTEX
  8
2D_KATALOG-MITTEL
 42
0.0
 10
8.3611989E+001
 20
2.1424502E+002
 70
0
  0
VERTEX
  8
2D_KATALOG-MITTEL
 42
0.0
 10
8.3611989E+001
 20
2.1584502E+002
 70
0
  0
SEQEND
  0
POLYLINE
  8
2D_KATALOG-MITTEL
  6
CONTINUOUS
 62
230
 66
1
 40
5.0E-001
 41
5.0E-001
 70
0
  0
VERTEX
  8
2D_KATALOG-MITTEL
 42
0.0
 10
8.3611989E+001
 20
2.1584502E+002
 70
0
  0
VERTEX
  8
2D_KATALOG-MITTEL
 42
0.0
 10
8.2919149E+001
 20
2.1704502E+002
 70
0
  0
SEQEND
  0
POLYLINE
  8
2D_KATALOG-MITTEL
  6
CONTINUOUS
 62
230
 66
1
 40
5.0E-001
 41
5.0E-001
 70
0
  0
VERTEX
  8
2D_KATALOG-MITTEL
 42
0.0
 10
8.2919149E+001
 20
2.1704502E+002
 70
0
  0
VERTEX
  8
2D_KATALOG-MITTEL
 42
0.0
 10
8.2011989E+001
 20
2.1704502E+002
 70
0
  0
SEQEND
  0
POLYLINE
  8
2D_KATALOG-MITTEL
  6
CONTINUOUS
 62
230
 66
1
 40
5.0E-001
 41
5.0E-001
 70
0
  0
VERTEX
  8
2D_KATALOG-MITTEL
 42
0.0
 10
7.6304829E+001
 20
2.1704502E+002
 70
0
  0
VERTEX
  8
2D_KATALOG-MITTEL
 42
0.0
 10
7.5611989E+001
 20
2.1584502E+002
 70
0
  0
SEQEND
  0
POLYLINE
  8
2D_KATALOG-MITTEL
  6
CONTINUOUS
 62
230
 66
1
 40
5.0E-001
 41
5.0E-001
 70
0
  0
VERTEX
  8
2D_KATALOG-MITTEL
 42
0.0
 10
7.5611989E+001
 20
2.1584502E+002
 70
0
  0
VERTEX
  8
2D_KATALOG-MITTEL
 42
0.0
 10
7.5611989E+001
 20
2.1424502E+002
 70
0
  0
SEQEND
  0
POLYLINE
  8
2D_KATALOG-MITTEL
  6
CONTINUOUS
 62
230
 66
1
 40
5.0E-001
 41
5.0E-001
 70
0
  0
VERTEX
  8
2D_KATALOG-MITTEL
 42
0.0
 10
8.3611989E+001
 20
2.1584502E+002
 70
0
  0
VERTEX
  8
2D_KATALOG-MITTEL
 42
0.0
 10
7.5611989E+001
 20
2.1584502E+002
 70
0
  0
SEQEND
  0
POLYLINE
  8
2D_KATALOG-MITTEL
  6
CONTINUOUS
 62
230
 66
1
 40
5.0E-001
 41
5.0E-001
 70
0
  0
VERTEX
  8
2D_KATALOG-MITTEL
 42
0.0
 10
8.3611989E+001
 20
2.1424502E+002
 70
0
  0
VERTEX
  8
2D_KATALOG-MITTEL
 42
0.0
 10
7.5611989E+001
 20
2.1424502E+002
 70
0
  0
SEQEND
  0
POLYLINE
  8
2D_KATALOG-MITTEL
  6
CONTINUOUS
 62
230
 66
1
 40
5.0E-001
 41
5.0E-001
 70
0
  0
VERTEX
  8
2D_KATALOG-MITTEL
 42
0.0
 10
7.5611989E+001
 20
2.1424502E+002
 70
0
  0
VERTEX
  8
2D_KATALOG-MITTEL
 42
0.0
 10
7.3211989E+001
 20
2.1424502E+002
 70
0
  0
SEQEND
  0
POLYLINE
  8
2D_KATALOG-MITTEL
  6
CONTINUOUS
 62
230
 66
1
 40
5.0E-001
 41
5.0E-001
 70
0
  0
VERTEX
  8
2D_KATALOG-MITTEL
 42
0.0
 10
8.2011989E+001
 20
2.1864502E+002
 70
0
  0
VERTEX
  8
2D_KATALOG-MITTEL
 42
0.0
 10
8.2011989E+001
 20
2.1924502E+002
 70
0
  0
SEQEND
  0
POLYLINE
  8
2D_KATALOG-MITTEL
  6
CONTINUOUS
 62
230
 66
1
 40
5.0E-001
 41
5.0E-001
 70
0
  0
VERTEX
  8
2D_KATALOG-MITTEL
 42
0.0
 10
8.2011989E+001
 20
2.1924502E+002
 70
0
  0
VERTEX
  8
2D_KATALOG-MITTEL
 42
0.0
 10
8.1011989E+001
 20
2.1924502E+002
 70
0
  0
SEQEND
  0
POLYLINE
  8
2D_KATALOG-MITTEL
  6
CONTINUOUS
 62
230
 66
1
 40
5.0E-001
 41
5.0E-001
 70
0
  0
VERTEX
  8
2D_KATALOG-MITTEL
 42
0.0
 10
7.7211989E+001
 20
2.1924502E+002
 70
0
  0
VERTEX
  8
2D_KATALOG-MITTEL
 42
0.0
 10
7.7211989E+001
 20
2.1864502E+002
 70
0
  0
SEQEND
  0
POLYLINE
  8
2D_KATALOG-MITTEL
  6
CONTINUOUS
 62
230
 66
1
 40
5.0E-001
 41
5.0E-001
 70
0
  0
VERTEX
  8
2D_KATALOG-MITTEL
 42
0.0
 10
7.7211989E+001
 20
2.1704502E+002
 70
0
  0
VERTEX
  8
2D_KATALOG-MITTEL
 42
0.0
 10
7.6304829E+001
 20
2.1704502E+002
 70
0
  0
SEQEND
  0
POLYLINE
  8
2D_KATALOG-MITTEL
  6
CONTINUOUS
 62
230
 66
1
 40
5.0E-001
 41
5.0E-001
 70
0
  0
VERTEX
  8
2D_KATALOG-MITTEL
 42
0.0
 10
8.1011989E+001
 20
2.1924502E+002
 70
0
  0
VERTEX
  8
2D_KATALOG-MITTEL
 42
0.0
 10
8.1011989E+001
 20
2.2864502E+002
 70
0
  0
SEQEND
  0
POLYLINE
  8
2D_KATALOG-MITTEL
  6
CONTINUOUS
 62
230
 66
1
 40
5.0E-001
 41
5.0E-001
 70
0
  0
VERTEX
  8
2D_KATALOG-MITTEL
 42
0.0
 10
8.1011989E+001
 20
2.2864502E+002
 70
0
  0
VERTEX
  8
2D_KATALOG-MITTEL
 42
0.0
 10
7.8211989E+001
 20
2.2864502E+002
 70
0
  0
SEQEND
  0
POLYLINE
  8
2D_KATALOG-MITTEL
  6
CONTINUOUS
 62
230
 66
1
 40
5.0E-001
 41
5.0E-001
 70
0
  0
VERTEX
  8
2D_KATALOG-MITTEL
 42
0.0
 10
7.8211989E+001
 20
2.2864502E+002
 70
0
  0
VERTEX
  8
2D_KATALOG-MITTEL
 42
0.0
 10
7.8211989E+001
 20
2.1924502E+002
 70
0
  0
SEQEND
  0
POLYLINE
  8
2D_KATALOG-MITTEL
  6
CONTINUOUS
 62
230
 66
1
 40
5.0E-001
 41
5.0E-001
 70
0
  0
VERTEX
  8
2D_KATALOG-MITTEL
 42
0.0
 10
7.8211989E+001
 20
2.1924502E+002
 70
0
  0
VERTEX
  8
2D_KATALOG-MITTEL
 42
0.0
 10
7.7211989E+001
 20
2.1924502E+002
 70
0
  0
SEQEND
  0
POLYLINE
  8
2D_KATALOG-MITTEL
  6
CONTINUOUS
 62
230
 66
1
 40
5.0E-001
 41
5.0E-001
 70
0
  0
VERTEX
  8
2D_KATALOG-MITTEL
 42
0.0
 10
7.8211989E+001
 20
2.2784502E+002
 70
0
  0
VERTEX
  8
2D_KATALOG-MITTEL
 42
0.0
 10
8.1011989E+001
 20
2.2784502E+002
 70
0
  0
SEQEND
  0
LINE
  8
LAYER1
  6
CONTINUOUS
 62
3
 10
7.8411989E+001
 20
1.3460042E+002
 11
8.0811989E+001
 21
1.3460042E+002
  0
POLYLINE
  8
2D_KATALOG-MITTEL
  6
CONTINUOUS
 62
230
 66
1
 40
5.0E-001
 41
5.0E-001
 70
0
  0
VERTEX
  8
2D_KATALOG-MITTEL
 42
0.0
 10
7.7211989E+001
 20
2.1704502E+002
 70
0
  0
VERTEX
  8
2D_KATALOG-MITTEL
 42
0.0
 10
7.7711989E+001
 20
2.1704502E+002
 70
0
  0
SEQEND
  0
POLYLINE
  8
2D_KATALOG-MITTEL
  6
CONTINUOUS
 62
230
 66
1
 40
5.0E-001
 41
5.0E-001
 70
0
  0
VERTEX
  8
2D_KATALOG-MITTEL
 42
0.0
 10
8.2011989E+001
 20
2.1864502E+002
 70
0
  0
VERTEX
  8
2D_KATALOG-MITTEL
 42
0.0
 10
8.1711989E+001
 20
2.1864502E+002
 70
0
  0
SEQEND
  0
POLYLINE
  8
2D_KATALOG-MITTEL
  6
CONTINUOUS
 62
230
 66
1
 40
5.0E-001
 41
5.0E-001
 70
0
  0
VERTEX
  8
2D_KATALOG-MITTEL
 42
0.0
 10
8.1511989E+001
 20
2.1704502E+002
 70
0
  0
VERTEX
  8
2D_KATALOG-MITTEL
 42
0.0
 10
8.1511989E+001
 20
2.1844502E+002
 70
0
  0
SEQEND
  0
POLYLINE
  8
2D_KATALOG-MITTEL
  6
CONTINUOUS
 62
230
 66
1
 40
5.0E-001
 41
5.0E-001
 70
0
  0
VERTEX
  8
2D_KATALOG-MITTEL
 42
0.0
 10
7.7711989E+001
 20
2.1844502E+002
 70
0
  0
VERTEX
  8
2D_KATALOG-MITTEL
 42
0.0
 10
7.7711989E+001
 20
2.1704502E+002
 70
0
  0
SEQEND
  0
POLYLINE
  8
2D_KATALOG-MITTEL
  6
CONTINUOUS
 62
230
 66
1
 40
5.0E-001
 41
5.0E-001
 70
0
  0
VERTEX
  8
2D_KATALOG-MITTEL
 42
0.0
 10
7.7711989E+001
 20
2.1704502E+002
 70
0
  0
VERTEX
  8
2D_KATALOG-MITTEL
 42
0.0
 10
8.1511989E+001
 20
2.1704502E+002
 70
0
  0
SEQEND
  0
POLYLINE
  8
2D_KATALOG-MITTEL
  6
CONTINUOUS
 62
230
 66
1
 40
5.0E-001
 41
5.0E-001
 70
0
  0
VERTEX
  8
2D_KATALOG-MITTEL
 42
0.0
 10
8.1511989E+001
 20
2.1704502E+002
 70
0
  0
VERTEX
  8
2D_KATALOG-MITTEL
 42
0.0
 10
8.2011989E+001
 20
2.1704502E+002
 70
0
  0
SEQEND
  0
POLYLINE
  8
2D_KATALOG-MITTEL
  6
CONTINUOUS
 62
230
 66
1
 40
5.0E-001
 41
5.0E-001
 70
0
  0
VERTEX
  8
2D_KATALOG-MITTEL
 42
0.0
 10
8.1711989E+001
 20
2.1864502E+002
 70
0
  0
VERTEX
  8
2D_KATALOG-MITTEL
 42
0.0
 10
7.7511989E+001
 20
2.1864502E+002
 70
0
  0
SEQEND
  0
POLYLINE
  8
2D_KATALOG-MITTEL
  6
CONTINUOUS
 62
230
 66
1
 40
5.0E-001
 41
5.0E-001
 70
0
  0
VERTEX
  8
2D_KATALOG-MITTEL
 42
0.0
 10
7.7511989E+001
 20
2.1864502E+002
 70
0
  0
VERTEX
  8
2D_KATALOG-MITTEL
 42
0.0
 10
7.7211989E+001
 20
2.1864502E+002
 70
0
  0
SEQEND
  0
POLYLINE
  8
2D_KATALOG-MITTEL
  6
CONTINUOUS
 62
230
 66
1
 40
5.0E-001
 41
5.0E-001
 70
0
  0
VERTEX
  8
2D_KATALOG-MITTEL
 42
4.1421356E-001
 10
7.7711989E+001
 20
2.1844502E+002
 70
0
  0
VERTEX
  8
2D_KATALOG-MITTEL
 42
0.0
 10
7.7511989E+001
 20
2.1864502E+002
 70
0
  0
SEQEND
  0
POLYLINE
  8
2D_KATALOG-MITTEL
  6
CONTINUOUS
 62
230
 66
1
 40
5.0E-001
 41
5.0E-001
 70
0
  0
VERTEX
  8
2D_KATALOG-MITTEL
 42
4.1421356E-001
 10
8.1711989E+001
 20
2.1864502E+002
 70
0
  0
VERTEX
  8
2D_KATALOG-MITTEL
 42
0.0
 10
8.1511989E+001
 20
2.1844502E+002
 70
0
  0
SEQEND
  0
POLYLINE
  8
2D_KATALOG-MITTEL
  6
CONTINUOUS
 62
230
 66
1
 40
5.0E-001
 41
5.0E-001
 70
0
  0
VERTEX
  8
2D_KATALOG-MITTEL
 42
0.0
 10
1.0227217E+002
 20
1.9644502E+002
 70
0
  0
VERTEX
  8
2D_KATALOG-MITTEL
 42
0.0
 10
1.0227217E+002
 20
2.1244502E+002
 70
0
  0
SEQEND
  0
POLYLINE
  8
2D_KATALOG-MITTEL
  6
CONTINUOUS
 62
230
 66
1
 40
5.0E-001
 41
5.0E-001
 70
0
  0
VERTEX
  8
2D_KATALOG-MITTEL
 42
0.0
 10
1.0227217E+002
 20
2.1244502E+002
 70
0
  0
VERTEX
  8
2D_KATALOG-MITTEL
 42
0.0
 10
1.0427217E+002
 20
2.1244502E+002
 70
0
  0
SEQEND
  0
POLYLINE
  8
2D_KATALOG-MITTEL
  6
CONTINUOUS
 62
230
 66
1
 40
5.0E-001
 41
5.0E-001
 70
0
  0
VERTEX
  8
2D_KATALOG-MITTEL
 42
0.0
 10
1.0427217E+002
 20
2.0844502E+002
 70
0
  0
VERTEX
  8
2D_KATALOG-MITTEL
 42
0.0
 10
1.0427217E+002
 20
1.9644502E+002
 70
0
  0
SEQEND
  0
POLYLINE
  8
2D_KATALOG-MITTEL
  6
CONTINUOUS
 62
230
 66
1
 40
5.0E-001
 41
5.0E-001
 70
0
  0
VERTEX
  8
2D_KATALOG-MITTEL
 42
0.0
 10
1.0427217E+002
 20
1.9644502E+002
 70
0
  0
VERTEX
  8
2D_KATALOG-MITTEL
 42
0.0
 10
1.0227217E+002
 20
1.9644502E+002
 70
0
  0
SEQEND
  0
POLYLINE
  8
2D_KATALOG-MITTEL
  6
CONTINUOUS
 62
230
 66
1
 40
5.0E-001
 41
5.0E-001
 70
0
  0
VERTEX
  8
2D_KATALOG-MITTEL
 42
0.0
 10
1.0427217E+002
 20
2.1244502E+002
 70
0
  0
VERTEX
  8
2D_KATALOG-MITTEL
 42
0.0
 10
1.1765685E+002
 20
2.1244502E+002
 70
0
  0
SEQEND
  0
POLYLINE
  8
2D_KATALOG-MITTEL
  6
CONTINUOUS
 62
230
 66
1
 40
5.0E-001
 41
5.0E-001
 70
0
  0
VERTEX
  8
2D_KATALOG-MITTEL
 42
0.0
 10
1.1765685E+002
 20
2.1044502E+002
 70
0
  0
VERTEX
  8
2D_KATALOG-MITTEL
 42
0.0
 10
1.0627217E+002
 20
2.1044502E+002
 70
0
  0
SEQEND
  0
POLYLINE
  8
2D_KATALOG-MITTEL
  6
CONTINUOUS
 62
230
 66
1
 40
5.0E-001
 41
5.0E-001
 70
0
  0
VERTEX
  8
2D_KATALOG-MITTEL
 42
4.1421356E-001
 10
1.0627217E+002
 20
2.1044502E+002
 70
0
  0
VERTEX
  8
2D_KATALOG-MITTEL
 42
0.0
 10
1.0427217E+002
 20
2.0844502E+002
 70
0
  0
SEQEND
  0
POLYLINE
  8
2D_KATALOG-MITTEL
  6
CONTINUOUS
 62
230
 66
1
 40
5.0E-001
 41
5.0E-001
 70
0
  0
VERTEX
  8
2D_KATALOG-MITTEL
 42
1.9021983
 10
1.1765685E+002
 20
2.1044502E+002
 70
0
  0
VERTEX
  8
2D_KATALOG-MITTEL
 42
0.0
 10
1.2027217E+002
 20
2.14245E+002
 70
0
  0
SEQEND
  0
POLYLINE
  8
2D_KATALOG-MITTEL
  6
CONTINUOUS
 62
230
 66
1
 40
5.0E-001
 41
5.0E-001
 70
0
  0
VERTEX
  8
2D_KATALOG-MITTEL
 42
3.1086722E-001
 10
1.2027217E+002
 20
2.1424502E+002
 70
0
  0
VERTEX
  8
2D_KATALOG-MITTEL
 42
0.0
 10
1.1765684E+002
 20
2.1244503E+002
 70
0
  0
SEQEND
  0
POLYLINE
  8
2D_KATALOG-MITTEL
  6
CONTINUOUS
 62
230
 66
1
 40
5.0E-001
 41
5.0E-001
 70
0
  0
VERTEX
  8
2D_KATALOG-MITTEL
 42
1.0
 10
1.2187217E+002
 20
2.1144502E+002
 70
0
  0
VERTEX
  8
2D_KATALOG-MITTEL
 42
1.0
 10
1.1867217E+002
 20
2.1144502E+002
 70
0
  0
VERTEX
  8
2D_KATALOG-MITTEL
 42
0.0
 10
1.2187217E+002
 20
2.1144502E+002
 70
0
  0
SEQEND
  0
ARC
  8
LAYER1
  6
CONTINUOUS
 62
3
 10
1.2027217E+002
 20
2.1144502E+002
 40
1.2932
 50
1.6858059E+002
 51
2.1610321E+002
  0
POLYLINE
  8
2D_KATALOG-MITTEL
  6
CONTINUOUS
 62
230
 66
1
 40
5.0E-001
 41
5.0E-001
 70
0
  0
VERTEX
  8
2D_KATALOG-MITTEL
 42
0.0
 10
1.2247217E+002
 20
2.1017486E+002
 70
0
  0
VERTEX
  8
2D_KATALOG-MITTEL
 42
0.0
 10
1.2247217E+002
 20
2.1271518E+002
 70
0
  0
SEQEND
  0
POLYLINE
  8
2D_KATALOG-MITTEL
  6
CONTINUOUS
 62
230
 66
1
 40
5.0E-001
 41
5.0E-001
 70
0
  0
VERTEX
  8
2D_KATALOG-MITTEL
 42
0.0
 10
1.2247217E+002
 20
2.1271518E+002
 70
0
  0
VERTEX
  8
2D_KATALOG-MITTEL
 42
0.0
 10
1.2027217E+002
 20
2.1398538E+002
 70
0
  0
SEQEND
  0
POLYLINE
  8
2D_KATALOG-MITTEL
  6
CONTINUOUS
 62
230
 66
1
 40
5.0E-001
 41
5.0E-001
 70
0
  0
VERTEX
  8
2D_KATALOG-MITTEL
 42
0.0
 10
1.2027217E+002
 20
2.1398538E+002
 70
0
  0
VERTEX
  8
2D_KATALOG-MITTEL
 42
0.0
 10
1.1807217E+002
 20
2.1271518E+002
 70
0
  0
SEQEND
  0
POLYLINE
  8
2D_KATALOG-MITTEL
  6
CONTINUOUS
 62
230
 66
1
 40
5.0E-001
 41
5.0E-001
 70
0
  0
VERTEX
  8
2D_KATALOG-MITTEL
 42
0.0
 10
1.1807217E+002
 20
2.1271518E+002
 70
0
  0
VERTEX
  8
2D_KATALOG-MITTEL
 42
0.0
 10
1.1807217E+002
 20
2.1017486E+002
 70
0
  0
SEQEND
  0
POLYLINE
  8
2D_KATALOG-MITTEL
  6
CONTINUOUS
 62
230
 66
1
 40
5.0E-001
 41
5.0E-001
 70
0
  0
VERTEX
  8
2D_KATALOG-MITTEL
 42
0.0
 10
1.1807217E+002
 20
2.1017486E+002
 70
0
  0
VERTEX
  8
2D_KATALOG-MITTEL
 42
0.0
 10
1.2027217E+002
 20
2.0890466E+002
 70
0
  0
SEQEND
  0
POLYLINE
  8
2D_KATALOG-MITTEL
  6
CONTINUOUS
 62
230
 66
1
 40
5.0E-001
 41
5.0E-001
 70
0
  0
VERTEX
  8
2D_KATALOG-MITTEL
 42
0.0
 10
1.2027217E+002
 20
2.0890466E+002
 70
0
  0
VERTEX
  8
2D_KATALOG-MITTEL
 42
0.0
 10
1.2247217E+002
 20
2.1017486E+002
 70
0
  0
SEQEND
  0
POLYLINE
  8
2D_KATALOG-MITTEL
  6
CONTINUOUS
 62
230
 66
1
 40
5.0E-001
 41
5.0E-001
 70
0
  0
VERTEX
  8
2D_KATALOG-MITTEL
 42
1.0
 10
1.2242625E+002
 20
2.1144502E+002
 70
0
  0
VERTEX
  8
2D_KATALOG-MITTEL
 42
1.0
 10
1.1811809E+002
 20
2.1144502E+002
 70
0
  0
VERTEX
  8
2D_KATALOG-MITTEL
 42
0.0
 10
1.2242625E+002
 20
2.1144502E+002
 70
0
  0
SEQEND
  0
POLYLINE
  8
2D_KATALOG-MITTEL
  6
CONTINUOUS
 62
230
 66
1
 40
5.0E-001
 41
5.0E-001
 70
0
  0
VERTEX
  8
2D_KATALOG-MITTEL
 42
0.0
 10
1.1900825E+002
 20
2.1046394E+002
 70
0
  0
VERTEX
  8
2D_KATALOG-MITTEL
 42
0.0
 10
1.2125325E+002
 20
2.1270894E+002
 70
0
  0
SEQEND
  0
POLYLINE
  8
2D_KATALOG-MITTEL
  6
CONTINUOUS
 62
230
 66
1
 40
5.0E-001
 41
5.0E-001
 70
0
  0
VERTEX
  8
2D_KATALOG-MITTEL
 42
0.0
 10
1.1929109E+002
 20
2.101811E+002
 70
0
  0
VERTEX
  8
2D_KATALOG-MITTEL
 42
0.0
 10
1.2153609E+002
 20
2.124261E+002
 70
0
  0
SEQEND
  0
ARC
  8
LAYER1
  6
CONTINUOUS
 62
3
 10
1.2027217E+002
 20
2.1144502E+002
 40
1.2932065
 50
5.4133932E+001
 51
7.8580586E+001
  0
ARC
  8
LAYER1
  6
CONTINUOUS
 62
3
 10
1.2027217E+002
 20
2.1144502E+002
 40
1.2931878
 50
2.3389679E+002
 51
3.9586607E+002
  0
POLYLINE
  8
2D_KATALOG-MITTEL
  6
CONTINUOUS
 62
230
 66
1
 40
5.0E-001
 41
5.0E-001
 70
0
  0
VERTEX
  8
2D_KATALOG-MITTEL
 42
0.0
 10
1.2027217E+002
 20
2.0164502E+002
 70
0
  0
VERTEX
  8
2D_KATALOG-MITTEL
 42
0.0
 10
1.2687217E+002
 20
2.0164502E+002
 70
0
  0
SEQEND
  0
POLYLINE
  8
2D_KATALOG-MITTEL
  6
CONTINUOUS
 62
230
 66
1
 40
5.0E-001
 41
5.0E-001
 70
0
  0
VERTEX
  8
2D_KATALOG-MITTEL
 42
0.0
 10
1.2687217E+002
 20
2.0164502E+002
 70
0
  0
VERTEX
  8
2D_KATALOG-MITTEL
 42
0.0
 10
1.2687217E+002
 20
2.1404502E+002
 70
0
  0
SEQEND
  0
POLYLINE
  8
2D_KATALOG-MITTEL
  6
CONTINUOUS
 62
230
 66
1
 40
5.0E-001
 41
5.0E-001
 70
0
  0
VERTEX
  8
2D_KATALOG-MITTEL
 42
0.0
 10
1.2687217E+002
 20
2.1404502E+002
 70
0
  0
VERTEX
  8
2D_KATALOG-MITTEL
 42
0.0
 10
1.2667217E+002
 20
2.1424502E+002
 70
0
  0
SEQEND
  0
POLYLINE
  8
2D_KATALOG-MITTEL
  6
CONTINUOUS
 62
230
 66
1
 40
5.0E-001
 41
5.0E-001
 70
0
  0
VERTEX
  8
2D_KATALOG-MITTEL
 42
0.0
 10
1.2667217E+002
 20
2.1424502E+002
 70
0
  0
VERTEX
  8
2D_KATALOG-MITTEL
 42
0.0
 10
1.2427217E+002
 20
2.1424502E+002
 70
0
  0
SEQEND
  0
POLYLINE
  8
2D_KATALOG-MITTEL
  6
CONTINUOUS
 62
230
 66
1
 40
5.0E-001
 41
5.0E-001
 70
0
  0
VERTEX
  8
2D_KATALOG-MITTEL
 42
0.0
 10
1.1367217E+002
 20
2.1404502E+002
 70
0
  0
VERTEX
  8
2D_KATALOG-MITTEL
 42
0.0
 10
1.1387217E+002
 20
2.1424502E+002
 70
0
  0
SEQEND
  0
POLYLINE
  8
2D_KATALOG-MITTEL
  6
CONTINUOUS
 62
230
 66
1
 40
5.0E-001
 41
5.0E-001
 70
0
  0
VERTEX
  8
2D_KATALOG-MITTEL
 42
0.0
 10
1.1367217E+002
 20
2.0164502E+002
 70
0
  0
VERTEX
  8
2D_KATALOG-MITTEL
 42
0.0
 10
1.1367217E+002
 20
2.1044502E+002
 70
0
  0
SEQEND
  0
POLYLINE
  8
2D_KATALOG-MITTEL
  6
CONTINUOUS
 62
230
 66
1
 40
5.0E-001
 41
5.0E-001
 70
0
  0
VERTEX
  8
2D_KATALOG-MITTEL
 42
0.0
 10
1.1367217E+002
 20
2.1244502E+002
 70
0
  0
VERTEX
  8
2D_KATALOG-MITTEL
 42
0.0
 10
1.1367217E+002
 20
2.1404502E+002
 70
0
  0
SEQEND
  0
POLYLINE
  8
2D_KATALOG-MITTEL
  6
CONTINUOUS
 62
230
 66
1
 40
5.0E-001
 41
5.0E-001
 70
0
  0
VERTEX
  8
2D_KATALOG-MITTEL
 42
0.0
 10
1.1367217E+002
 20
2.0164502E+002
 70
0
  0
VERTEX
  8
2D_KATALOG-MITTEL
 42
0.0
 10
1.2027217E+002
 20
2.0164502E+002
 70
0
  0
SEQEND
  0
POLYLINE
  8
2D_KATALOG-MITTEL
  6
CONTINUOUS
 62
230
 66
1
 40
5.0E-001
 41
5.0E-001
 70
0
  0
VERTEX
  8
2D_KATALOG-MITTEL
 42
0.0
 10
1.1367217E+002
 20
2.1404502E+002
 70
0
  0
VERTEX
  8
2D_KATALOG-MITTEL
 42
0.0
 10
1.1923293E+002
 20
2.1404502E+002
 70
0
  0
SEQEND
  0
POLYLINE
  8
2D_KATALOG-MITTEL
  6
CONTINUOUS
 62
230
 66
1
 40
5.0E-001
 41
5.0E-001
 70
0
  0
VERTEX
  8
2D_KATALOG-MITTEL
 42
0.0
 10
1.2131141E+002
 20
2.1404502E+002
 70
0
  0
VERTEX
  8
2D_KATALOG-MITTEL
 42
0.0
 10
1.2687217E+002
 20
2.1404502E+002
 70
0
  0
SEQEND
  0
POLYLINE
  8
2D_KATALOG-MITTEL
  6
CONTINUOUS
 62
230
 66
1
 40
5.0E-001
 41
5.0E-001
 70
0
  0
VERTEX
  8
2D_KATALOG-MITTEL
 42
0.0
 10
1.1367217E+002
 20
2.0164502E+002
 70
0
  0
VERTEX
  8
2D_KATALOG-MITTEL
 42
0.0
 10
1.1387217E+002
 20
2.0144502E+002
 70
0
  0
SEQEND
  0
POLYLINE
  8
2D_KATALOG-MITTEL
  6
CONTINUOUS
 62
230
 66
1
 40
5.0E-001
 41
5.0E-001
 70
0
  0
VERTEX
  8
2D_KATALOG-MITTEL
 42
0.0
 10
1.1387217E+002
 20
2.0144502E+002
 70
0
  0
VERTEX
  8
2D_KATALOG-MITTEL
 42
0.0
 10
1.1547217E+002
 20
2.0144502E+002
 70
0
  0
SEQEND
  0
POLYLINE
  8
2D_KATALOG-MITTEL
  6
CONTINUOUS
 62
230
 66
1
 40
5.0E-001
 41
5.0E-001
 70
0
  0
VERTEX
  8
2D_KATALOG-MITTEL
 42
0.0
 10
1.2667217E+002
 20
2.0144502E+002
 70
0
  0
VERTEX
  8
2D_KATALOG-MITTEL
 42
0.0
 10
1.2687217E+002
 20
2.0164502E+002
 70
0
  0
SEQEND
  0
POLYLINE
  8
2D_KATALOG-MITTEL
  6
CONTINUOUS
 62
230
 66
1
 40
5.0E-001
 41
5.0E-001
 70
0
  0
VERTEX
  8
2D_KATALOG-MITTEL
 42
0.0
 10
1.1547217E+002
 20
1.3784502E+002
 70
0
  0
VERTEX
  8
2D_KATALOG-MITTEL
 42
0.0
 10
1.1547217E+002
 20
2.0144502E+002
 70
0
  0
SEQEND
  0
POLYLINE
  8
2D_KATALOG-MITTEL
  6
CONTINUOUS
 62
230
 66
1
 40
5.0E-001
 41
5.0E-001
 70
0
  0
VERTEX
  8
2D_KATALOG-MITTEL
 42
0.0
 10
1.1547217E+002
 20
1.3784502E+002
 70
0
  0
VERTEX
  8
2D_KATALOG-MITTEL
 42
0.0
 10
1.1593405E+002
 20
1.3704502E+002
 70
0
  0
SEQEND
  0
POLYLINE
  8
2D_KATALOG-MITTEL
  6
CONTINUOUS
 62
230
 66
1
 40
5.0E-001
 41
5.0E-001
 70
0
  0
VERTEX
  8
2D_KATALOG-MITTEL
 42
0.0
 10
1.1597085E+002
 20
1.3704502E+002
 70
0
  0
VERTEX
  8
2D_KATALOG-MITTEL
 42
0.0
 10
1.1987217E+002
 20
1.3704502E+002
 70
0
  0
SEQEND
  0
POLYLINE
  8
2D_KATALOG-MITTEL
  6
CONTINUOUS
 62
230
 66
1
 40
5.0E-001
 41
5.0E-001
 70
0
  0
VERTEX
  8
2D_KATALOG-MITTEL
 42
0.0
 10
1.2461029E+002
 20
1.3704502E+002
 70
0
  0
VERTEX
  8
2D_KATALOG-MITTEL
 42
0.0
 10
1.2507217E+002
 20
1.3784502E+002
 70
0
  0
SEQEND
  0
POLYLINE
  8
2D_KATALOG-MITTEL
  6
CONTINUOUS
 62
230
 66
1
 40
5.0E-001
 41
5.0E-001
 70
0
  0
VERTEX
  8
2D_KATALOG-MITTEL
 42
0.0
 10
1.2507217E+002
 20
1.3784502E+002
 70
0
  0
VERTEX
  8
2D_KATALOG-MITTEL
 42
0.0
 10
1.2507217E+002
 20
2.0144502E+002
 70
0
  0
SEQEND
  0
POLYLINE
  8
2D_KATALOG-MITTEL
  6
CONTINUOUS
 62
230
 66
1
 40
5.0E-001
 41
5.0E-001
 70
0
  0
VERTEX
  8
2D_KATALOG-MITTEL
 42
0.0
 10
1.1547217E+002
 20
1.3784502E+002
 70
0
  0
VERTEX
  8
2D_KATALOG-MITTEL
 42
0.0
 10
1.2507217E+002
 20
1.3784502E+002
 70
0
  0
SEQEND
  0
POLYLINE
  8
2D_KATALOG-MITTEL
  6
CONTINUOUS
 62
230
 66
1
 40
5.0E-001
 41
5.0E-001
 70
0
  0
VERTEX
  8
2D_KATALOG-MITTEL
 42
0.0
 10
1.1547217E+002
 20
2.0144502E+002
 70
0
  0
VERTEX
  8
2D_KATALOG-MITTEL
 42
0.0
 10
1.2507217E+002
 20
2.0144502E+002
 70
0
  0
SEQEND
  0
POLYLINE
  8
2D_KATALOG-MITTEL
  6
CONTINUOUS
 62
230
 66
1
 40
5.0E-001
 41
5.0E-001
 70
0
  0
VERTEX
  8
2D_KATALOG-MITTEL
 42
0.0
 10
1.2507217E+002
 20
2.0144502E+002
 70
0
  0
VERTEX
  8
2D_KATALOG-MITTEL
 42
0.0
 10
1.2667217E+002
 20
2.0144502E+002
 70
0
  0
SEQEND
  0
POLYLINE
  8
2D_KATALOG-MITTEL
  6
CONTINUOUS
 62
230
 66
1
 40
5.0E-001
 41
5.0E-001
 70
0
  0
VERTEX
  8
2D_KATALOG-MITTEL
 42
0.0
 10
1.1507217E+002
 20
1.3460042E+002
 70
0
  0
VERTEX
  8
2D_KATALOG-MITTEL
 42
0.0
 10
1.1507217E+002
 20
1.2624502E+002
 70
0
  0
SEQEND
  0
POLYLINE
  8
2D_KATALOG-MITTEL
  6
CONTINUOUS
 62
230
 66
1
 40
5.0E-001
 41
5.0E-001
 70
0
  0
VERTEX
  8
2D_KATALOG-MITTEL
 42
0.0
 10
1.2547217E+002
 20
1.2624502E+002
 70
0
  0
VERTEX
  8
2D_KATALOG-MITTEL
 42
0.0
 10
1.2547217E+002
 20
1.3460042E+002
 70
0
  0
SEQEND
  0
POLYLINE
  8
2D_KATALOG-MITTEL
  6
CONTINUOUS
 62
230
 66
1
 40
5.0E-001
 41
5.0E-001
 70
0
  0
VERTEX
  8
2D_KATALOG-MITTEL
 42
4.1421356E-001
 10
1.1507217E+002
 20
1.2624502E+002
 70
0
  0
VERTEX
  8
2D_KATALOG-MITTEL
 42
0.0
 10
1.2027217E+002
 20
1.2104502E+002
 70
0
  0
SEQEND
  0
POLYLINE
  8
2D_KATALOG-MITTEL
  6
CONTINUOUS
 62
230
 66
1
 40
5.0E-001
 41
5.0E-001
 70
0
  0
VERTEX
  8
2D_KATALOG-MITTEL
 42
4.1421356E-001
 10
1.2027217E+002
 20
1.2104502E+002
 70
0
  0
VERTEX
  8
2D_KATALOG-MITTEL
 42
0.0
 10
1.2547217E+002
 20
1.2624502E+002
 70
0
  0
SEQEND
  0
POLYLINE
  8
2D_KATALOG-MITTEL
  6
CONTINUOUS
 62
230
 66
1
 40
5.0E-001
 41
5.0E-001
 70
0
  0
VERTEX
  8
2D_KATALOG-MITTEL
 42
0.0
 10
1.1827217E+002
 20
1.333729E+002
 70
0
  0
VERTEX
  8
2D_KATALOG-MITTEL
 42
0.0
 10
1.1827217E+002
 20
1.2624502E+002
 70
0
  0
SEQEND
  0
POLYLINE
  8
2D_KATALOG-MITTEL
  6
CONTINUOUS
 62
230
 66
1
 40
5.0E-001
 41
5.0E-001
 70
0
  0
VERTEX
  8
2D_KATALOG-MITTEL
 42
0.0
 10
1.2227217E+002
 20
1.2624502E+002
 70
0
  0
VERTEX
  8
2D_KATALOG-MITTEL
 42
0.0
 10
1.2227217E+002
 20
1.333729E+002
 70
0
  0
SEQEND
  0
POLYLINE
  8
2D_KATALOG-MITTEL
  6
CONTINUOUS
 62
230
 66
1
 40
5.0E-001
 41
5.0E-001
 70
0
  0
VERTEX
  8
2D_KATALOG-MITTEL
 42
1.0
 10
1.1827217E+002
 20
1.2624502E+002
 70
0
  0
VERTEX
  8
2D_KATALOG-MITTEL
 42
0.0
 10
1.2227217E+002
 20
1.2624502E+002
 70
0
  0
SEQEND
  0
POLYLINE
  8
2D_KATALOG-MITTEL
  6
CONTINUOUS
 62
230
 66
1
 40
5.0E-001
 41
5.0E-001
 70
0
  0
VERTEX
  8
2D_KATALOG-MITTEL
 42
0.0
 10
1.2206101E+002
 20
1.342673E+002
 70
0
  0
VERTEX
  8
2D_KATALOG-MITTEL
 42
0.0
 10
1.2067217E+002
 20
1.3704502E+002
 70
0
  0
SEQEND
  0
POLYLINE
  8
2D_KATALOG-MITTEL
  6
CONTINUOUS
 62
230
 66
1
 40
5.0E-001
 41
5.0E-001
 70
0
  0
VERTEX
  8
2D_KATALOG-MITTEL
 42
0.0
 10
1.1987217E+002
 20
1.3704502E+002
 70
0
  0
VERTEX
  8
2D_KATALOG-MITTEL
 42
0.0
 10
1.1848333E+002
 20
1.342673E+002
 70
0
  0
SEQEND
  0
POLYLINE
  8
2D_KATALOG-MITTEL
  6
CONTINUOUS
 62
230
 66
1
 40
5.0E-001
 41
5.0E-001
 70
0
  0
VERTEX
  8
2D_KATALOG-MITTEL
 42
0.0
 10
1.1987217E+002
 20
1.3704502E+002
 70
0
  0
VERTEX
  8
2D_KATALOG-MITTEL
 42
0.0
 10
1.2067217E+002
 20
1.3704502E+002
 70
0
  0
SEQEND
  0
POLYLINE
  8
2D_KATALOG-MITTEL
  6
CONTINUOUS
 62
230
 66
1
 40
5.0E-001
 41
5.0E-001
 70
0
  0
VERTEX
  8
2D_KATALOG-MITTEL
 42
0.0
 10
1.2067217E+002
 20
1.3704502E+002
 70
0
  0
VERTEX
  8
2D_KATALOG-MITTEL
 42
0.0
 10
1.2457349E+002
 20
1.3704502E+002
 70
0
  0
SEQEND
  0
POLYLINE
  8
2D_KATALOG-MITTEL
  6
CONTINUOUS
 62
230
 66
1
 40
5.0E-001
 41
5.0E-001
 70
0
  0
VERTEX
  8
2D_KATALOG-MITTEL
 42
0.0
 10
1.1507217E+002
 20
1.3460042E+002
 70
0
  0
VERTEX
  8
2D_KATALOG-MITTEL
 42
0.0
 10
1.1614973E+002
 20
1.3675558E+002
 70
0
  0
SEQEND
  0
POLYLINE
  8
2D_KATALOG-MITTEL
  6
CONTINUOUS
 62
230
 66
1
 40
5.0E-001
 41
5.0E-001
 70
0
  0
VERTEX
  8
2D_KATALOG-MITTEL
 42
0.0
 10
1.2547217E+002
 20
1.3460042E+002
 70
0
  0
VERTEX
  8
2D_KATALOG-MITTEL
 42
0.0
 10
1.2439461E+002
 20
1.3675558E+002
 70
0
  0
SEQEND
  0
POLYLINE
  8
2D_KATALOG-MITTEL
  6
CONTINUOUS
 62
230
 66
1
 40
5.0E-001
 41
5.0E-001
 70
0
  0
VERTEX
  8
2D_KATALOG-MITTEL
 42
0.0
 10
1.2461029E+002
 20
1.3704502E+002
 70
0
  0
VERTEX
  8
2D_KATALOG-MITTEL
 42
0.0
 10
1.2457349E+002
 20
1.3704502E+002
 70
0
  0
SEQEND
  0
POLYLINE
  8
2D_KATALOG-MITTEL
  6
CONTINUOUS
 62
230
 66
1
 40
5.0E-001
 41
5.0E-001
 70
0
  0
VERTEX
  8
2D_KATALOG-MITTEL
 42
0.0
 10
1.1597085E+002
 20
1.3704502E+002
 70
0
  0
VERTEX
  8
2D_KATALOG-MITTEL
 42
0.0
 10
1.1593405E+002
 20
1.3704502E+002
 70
0
  0
SEQEND
  0
POLYLINE
  8
2D_KATALOG-MITTEL
  6
CONTINUOUS
 62
230
 66
1
 40
5.0E-001
 41
5.0E-001
 70
0
  0
VERTEX
  8
2D_KATALOG-MITTEL
 42
5.5753652E-001
 10
1.1614973E+002
 20
1.3675558E+002
 70
0
  0
VERTEX
  8
2D_KATALOG-MITTEL
 42
0.0
 10
1.1597085E+002
 20
1.3704501E+002
 70
0
  0
SEQEND
  0
POLYLINE
  8
2D_KATALOG-MITTEL
  6
CONTINUOUS
 62
230
 66
1
 40
5.0E-001
 41
5.0E-001
 70
0
  0
VERTEX
  8
2D_KATALOG-MITTEL
 42
5.5753652E-001
 10
1.2457349E+002
 20
1.3704502E+002
 70
0
  0
VERTEX
  8
2D_KATALOG-MITTEL
 42
0.0
 10
1.2439461E+002
 20
1.3675558E+002
 70
0
  0
SEQEND
  0
POLYLINE
  8
2D_KATALOG-MITTEL
  6
CONTINUOUS
 62
230
 66
1
 40
5.0E-001
 41
5.0E-001
 70
0
  0
VERTEX
  8
2D_KATALOG-MITTEL
 42
1.1643156E-001
 10
1.1848333E+002
 20
1.342673E+002
 70
0
  0
VERTEX
  8
2D_KATALOG-MITTEL
 42
0.0
 10
1.182722E+002
 20
1.333729E+002
 70
0
  0
SEQEND
  0
POLYLINE
  8
2D_KATALOG-MITTEL
  6
CONTINUOUS
 62
230
 66
1
 40
5.0E-001
 41
5.0E-001
 70
0
  0
VERTEX
  8
2D_KATALOG-MITTEL
 42
1.1643156E-001
 10
1.2227217E+002
 20
1.333729E+002
 70
0
  0
VERTEX
  8
2D_KATALOG-MITTEL
 42
0.0
 10
1.2206104E+002
 20
1.3426731E+002
 70
0
  0
SEQEND
  0
POLYLINE
  8
2D_KATALOG-MITTEL
  6
CONTINUOUS
 62
230
 66
1
 40
5.0E-001
 41
5.0E-001
 70
0
  0
VERTEX
  8
2D_KATALOG-MITTEL
 42
0.0
 10
1.2427217E+002
 20
2.1424502E+002
 70
0
  0
VERTEX
  8
2D_KATALOG-MITTEL
 42
0.0
 10
1.2427217E+002
 20
2.1584502E+002
 70
0
  0
SEQEND
  0
POLYLINE
  8
2D_KATALOG-MITTEL
  6
CONTINUOUS
 62
230
 66
1
 40
5.0E-001
 41
5.0E-001
 70
0
  0
VERTEX
  8
2D_KATALOG-MITTEL
 42
0.0
 10
1.2427217E+002
 20
2.1584502E+002
 70
0
  0
VERTEX
  8
2D_KATALOG-MITTEL
 42
0.0
 10
1.2357933E+002
 20
2.1704502E+002
 70
0
  0
SEQEND
  0
POLYLINE
  8
2D_KATALOG-MITTEL
  6
CONTINUOUS
 62
230
 66
1
 40
5.0E-001
 41
5.0E-001
 70
0
  0
VERTEX
  8
2D_KATALOG-MITTEL
 42
0.0
 10
1.2357933E+002
 20
2.1704502E+002
 70
0
  0
VERTEX
  8
2D_KATALOG-MITTEL
 42
0.0
 10
1.2267217E+002
 20
2.1704502E+002
 70
0
  0
SEQEND
  0
POLYLINE
  8
2D_KATALOG-MITTEL
  6
CONTINUOUS
 62
230
 66
1
 40
5.0E-001
 41
5.0E-001
 70
0
  0
VERTEX
  8
2D_KATALOG-MITTEL
 42
0.0
 10
1.1696501E+002
 20
2.1704502E+002
 70
0
  0
VERTEX
  8
2D_KATALOG-MITTEL
 42
0.0
 10
1.1627217E+002
 20
2.1584502E+002
 70
0
  0
SEQEND
  0
POLYLINE
  8
2D_KATALOG-MITTEL
  6
CONTINUOUS
 62
230
 66
1
 40
5.0E-001
 41
5.0E-001
 70
0
  0
VERTEX
  8
2D_KATALOG-MITTEL
 42
0.0
 10
1.1627217E+002
 20
2.1424502E+002
 70
0
  0
VERTEX
  8
2D_KATALOG-MITTEL
 42
0.0
 10
1.1627217E+002
 20
2.1584502E+002
 70
0
  0
SEQEND
  0
POLYLINE
  8
2D_KATALOG-MITTEL
  6
CONTINUOUS
 62
230
 66
1
 40
5.0E-001
 41
5.0E-001
 70
0
  0
VERTEX
  8
2D_KATALOG-MITTEL
 42
0.0
 10
1.2427217E+002
 20
2.1584502E+002
 70
0
  0
VERTEX
  8
2D_KATALOG-MITTEL
 42
0.0
 10
1.1627217E+002
 20
2.1584502E+002
 70
0
  0
SEQEND
  0
POLYLINE
  8
2D_KATALOG-MITTEL
  6
CONTINUOUS
 62
230
 66
1
 40
5.0E-001
 41
5.0E-001
 70
0
  0
VERTEX
  8
2D_KATALOG-MITTEL
 42
0.0
 10
1.2427217E+002
 20
2.1424502E+002
 70
0
  0
VERTEX
  8
2D_KATALOG-MITTEL
 42
0.0
 10
1.1627217E+002
 20
2.1424502E+002
 70
0
  0
SEQEND
  0
POLYLINE
  8
2D_KATALOG-MITTEL
  6
CONTINUOUS
 62
230
 66
1
 40
5.0E-001
 41
5.0E-001
 70
0
  0
VERTEX
  8
2D_KATALOG-MITTEL
 42
0.0
 10
1.1627217E+002
 20
2.1424502E+002
 70
0
  0
VERTEX
  8
2D_KATALOG-MITTEL
 42
0.0
 10
1.1387217E+002
 20
2.1424502E+002
 70
0
  0
SEQEND
  0
POLYLINE
  8
2D_KATALOG-MITTEL
  6
CONTINUOUS
 62
230
 66
1
 40
5.0E-001
 41
5.0E-001
 70
0
  0
VERTEX
  8
2D_KATALOG-MITTEL
 42
0.0
 10
1.2267217E+002
 20
2.1864502E+002
 70
0
  0
VERTEX
  8
2D_KATALOG-MITTEL
 42
0.0
 10
1.2267217E+002
 20
2.2436178E+002
 70
0
  0
SEQEND
  0
LINE
  8
2D_VERDECKTE_KANTEN
  6
HIDDEN
 62
150
 10
1.2187217E+002
 20
2.2864506E+002
 11
1.2267217E+002
 21
2.2784506E+002
  0
LINE
  8
2D_VERDECKTE_KANTEN
  6
HIDDEN
 62
150
 10
1.1867217E+002
 20
2.2864506E+002
 11
1.2187217E+002
 21
2.2864506E+002
  0
POLYLINE
  8
2D_KATALOG-MITTEL
  6
CONTINUOUS
 62
230
 66
1
 40
5.0E-001
 41
5.0E-001
 70
0
  0
VERTEX
  8
2D_KATALOG-MITTEL
 42
0.0
 10
1.1787217E+002
 20
2.1864502E+002
 70
0
  0
VERTEX
  8
2D_KATALOG-MITTEL
 42
0.0
 10
1.1787217E+002
 20
2.2436178E+002
 70
0
  0
SEQEND
  0
LINE
  8
2D_VERDECKTE_KANTEN
  6
HIDDEN
 62
150
 10
1.2222153E+002
 20
2.2784506E+002
 11
1.2267217E+002
 21
2.2784506E+002
  0
POLYLINE
  8
2D_KATALOG-MITTEL
  6
CONTINUOUS
 62
230
 66
1
 40
5.0E-001
 41
5.0E-001
 70
0
  0
VERTEX
  8
2D_KATALOG-MITTEL
 42
0.0
 10
1.1787217E+002
 20
2.1704502E+002
 70
0
  0
VERTEX
  8
2D_KATALOG-MITTEL
 42
0.0
 10
1.1696501E+002
 20
2.1704502E+002
 70
0
  0
SEQEND
  0
POLYLINE
  8
2D_KATALOG-MITTEL
  6
CONTINUOUS
 62
230
 66
1
 40
5.0E-001
 41
5.0E-001
 70
0
  0
VERTEX
  8
2D_KATALOG-MITTEL
 42
0.0
 10
1.1832281E+002
 20
2.1924502E+002
 70
0
  0
VERTEX
  8
2D_KATALOG-MITTEL
 42
0.0
 10
1.2222153E+002
 20
2.1924502E+002
 70
0
  0
SEQEND
  0
POLYLINE
  8
2D_KATALOG-MITTEL
  6
CONTINUOUS
 62
230
 66
1
 40
5.0E-001
 41
5.0E-001
 70
0
  0
VERTEX
  8
2D_KATALOG-MITTEL
 42
0.0
 10
1.2222153E+002
 20
2.1924502E+002
 70
0
  0
VERTEX
  8
2D_KATALOG-MITTEL
 42
0.0
 10
1.2222153E+002
 20
2.2401851E+002
 70
0
  0
SEQEND
  0
POLYLINE
  8
2D_KATALOG-MITTEL
  6
CONTINUOUS
 62
230
 66
1
 40
5.0E-001
 41
5.0E-001
 70
0
  0
VERTEX
  8
2D_KATALOG-MITTEL
 42
0.0
 10
1.1832281E+002
 20
2.1924502E+002
 70
0
  0
VERTEX
  8
2D_KATALOG-MITTEL
 42
0.0
 10
1.1832281E+002
 20
2.2401851E+002
 70
0
  0
SEQEND
  0
POLYLINE
  8
2D_KATALOG-MITTEL
  6
CONTINUOUS
 62
230
 66
1
 40
5.0E-001
 41
5.0E-001
 70
0
  0
VERTEX
  8
2D_KATALOG-MITTEL
 42
1.0
 10
1.2127217E+002
 20
1.4024502E+002
 70
0
  0
VERTEX
  8
2D_KATALOG-MITTEL
 42
1.0
 10
1.1927217E+002
 20
1.4024502E+002
 70
0
  0
VERTEX
  8
2D_KATALOG-MITTEL
 42
0.0
 10
1.2127217E+002
 20
1.4024502E+002
 70
0
  0
SEQEND
  0
POLYLINE
  8
2D_KATALOG-MITTEL
  6
CONTINUOUS
 62
230
 66
1
 40
5.0E-001
 41
5.0E-001
 70
0
  0
VERTEX
  8
2D_KATALOG-MITTEL
 42
1.0
 10
1.2107217E+002
 20
1.4024502E+002
 70
0
  0
VERTEX
  8
2D_KATALOG-MITTEL
 42
1.0
 10
1.1947217E+002
 20
1.4024502E+002
 70
0
  0
VERTEX
  8
2D_KATALOG-MITTEL
 42
0.0
 10
1.2107217E+002
 20
1.4024502E+002
 70
0
  0
SEQEND
  0
POLYLINE
  8
2D_KATALOG-MITTEL
  6
CONTINUOUS
 62
230
 66
1
 40
5.0E-001
 41
5.0E-001
 70
0
  0
VERTEX
  8
2D_KATALOG-MITTEL
 42
0.0
 10
1.1787217E+002
 20
2.1704502E+002
 70
0
  0
VERTEX
  8
2D_KATALOG-MITTEL
 42
0.0
 10
1.1837217E+002
 20
2.1704502E+002
 70
0
  0
SEQEND
  0
POLYLINE
  8
2D_KATALOG-MITTEL
  6
CONTINUOUS
 62
230
 66
1
 40
5.0E-001
 41
5.0E-001
 70
0
  0
VERTEX
  8
2D_KATALOG-MITTEL
 42
0.0
 10
1.2267217E+002
 20
2.1864502E+002
 70
0
  0
VERTEX
  8
2D_KATALOG-MITTEL
 42
0.0
 10
1.2237217E+002
 20
2.1864502E+002
 70
0
  0
SEQEND
  0
POLYLINE
  8
2D_KATALOG-MITTEL
  6
CONTINUOUS
 62
230
 66
1
 40
5.0E-001
 41
5.0E-001
 70
0
  0
VERTEX
  8
2D_KATALOG-MITTEL
 42
0.0
 10
1.2217217E+002
 20
2.1704502E+002
 70
0
  0
VERTEX
  8
2D_KATALOG-MITTEL
 42
0.0
 10
1.2217217E+002
 20
2.1844502E+002
 70
0
  0
SEQEND
  0
POLYLINE
  8
2D_KATALOG-MITTEL
  6
CONTINUOUS
 62
230
 66
1
 40
5.0E-001
 41
5.0E-001
 70
0
  0
VERTEX
  8
2D_KATALOG-MITTEL
 42
0.0
 10
1.1837217E+002
 20
2.1844502E+002
 70
0
  0
VERTEX
  8
2D_KATALOG-MITTEL
 42
0.0
 10
1.1837217E+002
 20
2.1704502E+002
 70
0
  0
SEQEND
  0
POLYLINE
  8
2D_KATALOG-MITTEL
  6
CONTINUOUS
 62
230
 66
1
 40
5.0E-001
 41
5.0E-001
 70
0
  0
VERTEX
  8
2D_KATALOG-MITTEL
 42
0.0
 10
1.1837217E+002
 20
2.1704502E+002
 70
0
  0
VERTEX
  8
2D_KATALOG-MITTEL
 42
0.0
 10
1.2217217E+002
 20
2.1704502E+002
 70
0
  0
SEQEND
  0
POLYLINE
  8
2D_KATALOG-MITTEL
  6
CONTINUOUS
 62
230
 66
1
 40
5.0E-001
 41
5.0E-001
 70
0
  0
VERTEX
  8
2D_KATALOG-MITTEL
 42
0.0
 10
1.2217217E+002
 20
2.1704502E+002
 70
0
  0
VERTEX
  8
2D_KATALOG-MITTEL
 42
0.0
 10
1.2267217E+002
 20
2.1704502E+002
 70
0
  0
SEQEND
  0
POLYLINE
  8
2D_KATALOG-MITTEL
  6
CONTINUOUS
 62
230
 66
1
 40
5.0E-001
 41
5.0E-001
 70
0
  0
VERTEX
  8
2D_KATALOG-MITTEL
 42
0.0
 10
1.2237217E+002
 20
2.1864502E+002
 70
0
  0
VERTEX
  8
2D_KATALOG-MITTEL
 42
0.0
 10
1.1817217E+002
 20
2.1864502E+002
 70
0
  0
SEQEND
  0
POLYLINE
  8
2D_KATALOG-MITTEL
  6
CONTINUOUS
 62
230
 66
1
 40
5.0E-001
 41
5.0E-001
 70
0
  0
VERTEX
  8
2D_KATALOG-MITTEL
 42
0.0
 10
1.1817217E+002
 20
2.1864502E+002
 70
0
  0
VERTEX
  8
2D_KATALOG-MITTEL
 42
0.0
 10
1.1787217E+002
 20
2.1864502E+002
 70
0
  0
SEQEND
  0
POLYLINE
  8
2D_KATALOG-MITTEL
  6
CONTINUOUS
 62
230
 66
1
 40
5.0E-001
 41
5.0E-001
 70
0
  0
VERTEX
  8
2D_KATALOG-MITTEL
 42
4.1421356E-001
 10
1.1837217E+002
 20
2.1844502E+002
 70
0
  0
VERTEX
  8
2D_KATALOG-MITTEL
 42
0.0
 10
1.1817217E+002
 20
2.1864502E+002
 70
0
  0
SEQEND
  0
POLYLINE
  8
2D_KATALOG-MITTEL
  6
CONTINUOUS
 62
230
 66
1
 40
5.0E-001
 41
5.0E-001
 70
0
  0
VERTEX
  8
2D_KATALOG-MITTEL
 42
4.1421356E-001
 10
1.2237217E+002
 20
2.1864502E+002
 70
0
  0
VERTEX
  8
2D_KATALOG-MITTEL
 42
0.0
 10
1.2217217E+002
 20
2.1844502E+002
 70
0
  0
SEQEND
  0
LINE
  8
2D_MITTELLINIEN
  6
CENTERLINE
 62
3
 10
6.5697789E+001
 20
2.1144502E+002
 11
6.5126189E+001
 21
2.1144502E+002
  0
LINE
  8
2D_MITTELLINIEN
  6
CENTERLINE
 62
3
 10
6.5811989E+001
 20
2.1144502E+002
 11
9.3411989E+001
 21
2.1144502E+002
  0
LINE
  8
2D_MITTELLINIEN
  6
CENTERLINE
 62
3
 10
9.3526189E+001
 20
2.1144502E+002
 11
9.4097789E+001
 21
2.1144502E+002
  0
LINE
  8
2D_MITTELLINIEN
  6
CENTERLINE
 62
3
 10
7.0954269E+001
 20
2.0204502E+002
 11
7.4669709E+001
 21
2.0204502E+002
  0
LINE
  8
2D_MITTELLINIEN
  6
CENTERLINE
 62
3
 10
7.2811989E+001
 20
2.0018734E+002
 11
7.2811989E+001
 21
2.039027E+002
  0
LINE
  8
2D_MITTELLINIEN
  6
CENTERLINE
 62
3
 10
8.4554269E+001
 20
2.0204502E+002
 11
8.8269709E+001
 21
2.0204502E+002
  0
LINE
  8
2D_MITTELLINIEN
  6
CENTERLINE
 62
3
 10
8.6411989E+001
 20
2.0018734E+002
 11
8.6411989E+001
 21
2.039027E+002
  0
LINE
  8
2D_MITTELLINIEN
  6
CENTERLINE
 62
3
 10
7.1487394E+001
 20
2.2584502E+002
 11
8.7387625E+001
 21
2.2584502E+002
  0
LINE
  8
2D_MITTELLINIEN
  6
CENTERLINE
 62
3
 10
7.4560189E+001
 20
1.4024502E+002
 11
7.6237709E+001
 21
1.4024502E+002
  0
LINE
  8
2D_MITTELLINIEN
  6
CENTERLINE
 62
3
 10
8.4712669E+001
 20
1.4024502E+002
 11
8.2709549E+001
 21
1.4024502E+002
  0
LINE
  8
2D_MITTELLINIEN
  6
CENTERLINE
 62
3
 10
7.9611989E+001
 20
1.1964116E+002
 11
7.9611989E+001
 21
2.2928363E+002
  0
LINE
  8
2D_MITTELLINIEN
  6
CENTERLINE
 62
3
 10
1.0470117E+002
 20
2.0204502E+002
 11
1.0039565E+002
 21
2.0204502E+002
  0
LINE
  8
2D_MITTELLINIEN
  6
CENTERLINE
 62
3
 10
1.1647217E+002
 20
2.1144502E+002
 11
1.2407217E+002
 21
2.1144502E+002
  0
LINE
  8
2D_MITTELLINIEN
  6
CENTERLINE
 62
3
 10
1.1827157E+002
 20
2.2584506E+002
 11
1.2227277E+002
 21
2.2584506E+002
  0
LINE
  8
2D_MITTELLINIEN
  6
CENTERLINE
 62
3
 10
1.1884317E+002
 20
1.4024502E+002
 11
1.2170117E+002
 21
1.4024502E+002
  0
LINE
  8
2D_MITTELLINIEN
  6
CENTERLINE
 62
3
 10
1.2027217E+002
 20
1.2001409E+002
 11
1.2027217E+002
 21
1.4373117E+002
  0
LINE
  8
2D_VERDECKTE_KANTEN
  6
HIDDEN
 62
150
 10
1.1867217E+002
 20
2.2864506E+002
 11
1.1787217E+002
 21
2.2784506E+002
  0
LINE
  8
2D_VERDECKTE_KANTEN
  6
HIDDEN
 62
150
 10
1.1832281E+002
 20
2.2784506E+002
 11
1.1787217E+002
 21
2.2784506E+002
  0
LINE
  8
2D_VERDECKTE_KANTEN
  6
HIDDEN
 62
150
 10
1.0227217E+002
 20
2.0334502E+002
 11
1.0427217E+002
 21
2.0334502E+002
  0
LINE
  8
2D_VERDECKTE_KANTEN
  6
HIDDEN
 62
150
 10
1.0227217E+002
 20
2.0074502E+002
 11
1.0427217E+002
 21
2.0074502E+002
  0
LINE
  8
2D_VERDECKTE_KANTEN
  6
HIDDEN
 62
150
 10
7.8211989E+001
 20
2.2710502E+002
 11
8.1011989E+001
 21
2.2710502E+002
  0
LINE
  8
2D_VERDECKTE_KANTEN
  6
HIDDEN
 62
150
 10
8.1011989E+001
 20
2.2458502E+002
 11
7.8211989E+001
 21
2.2458502E+002
  0
POLYLINE
  8
2D_KATALOG-MITTEL
  6
CONTINUOUS
 62
230
 66
1
 40
5.0E-001
 41
5.0E-001
 70
0
  0
VERTEX
  8
2D_KATALOG-MITTEL
 42
0.0
 10
7.8211989E+001
 20
2.2464502E+002
 70
0
  0
VERTEX
  8
2D_KATALOG-MITTEL
 42
0.0
 10
7.8211989E+001
 20
2.2704502E+002
 70
0
  0
SEQEND
  0
POLYLINE
  8
2D_KATALOG-MITTEL
  6
CONTINUOUS
 62
230
 66
1
 40
5.0E-001
 41
5.0E-001
 70
0
  0
VERTEX
  8
2D_KATALOG-MITTEL
 42
0.0
 10
7.7911986E+001
 20
2.2704503E+002
 70
0
  0
VERTEX
  8
2D_KATALOG-MITTEL
 42
0.0
 10
7.8211989E+001
 20
2.2704502E+002
 70
0
  0
SEQEND
  0
POLYLINE
  8
2D_KATALOG-MITTEL
  6
CONTINUOUS
 62
230
 66
1
 40
5.0E-001
 41
5.0E-001
 70
0
  0
VERTEX
  8
2D_KATALOG-MITTEL
 42
0.0
 10
7.7911986E+001
 20
2.2464502E+002
 70
0
  0
VERTEX
  8
2D_KATALOG-MITTEL
 42
0.0
 10
7.8211989E+001
 20
2.2464502E+002
 70
0
  0
SEQEND
  0
POLYLINE
  8
2D_KATALOG-MITTEL
  6
CONTINUOUS
 62
230
 66
1
 40
5.0E-001
 41
5.0E-001
 70
0
  0
VERTEX
  8
2D_KATALOG-MITTEL
 42
0.0
 10
8.1011989E+001
 20
2.2466502E+002
 70
0
  0
VERTEX
  8
2D_KATALOG-MITTEL
 42
0.0
 10
8.1311993E+001
 20
2.2466502E+002
 70
0
  0
SEQEND
  0
POLYLINE
  8
2D_KATALOG-MITTEL
  6
CONTINUOUS
 62
230
 66
1
 40
5.0E-001
 41
5.0E-001
 70
0
  0
VERTEX
  8
2D_KATALOG-MITTEL
 42
0.0
 10
8.1011989E+001
 20
2.2702502E+002
 70
0
  0
VERTEX
  8
2D_KATALOG-MITTEL
 42
0.0
 10
8.1311993E+001
 20
2.2702502E+002
 70
0
  0
SEQEND
  0
POLYLINE
  8
2D_KATALOG-MITTEL
  6
CONTINUOUS
 62
230
 66
1
 40
5.0E-001
 41
5.0E-001
 70
0
  0
VERTEX
  8
2D_KATALOG-MITTEL
 42
0.0
 10
8.1311989E+001
 20
2.2984502E+002
 70
0
  0
VERTEX
  8
2D_KATALOG-MITTEL
 42
0.0
 10
8.1311989E+001
 20
2.2418013E+002
 70
0
  0
SEQEND
  0
POLYLINE
  8
2D_KATALOG-MITTEL
  6
CONTINUOUS
 62
230
 66
1
 40
5.0E-001
 41
5.0E-001
 70
0
  0
VERTEX
  8
2D_KATALOG-MITTEL
 42
0.0
 10
8.1311989E+001
 20
2.2418013E+002
 70
0
  0
VERTEX
  8
2D_KATALOG-MITTEL
 42
0.0
 10
8.1311989E+001
 20
2.2344502E+002
 70
0
  0
SEQEND
  0
POLYLINE
  8
2D_KATALOG-MITTEL
  6
CONTINUOUS
 62
230
 66
1
 40
5.0E-001
 41
5.0E-001
 70
0
  0
VERTEX
  8
2D_KATALOG-MITTEL
 42
0.0
 10
7.2611989E+001
 20
2.2344502E+002
 70
0
  0
VERTEX
  8
2D_KATALOG-MITTEL
 42
0.0
 10
7.2611989E+001
 20
2.2436174E+002
 70
0
  0
SEQEND
  0
POLYLINE
  8
2D_KATALOG-MITTEL
  6
CONTINUOUS
 62
230
 66
1
 40
5.0E-001
 41
5.0E-001
 70
0
  0
VERTEX
  8
2D_KATALOG-MITTEL
 42
0.0
 10
7.2611989E+001
 20
2.2436174E+002
 70
0
  0
VERTEX
  8
2D_KATALOG-MITTEL
 42
0.0
 10
7.2611989E+001
 20
2.3184502E+002
 70
0
  0
SEQEND
  0
POLYLINE
  8
2D_KATALOG-MITTEL
  6
CONTINUOUS
 62
230
 66
1
 40
5.0E-001
 41
5.0E-001
 70
0
  0
VERTEX
  8
2D_KATALOG-MITTEL
 42
0.0
 10
8.6611989E+001
 20
2.3184502E+002
 70
0
  0
VERTEX
  8
2D_KATALOG-MITTEL
 42
0.0
 10
7.2611989E+001
 20
2.3184502E+002
 70
0
  0
SEQEND
  0
POLYLINE
  8
2D_KATALOG-MITTEL
  6
CONTINUOUS
 62
230
 66
1
 40
5.0E-001
 41
5.0E-001
 70
0
  0
VERTEX
  8
2D_KATALOG-MITTEL
 42
0.0
 10
7.7911989E+001
 20
2.2418013E+002
 70
0
  0
VERTEX
  8
2D_KATALOG-MITTEL
 42
0.0
 10
7.7911989E+001
 20
2.2984502E+002
 70
0
  0
SEQEND
  0
POLYLINE
  8
2D_KATALOG-MITTEL
  6
CONTINUOUS
 62
230
 66
1
 40
5.0E-001
 41
5.0E-001
 70
0
  0
VERTEX
  8
2D_KATALOG-MITTEL
 42
0.0
 10
7.7911989E+001
 20
2.2344502E+002
 70
0
  0
VERTEX
  8
2D_KATALOG-MITTEL
 42
0.0
 10
7.7911989E+001
 20
2.2418013E+002
 70
0
  0
SEQEND
  0
POLYLINE
  8
2D_KATALOG-MITTEL
  6
CONTINUOUS
 62
230
 66
1
 40
5.0E-001
 41
5.0E-001
 70
0
  0
VERTEX
  8
2D_KATALOG-MITTEL
 42
0.0
 10
8.6611989E+001
 20
2.3184502E+002
 70
0
  0
VERTEX
  8
2D_KATALOG-MITTEL
 42
0.0
 10
8.6611989E+001
 20
2.2436174E+002
 70
0
  0
SEQEND
  0
POLYLINE
  8
2D_KATALOG-MITTEL
  6
CONTINUOUS
 62
230
 66
1
 40
5.0E-001
 41
5.0E-001
 70
0
  0
VERTEX
  8
2D_KATALOG-MITTEL
 42
0.0
 10
8.6611989E+001
 20
2.2436174E+002
 70
0
  0
VERTEX
  8
2D_KATALOG-MITTEL
 42
0.0
 10
8.6611989E+001
 20
2.2344502E+002
 70
0
  0
SEQEND
  0
POLYLINE
  8
2D_KATALOG-MITTEL
  6
CONTINUOUS
 62
230
 66
1
 40
5.0E-001
 41
5.0E-001
 70
0
  0
VERTEX
  8
2D_KATALOG-MITTEL
 42
0.0
 10
8.1311989E+001
 20
2.2984502E+002
 70
0
  0
VERTEX
  8
2D_KATALOG-MITTEL
 42
0.0
 10
7.7911989E+001
 20
2.2984502E+002
 70
0
  0
SEQEND
  0
POLYLINE
  8
2D_KATALOG-MITTEL
  6
CONTINUOUS
 62
230
 66
1
 40
5.0E-001
 41
5.0E-001
 70
0
  0
VERTEX
  8
2D_KATALOG-MITTEL
 42
0.0
 10
8.173199E+001
 20
2.2455504E+002
 70
0
  0
VERTEX
  8
2D_KATALOG-MITTEL
 42
0.0
 10
8.6611989E+001
 20
2.2455504E+002
 70
0
  0
SEQEND
  0
POLYLINE
  8
2D_KATALOG-MITTEL
  6
CONTINUOUS
 62
230
 66
1
 40
5.0E-001
 41
5.0E-001
 70
0
  0
VERTEX
  8
2D_KATALOG-MITTEL
 42
0.0
 10
7.2611989E+001
 20
2.2455504E+002
 70
0
  0
VERTEX
  8
2D_KATALOG-MITTEL
 42
0.0
 10
7.7491989E+001
 20
2.2455504E+002
 70
0
  0
SEQEND
  0
POLYLINE
  8
2D_KATALOG-MITTEL
  6
CONTINUOUS
 62
230
 66
1
 40
5.0E-001
 41
5.0E-001
 70
2
  0
VERTEX
  8
2D_KATALOG-MITTEL
 42
0.0
 10
8.173199E+001
 20
2.2455504E+002
 70
0
  0
VERTEX
  8
2D_KATALOG-MITTEL
 42
6.1174144E-003
 10
8.1723238E+001
 20
2.2455492E+002
 70
1
  0
VERTEX
  8
2D_KATALOG-MITTEL
 42
6.2743106E-003
 10
8.1714541E+001
 20
2.2455459E+002
 70
0
  0
VERTEX
  8
2D_KATALOG-MITTEL
 42
6.2552551E-003
 10
8.17059E+001
 20
2.2455404E+002
 70
1
  0
VERTEX
  8
2D_KATALOG-MITTEL
 42
6.0364042E-003
 10
8.1697316E+001
 20
2.2455328E+002
 70
0
  0
VERTEX
  8
2D_KATALOG-MITTEL
 42
5.8890294E-003
 10
8.1688793E+001
 20
2.2455232E+002
 70
1
  0
VERTEX
  8
2D_KATALOG-MITTEL
 42
5.756495E-003
 10
8.1680331E+001
 20
2.2455117E+002
 70
0
  0
VERTEX
  8
2D_KATALOG-MITTEL
 42
5.6340956E-003
 10
8.1671934E+001
 20
2.2454983E+002
 70
1
  0
VERTEX
  8
2D_KATALOG-MITTEL
 42
5.4751432E-003
 10
8.1663602E+001
 20
2.245483E+002
 70
0
  0
VERTEX
  8
2D_KATALOG-MITTEL
 42
5.3427257E-003
 10
8.165534E+001
 20
2.2454661E+002
 70
1
  0
VERTEX
  8
2D_KATALOG-MITTEL
 42
5.1887399E-003
 10
8.1647146E+001
 20
2.2454474E+002
 70
0
  0
VERTEX
  8
2D_KATALOG-MITTEL
 42
5.0579536E-003
 10
8.1639026E+001
 20
2.2454272E+002
 70
1
  0
VERTEX
  8
2D_KATALOG-MITTEL
 42
4.9036541E-003
 10
8.1630978E+001
 20
2.2454054E+002
 70
0
  0
VERTEX
  8
2D_KATALOG-MITTEL
 42
4.7739196E-003
 10
8.1623009E+001
 20
2.2453822E+002
 70
1
  0
VERTEX
  8
2D_KATALOG-MITTEL
 42
4.6225761E-003
 10
8.1615116E+001
 20
2.2453575E+002
 70
0
  0
VERTEX
  8
2D_KATALOG-MITTEL
 42
4.4959346E-003
 10
8.1607305E+001
 20
2.2453315E+002
 70
1
  0
VERTEX
  8
2D_KATALOG-MITTEL
 42
4.348472E-003
 10
8.1599574E+001
 20
2.2453043E+002
 70
0
  0
VERTEX
  8
2D_KATALOG-MITTEL
 42
4.225416E-003
 10
8.159193E+001
 20
2.2452759E+002
 70
1
  0
VERTEX
  8
2D_KATALOG-MITTEL
 42
4.0816724E-003
 10
8.158437E+001
 20
2.2452463E+002
 70
0
  0
VERTEX
  8
2D_KATALOG-MITTEL
 42
3.9642196E-003
 10
8.15769E+001
 20
2.2452157E+002
 70
1
  0
VERTEX
  8
2D_KATALOG-MITTEL
 42
3.8286334E-003
 10
8.1569518E+001
 20
2.2451841E+002
 70
0
  0
VERTEX
  8
2D_KATALOG-MITTEL
 42
3.7118416E-003
 10
8.1562231E+001
 20
2.2451516E+002
 70
1
  0
VERTEX
  8
2D_KATALOG-MITTEL
 42
3.5687069E-003
 10
8.1555036E+001
 20
2.2451182E+002
 70
0
  0
VERTEX
  8
2D_KATALOG-MITTEL
 42
3.5421911E-003
 10
8.154794E+001
 20
2.245084E+002
 70
1
  0
VERTEX
  8
2D_KATALOG-MITTEL
 42
3.6089261E-003
 10
8.154094E+001
 20
2.2450491E+002
 70
0
  0
VERTEX
  8
2D_KATALOG-MITTEL
 42
3.688964E-003
 10
8.1534041E+001
 20
2.2450134E+002
 70
1
  0
VERTEX
  8
2D_KATALOG-MITTEL
 42
3.7853931E-003
 10
8.1527243E+001
 20
2.2449769E+002
 70
0
  0
VERTEX
  8
2D_KATALOG-MITTEL
 42
3.8782183E-003
 10
8.1520549E+001
 20
2.2449396E+002
 70
1
  0
VERTEX
  8
2D_KATALOG-MITTEL
 42
3.9730401E-003
 10
8.1513959E+001
 20
2.2449016E+002
 70
0
  0
VERTEX
  8
2D_KATALOG-MITTEL
 42
4.0668761E-003
 10
8.1507478E+001
 20
2.2448627E+002
 70
1
  0
VERTEX
  8
2D_KATALOG-MITTEL
 42
4.1647584E-003
 10
8.1501103E+001
 20
2.2448231E+002
 70
0
  0
VERTEX
  8
2D_KATALOG-MITTEL
 42
4.2657274E-003
 10
8.149484E+001
 20
2.2447826E+002
 70
1
  0
VERTEX
  8
2D_KATALOG-MITTEL
 42
4.3762232E-003
 10
8.1488688E+001
 20
2.2447413E+002
 70
0
  0
VERTEX
  8
2D_KATALOG-MITTEL
 42
4.4671626E-003
 10
8.1482651E+001
 20
2.2446992E+002
 70
1
  0
VERTEX
  8
2D_KATALOG-MITTEL
 42
4.5414241E-003
 10
8.1476728E+001
 20
2.2446564E+002
 70
0
  0
VERTEX
  8
2D_KATALOG-MITTEL
 42
4.5072374E-003
 10
8.1470923E+001
 20
2.2446127E+002
 70
1
  0
VERTEX
  8
2D_KATALOG-MITTEL
 42
4.3340019E-003
 10
8.146523E+001
 20
2.2445682E+002
 70
0
  0
VERTEX
  8
2D_KATALOG-MITTEL
 42
4.195204E-003
 10
8.145965E+001
 20
2.2445231E+002
 70
1
  0
VERTEX
  8
2D_KATALOG-MITTEL
 42
4.0377222E-003
 10
8.1454179E+001
 20
2.2444774E+002
 70
0
  0
VERTEX
  8
2D_KATALOG-MITTEL
 42
3.9016763E-003
 10
8.1448817E+001
 20
2.244431E+002
 70
1
  0
VERTEX
  8
2D_KATALOG-MITTEL
 42
3.7353222E-003
 10
8.1443559E+001
 20
2.2443842E+002
 70
0
  0
VERTEX
  8
2D_KATALOG-MITTEL
 42
3.5970604E-003
 10
8.1438407E+001
 20
2.2443369E+002
 70
1
  0
VERTEX
  8
2D_KATALOG-MITTEL
 42
3.4353153E-003
 10
8.1433354E+001
 20
2.2442892E+002
 70
0
  0
VERTEX
  8
2D_KATALOG-MITTEL
 42
3.2886008E-003
 10
8.1428402E+001
 20
2.2442412E+002
 70
1
  0
VERTEX
  8
2D_KATALOG-MITTEL
 42
3.1033796E-003
 10
8.1423546E+001
 20
2.2441928E+002
 70
0
  0
VERTEX
  8
2D_KATALOG-MITTEL
 42
2.9859796E-003
 10
8.1418786E+001
 20
2.2441443E+002
 70
1
  0
VERTEX
  8
2D_KATALOG-MITTEL
 42
2.8917398E-003
 10
8.1414119E+001
 20
2.2440955E+002
 70
0
  0
VERTEX
  8
2D_KATALOG-MITTEL
 42
2.9159603E-003
 10
8.1409546E+001
 20
2.2440466E+002
 70
1
  0
VERTEX
  8
2D_KATALOG-MITTEL
 42
3.0514129E-003
 10
8.1405066E+001
 20
2.2439976E+002
 70
0
  0
VERTEX
  8
2D_KATALOG-MITTEL
 42
3.1668017E-003
 10
8.1400684E+001
 20
2.2439484E+002
 70
1
  0
VERTEX
  8
2D_KATALOG-MITTEL
 42
3.2744777E-003
 10
8.1396399E+001
 20
2.243899E+002
 70
0
  0
VERTEX
  8
2D_KATALOG-MITTEL
 42
3.383999E-003
 10
8.1392214E+001
 20
2.2438494E+002
 70
1
  0
VERTEX
  8
2D_KATALOG-MITTEL
 42
3.5054382E-003
 10
8.1388129E+001
 20
2.2437997E+002
 70
0
  0
VERTEX
  8
2D_KATALOG-MITTEL
 42
3.6212857E-003
 10
8.1384149E+001
 20
2.2437497E+002
 70
1
  0
VERTEX
  8
2D_KATALOG-MITTEL
 42
3.7420048E-003
 10
8.1380271E+001
 20
2.2436996E+002
 70
0
  0
VERTEX
  8
2D_KATALOG-MITTEL
 42
3.8649152E-003
 10
8.1376501E+001
 20
2.2436493E+002
 70
1
  0
VERTEX
  8
2D_KATALOG-MITTEL
 42
4.001723E-003
 10
8.1372836E+001
 20
2.2435987E+002
 70
0
  0
VERTEX
  8
2D_KATALOG-MITTEL
 42
4.1038697E-003
 10
8.1369283E+001
 20
2.2435479E+002
 70
1
  0
VERTEX
  8
2D_KATALOG-MITTEL
 42
4.1754944E-003
 10
8.1365837E+001
 20
2.243497E+002
 70
0
  0
VERTEX
  8
2D_KATALOG-MITTEL
 42
4.2266503E-003
 10
8.1362504E+001
 20
2.2434458E+002
 70
1
  0
VERTEX
  8
2D_KATALOG-MITTEL
 42
4.2493757E-003
 10
8.1359277E+001
 20
2.2433944E+002
 70
0
  0
VERTEX
  8
2D_KATALOG-MITTEL
 42
4.2810189E-003
 10
8.1356162E+001
 20
2.2433427E+002
 70
1
  0
VERTEX
  8
2D_KATALOG-MITTEL
 42
4.3107354E-003
 10
8.1353154E+001
 20
2.2432909E+002
 70
0
  0
VERTEX
  8
2D_KATALOG-MITTEL
 42
4.3423982E-003
 10
8.1350256E+001
 20
2.2432389E+002
 70
1
  0
VERTEX
  8
2D_KATALOG-MITTEL
 42
4.3660634E-003
 10
8.1347463E+001
 20
2.2431867E+002
 70
0
  0
VERTEX
  8
2D_KATALOG-MITTEL
 42
4.393115E-003
 10
8.1344781E+001
 20
2.2431343E+002
 70
1
  0
VERTEX
  8
2D_KATALOG-MITTEL
 42
4.4137353E-003
 10
8.1342202E+001
 20
2.2430817E+002
 70
0
  0
VERTEX
  8
2D_KATALOG-MITTEL
 42
4.436977E-003
 10
8.1339733E+001
 20
2.2430289E+002
 70
1
  0
VERTEX
  8
2D_KATALOG-MITTEL
 42
4.4533884E-003
 10
8.1337367E+001
 20
2.2429759E+002
 70
0
  0
VERTEX
  8
2D_KATALOG-MITTEL
 42
4.4676894E-003
 10
8.133511E+001
 20
2.2429228E+002
 70
1
  0
VERTEX
  8
2D_KATALOG-MITTEL
 42
4.4719932E-003
 10
8.1332956E+001
 20
2.2428695E+002
 70
0
  0
VERTEX
  8
2D_KATALOG-MITTEL
 42
4.4816046E-003
 10
8.1330909E+001
 20
2.2428161E+002
 70
1
  0
VERTEX
  8
2D_KATALOG-MITTEL
 42
4.4855709E-003
 10
8.1328966E+001
 20
2.2427626E+002
 70
0
  0
VERTEX
  8
2D_KATALOG-MITTEL
 42
4.5016848E-003
 10
8.1327131E+001
 20
2.2427089E+002
 70
1
  0
VERTEX
  8
2D_KATALOG-MITTEL
 42
4.518852E-003
 10
8.1325399E+001
 20
2.2426552E+002
 70
0
  0
VERTEX
  8
2D_KATALOG-MITTEL
 42
4.5243889E-003
 10
8.1323774E+001
 20
2.2426015E+002
 70
1
  0
VERTEX
  8
2D_KATALOG-MITTEL
 42
4.5105403E-003
 10
8.1322252E+001
 20
2.2425477E+002
 70
0
  0
VERTEX
  8
2D_KATALOG-MITTEL
 42
4.567475E-003
 10
8.1320838E+001
 20
2.2424939E+002
 70
1
  0
VERTEX
  8
2D_KATALOG-MITTEL
 42
4.6748294E-003
 10
8.1319527E+001
 20
2.24244E+002
 70
0
  0
VERTEX
  8
2D_KATALOG-MITTEL
 42
4.5691289E-003
 10
8.1318323E+001
 20
2.2423861E+002
 70
1
  0
VERTEX
  8
2D_KATALOG-MITTEL
 42
4.290281E-003
 10
8.1317222E+001
 20
2.2423325E+002
 70
0
  0
VERTEX
  8
2D_KATALOG-MITTEL
 42
4.7505656E-003
 10
8.1316229E+001
 20
2.2422792E+002
 70
1
  0
VERTEX
  8
2D_KATALOG-MITTEL
 42
5.687077E-003
 10
8.1315338E+001
 20
2.2422251E+002
 70
0
  0
VERTEX
  8
2D_KATALOG-MITTEL
 42
4.365382E-003
 10
8.1314551E+001
 20
2.24217E+002
 70
1
  0
VERTEX
  8
2D_KATALOG-MITTEL
 42
1.5306187E-003
 10
8.1313873E+001
 20
2.2421182E+002
 70
0
  0
VERTEX
  8
2D_KATALOG-MITTEL
 42
6.1757223E-003
 10
8.1313312E+001
 20
2.2420715E+002
 70
1
  0
VERTEX
  8
2D_KATALOG-MITTEL
 42
1.0794547E-002
 10
8.1312828E+001
 20
2.2420118E+002
 70
0
  0
VERTEX
  8
2D_KATALOG-MITTEL
 42
5.3662899E-003
 10
8.1312387E+001
 20
2.2419205E+002
 70
1
  0
VERTEX
  8
2D_KATALOG-MITTEL
 42
2.8653674E-003
 10
8.1311993E+001
 20
2.2418013E+002
 70
0
  0
SEQEND
  0
POLYLINE
  8
2D_KATALOG-MITTEL
  6
CONTINUOUS
 62
230
 66
1
 40
5.0E-001
 41
5.0E-001
 70
0
  0
VERTEX
  8
2D_KATALOG-MITTEL
 42
0.0
 10
8.1311989E+001
 20
2.2344502E+002
 70
0
  0
VERTEX
  8
2D_KATALOG-MITTEL
 42
0.0
 10
8.6611989E+001
 20
2.2344502E+002
 70
0
  0
SEQEND
  0
POLYLINE
  8
2D_KATALOG-MITTEL
  6
CONTINUOUS
 62
230
 66
1
 40
5.0E-001
 41
5.0E-001
 70
2
  0
VERTEX
  8
2D_KATALOG-MITTEL
 42
0.0
 10
7.7911986E+001
 20
2.2418013E+002
 70
0
  0
VERTEX
  8
2D_KATALOG-MITTEL
 42
4.9678472E-003
 10
7.7911933E+001
 20
2.2418536E+002
 70
1
  0
VERTEX
  8
2D_KATALOG-MITTEL
 42
4.922101E-003
 10
7.7911777E+001
 20
2.2419061E+002
 70
0
  0
VERTEX
  8
2D_KATALOG-MITTEL
 42
4.875113E-003
 10
7.7911515E+001
 20
2.2419589E+002
 70
1
  0
VERTEX
  8
2D_KATALOG-MITTEL
 42
4.8386943E-003
 10
7.791115E+001
 20
2.2420118E+002
 70
0
  0
VERTEX
  8
2D_KATALOG-MITTEL
 42
4.800855E-003
 10
7.7910678E+001
 20
2.2420649E+002
 70
1
  0
VERTEX
  8
2D_KATALOG-MITTEL
 42
4.7660347E-003
 10
7.7910104E+001
 20
2.2421182E+002
 70
0
  0
VERTEX
  8
2D_KATALOG-MITTEL
 42
4.7305006E-003
 10
7.7909422E+001
 20
2.2421716E+002
 70
1
  0
VERTEX
  8
2D_KATALOG-MITTEL
 42
4.7012367E-003
 10
7.7908638E+001
 20
2.2422251E+002
 70
0
  0
VERTEX
  8
2D_KATALOG-MITTEL
 42
4.6702647E-003
 10
7.7907747E+001
 20
2.2422787E+002
 70
1
  0
VERTEX
  8
2D_KATALOG-MITTEL
 42
4.6448483E-003
 10
7.7906753E+001
 20
2.2423324E+002
 70
0
  0
VERTEX
  8
2D_KATALOG-MITTEL
 42
4.6175207E-003
 10
7.7905651E+001
 20
2.2423862E+002
 70
1
  0
VERTEX
  8
2D_KATALOG-MITTEL
 42
4.5962969E-003
 10
7.7904447E+001
 20
2.24244E+002
 70
0
  0
VERTEX
  8
2D_KATALOG-MITTEL
 42
4.5726729E-003
 10
7.7903136E+001
 20
2.2424938E+002
 70
1
  0
VERTEX
  8
2D_KATALOG-MITTEL
 42
4.5552833E-003
 10
7.7901721E+001
 20
2.2425476E+002
 70
0
  0
VERTEX
  8
2D_KATALOG-MITTEL
 42
4.5351E-003
 10
7.79002E+001
 20
2.2426014E+002
 70
1
  0
VERTEX
  8
2D_KATALOG-MITTEL
 42
4.5213839E-003
 10
7.7898575E+001
 20
2.2426552E+002
 70
0
  0
VERTEX
  8
2D_KATALOG-MITTEL
 42
4.5044526E-003
 10
7.7896843E+001
 20
2.2427089E+002
 70
1
  0
VERTEX
  8
2D_KATALOG-MITTEL
 42
4.4941589E-003
 10
7.7895007E+001
 20
2.2427625E+002
 70
0
  0
VERTEX
  8
2D_KATALOG-MITTEL
 42
4.480263E-003
 10
7.7893064E+001
 20
2.2428161E+002
 70
1
  0
VERTEX
  8
2D_KATALOG-MITTEL
 42
4.4732463E-003
 10
7.7891018E+001
 20
2.2428695E+002
 70
0
  0
VERTEX
  8
2D_KATALOG-MITTEL
 42
4.462066E-003
 10
7.7888865E+001
 20
2.2429228E+002
 70
1
  0
VERTEX
  8
2D_KATALOG-MITTEL
 42
4.4576124E-003
 10
7.7886608E+001
 20
2.2429759E+002
 70
0
  0
VERTEX
  8
2D_KATALOG-MITTEL
 42
4.4442422E-003
 10
7.7884243E+001
 20
2.2430289E+002
 70
1
  0
VERTEX
  8
2D_KATALOG-MITTEL
 42
4.4300857E-003
 10
7.7881774E+001
 20
2.2430817E+002
 70
0
  0
VERTEX
  8
2D_KATALOG-MITTEL
 42
4.4089557E-003
 10
7.7879197E+001
 20
2.2431343E+002
 70
1
  0
VERTEX
  8
2D_KATALOG-MITTEL
 42
4.390853E-003
 10
7.7876515E+001
 20
2.2431867E+002
 70
0
  0
VERTEX
  8
2D_KATALOG-MITTEL
 42
4.3660631E-003
 10
7.7873724E+001
 20
2.2432389E+002
 70
1
  0
VERTEX
  8
2D_KATALOG-MITTEL
 42
4.344952E-003
 10
7.7870827E+001
 20
2.243291E+002
 70
0
  0
VERTEX
  8
2D_KATALOG-MITTEL
 42
4.3155334E-003
 10
7.7867819E+001
 20
2.2433428E+002
 70
1
  0
VERTEX
  8
2D_KATALOG-MITTEL
 42
4.2882922E-003
 10
7.7864705E+001
 20
2.2433944E+002
 70
0
  0
VERTEX
  8
2D_KATALOG-MITTEL
 42
4.2590413E-003
 10
7.786148E+001
 20
2.2434458E+002
 70
1
  0
VERTEX
  8
2D_KATALOG-MITTEL
 42
4.239209E-003
 10
7.7858147E+001
 20
2.2434971E+002
 70
0
  0
VERTEX
  8
2D_KATALOG-MITTEL
 42
4.1897013E-003
 10
7.7854701E+001
 20
2.243548E+002
 70
1
  0
VERTEX
  8
2D_KATALOG-MITTEL
 42
4.1188859E-003
 10
7.7851148E+001
 20
2.2435988E+002
 70
0
  0
VERTEX
  8
2D_KATALOG-MITTEL
 42
4.0161184E-003
 10
7.7847483E+001
 20
2.2436494E+002
 70
1
  0
VERTEX
  8
2D_KATALOG-MITTEL
 42
3.8771243E-003
 10
7.7843713E+001
 20
2.2436997E+002
 70
0
  0
VERTEX
  8
2D_KATALOG-MITTEL
 42
3.752486E-003
 10
7.7839834E+001
 20
2.2437498E+002
 70
1
  0
VERTEX
  8
2D_KATALOG-MITTEL
 42
3.6300887E-003
 10
7.7835854E+001
 20
2.2437997E+002
 70
0
  0
VERTEX
  8
2D_KATALOG-MITTEL
 42
3.5126806E-003
 10
7.7831768E+001
 20
2.2438495E+002
 70
1
  0
VERTEX
  8
2D_KATALOG-MITTEL
 42
3.389436E-003
 10
7.7827583E+001
 20
2.243899E+002
 70
0
  0
VERTEX
  8
2D_KATALOG-MITTEL
 42
3.2783398E-003
 10
7.7823296E+001
 20
2.2439484E+002
 70
1
  0
VERTEX
  8
2D_KATALOG-MITTEL
 42
3.1689472E-003
 10
7.7818913E+001
 20
2.2439976E+002
 70
0
  0
VERTEX
  8
2D_KATALOG-MITTEL
 42
3.0520004E-003
 10
7.7814432E+001
 20
2.2440466E+002
 70
1
  0
VERTEX
  8
2D_KATALOG-MITTEL
 42
2.9147716E-003
 10
7.7809859E+001
 20
2.2440955E+002
 70
0
  0
VERTEX
  8
2D_KATALOG-MITTEL
 42
2.8892808E-003
 10
7.780519E+001
 20
2.2441442E+002
 70
1
  0
VERTEX
  8
2D_KATALOG-MITTEL
 42
2.9824306E-003
 10
7.7800429E+001
 20
2.2441928E+002
 70
0
  0
VERTEX
  8
2D_KATALOG-MITTEL
 42
3.099005E-003
 10
7.7795572E+001
 20
2.2442411E+002
 70
1
  0
VERTEX
  8
2D_KATALOG-MITTEL
 42
3.2834472E-003
 10
7.779062E+001
 20
2.2442891E+002
 70
0
  0
VERTEX
  8
2D_KATALOG-MITTEL
 42
3.4294594E-003
 10
7.7785566E+001
 20
2.2443368E+002
 70
1
  0
VERTEX
  8
2D_KATALOG-MITTEL
 42
3.590391E-003
 10
7.7780413E+001
 20
2.2443841E+002
 70
0
  0
VERTEX
  8
2D_KATALOG-MITTEL
 42
3.7279548E-003
 10
7.7775154E+001
 20
2.244431E+002
 70
1
  0
VERTEX
  8
2D_KATALOG-MITTEL
 42
3.8935312E-003
 10
7.7769792E+001
 20
2.2444773E+002
 70
0
  0
VERTEX
  8
2D_KATALOG-MITTEL
 42
4.0289398E-003
 10
7.776432E+001
 20
2.244523E+002
 70
1
  0
VERTEX
  8
2D_KATALOG-MITTEL
 42
4.1857344E-003
 10
7.7758741E+001
 20
2.2445682E+002
 70
0
  0
VERTEX
  8
2D_KATALOG-MITTEL
 42
4.3238748E-003
 10
7.7753048E+001
 20
2.2446126E+002
 70
1
  0
VERTEX
  8
2D_KATALOG-MITTEL
 42
4.4962782E-003
 10
7.7747243E+001
 20
2.2446563E+002
 70
0
  0
VERTEX
  8
2D_KATALOG-MITTEL
 42
4.5309E-003
 10
7.774132E+001
 20
2.2446992E+002
 70
1
  0
VERTEX
  8
2D_KATALOG-MITTEL
 42
4.4583467E-003
 10
7.7735284E+001
 20
2.2447413E+002
 70
0
  0
VERTEX
  8
2D_KATALOG-MITTEL
 42
4.369103E-003
 10
7.7729132E+001
 20
2.2447825E+002
 70
1
  0
VERTEX
  8
2D_KATALOG-MITTEL
 42
4.2606546E-003
 10
7.772287E+001
 20
2.244823E+002
 70
0
  0
VERTEX
  8
2D_KATALOG-MITTEL
 42
4.1614386E-003
 10
7.7716497E+001
 20
2.2448627E+002
 70
1
  0
VERTEX
  8
2D_KATALOG-MITTEL
 42
4.0654227E-003
 10
7.7710016E+001
 20
2.2449015E+002
 70
0
  0
VERTEX
  8
2D_KATALOG-MITTEL
 42
3.9731992E-003
 10
7.7703427E+001
 20
2.2449396E+002
 70
1
  0
VERTEX
  8
2D_KATALOG-MITTEL
 42
3.8801308E-003
 10
7.7696735E+001
 20
2.2449769E+002
 70
0
  0
VERTEX
  8
2D_KATALOG-MITTEL
 42
3.7888772E-003
 10
7.7689937E+001
 20
2.2450134E+002
 70
1
  0
VERTEX
  8
2D_KATALOG-MITTEL
 42
3.6942377E-003
 10
7.768304E+001
 20
2.2450491E+002
 70
0
  0
VERTEX
  8
2D_KATALOG-MITTEL
 42
3.6154686E-003
 10
7.767604E+001
 20
2.2450841E+002
 70
1
  0
VERTEX
  8
2D_KATALOG-MITTEL
 42
3.5498686E-003
 10
7.7668945E+001
 20
2.2451183E+002
 70
0
  0
VERTEX
  8
2D_KATALOG-MITTEL
 42
3.576833E-003
 10
7.7661751E+001
 20
2.2451516E+002
 70
1
  0
VERTEX
  8
2D_KATALOG-MITTEL
 42
3.7198564E-003
 10
7.7654464E+001
 20
2.2451842E+002
 70
0
  0
VERTEX
  8
2D_KATALOG-MITTEL
 42
3.834847E-003
 10
7.7647083E+001
 20
2.2452158E+002
 70
1
  0
VERTEX
  8
2D_KATALOG-MITTEL
 42
3.9668958E-003
 10
7.7639613E+001
 20
2.2452464E+002
 70
0
  0
VERTEX
  8
2D_KATALOG-MITTEL
 42
4.0875766E-003
 10
7.7632053E+001
 20
2.2452759E+002
 70
1
  0
VERTEX
  8
2D_KATALOG-MITTEL
 42
4.2406328E-003
 10
7.7624408E+001
 20
2.2453044E+002
 70
0
  0
VERTEX
  8
2D_KATALOG-MITTEL
 42
4.3492012E-003
 10
7.7616677E+001
 20
2.2453316E+002
 70
1
  0
VERTEX
  8
2D_KATALOG-MITTEL
 42
4.4610107E-003
 10
7.7608866E+001
 20
2.2453576E+002
 70
0
  0
VERTEX
  8
2D_KATALOG-MITTEL
 42
4.6359433E-003
 10
7.7600978E+001
 20
2.2453822E+002
 70
1
  0
VERTEX
  8
2D_KATALOG-MITTEL
 42
4.9056032E-003
 10
7.7593003E+001
 20
2.2454055E+002
 70
0
  0
VERTEX
  8
2D_KATALOG-MITTEL
 42
4.8663723E-003
 10
7.7584938E+001
 20
2.2454272E+002
 70
1
  0
VERTEX
  8
2D_KATALOG-MITTEL
 42
4.626366E-003
 10
7.7576835E+001
 20
2.2454475E+002
 70
0
  0
VERTEX
  8
2D_KATALOG-MITTEL
 42
5.3262284E-003
 10
7.7568711E+001
 20
2.2454661E+002
 70
1
  0
VERTEX
  8
2D_KATALOG-MITTEL
 42
6.6789703E-003
 10
7.7560378E+001
 20
2.2454831E+002
 70
0
  0
VERTEX
  8
2D_KATALOG-MITTEL
 42
5.0345788E-003
 10
7.7551771E+001
 20
2.2454984E+002
 70
1
  0
VERTEX
  8
2D_KATALOG-MITTEL
 42
1.405E-003
 10
7.7543649E+001
 20
2.2455117E+002
 70
0
  0
VERTEX
  8
2D_KATALOG-MITTEL
 42
7.632711E-003
 10
7.7536272E+001
 20
2.245523E+002
 70
1
  0
VERTEX
  8
2D_KATALOG-MITTEL
 42
1.3747904E-002
 10
7.7526664E+001
 20
2.2455328E+002
 70
0
  0
VERTEX
  8
2D_KATALOG-MITTEL
 42
6.6645961E-003
 10
7.7511695E+001
 20
2.245542E+002
 70
1
  0
VERTEX
  8
2D_KATALOG-MITTEL
 42
3.4570004E-003
 10
7.7491989E+001
 20
2.2455504E+002
 70
0
  0
SEQEND
  0
POLYLINE
  8
2D_KATALOG-MITTEL
  6
CONTINUOUS
 62
230
 66
1
 40
5.0E-001
 41
5.0E-001
 70
0
  0
VERTEX
  8
2D_KATALOG-MITTEL
 42
0.0
 10
7.2611989E+001
 20
2.2344502E+002
 70
0
  0
VERTEX
  8
2D_KATALOG-MITTEL
 42
0.0
 10
7.7911989E+001
 20
2.2344502E+002
 70
0
  0
SEQEND
  0
POLYLINE
  8
2D_KATALOG-MITTEL
  6
CONTINUOUS
 62
230
 66
1
 40
5.0E-001
 41
5.0E-001
 70
2
  0
VERTEX
  8
2D_KATALOG-MITTEL
 42
0.0
 10
8.173199E+001
 20
2.3026502E+002
 70
0
  0
VERTEX
  8
2D_KATALOG-MITTEL
 42
2.6795113E-003
 10
8.1723167E+001
 20
2.302577E+002
 70
1
  0
VERTEX
  8
2D_KATALOG-MITTEL
 42
2.7496204E-003
 10
8.1714433E+001
 20
2.3025028E+002
 70
0
  0
VERTEX
  8
2D_KATALOG-MITTEL
 42
2.6945697E-003
 10
8.1705794E+001
 20
2.3024278E+002
 70
1
  0
VERTEX
  8
2D_KATALOG-MITTEL
 42
2.499152E-003
 10
8.1697242E+001
 20
2.302352E+002
 70
0
  0
VERTEX
  8
2D_KATALOG-MITTEL
 42
2.356866E-003
 10
8.1688777E+001
 20
2.3022754E+002
 70
1
  0
VERTEX
  8
2D_KATALOG-MITTEL
 42
2.2290051E-003
 10
8.1680393E+001
 20
2.3021982E+002
 70
0
  0
VERTEX
  8
2D_KATALOG-MITTEL
 42
2.1092388E-003
 10
8.1672091E+001
 20
2.3021204E+002
 70
1
  0
VERTEX
  8
2D_KATALOG-MITTEL
 42
1.964848E-003
 10
8.1663864E+001
 20
2.302042E+002
 70
0
  0
VERTEX
  8
2D_KATALOG-MITTEL
 42
1.8398783E-003
 10
8.1655712E+001
 20
2.3019631E+002
 70
1
  0
VERTEX
  8
2D_KATALOG-MITTEL
 42
1.7001574E-003
 10
8.1647631E+001
 20
2.3018838E+002
 70
0
  0
VERTEX
  8
2D_KATALOG-MITTEL
 42
1.5766701E-003
 10
8.1639619E+001
 20
2.3018041E+002
 70
1
  0
VERTEX
  8
2D_KATALOG-MITTEL
 42
1.4355879E-003
 10
8.1631671E+001
 20
2.3017241E+002
 70
0
  0
VERTEX
  8
2D_KATALOG-MITTEL
 42
1.3119929E-003
 10
8.1623787E+001
 20
2.3016439E+002
 70
1
  0
VERTEX
  8
2D_KATALOG-MITTEL
 42
1.1720716E-003
 10
8.1615961E+001
 20
2.3015635E+002
 70
0
  0
VERTEX
  8
2D_KATALOG-MITTEL
 42
1.0463583E-003
 10
8.1608194E+001
 20
2.3014829E+002
 70
1
  0
VERTEX
  8
2D_KATALOG-MITTEL
 42
9.005314E-004
 10
8.1600479E+001
 20
2.3014023E+002
 70
0
  0
VERTEX
  8
2D_KATALOG-MITTEL
 42
7.815843E-004
 10
8.1592816E+001
 20
2.3013216E+002
 70
1
  0
VERTEX
  8
2D_KATALOG-MITTEL
 42
6.57491E-004
 10
8.1585201E+001
 20
2.301241E+002
 70
0
  0
VERTEX
  8
2D_KATALOG-MITTEL
 42
5.631474E-004
 10
8.1577634E+001
 20
2.3011605E+002
 70
1
  0
VERTEX
  8
2D_KATALOG-MITTEL
 42
4.731774E-004
 10
8.1570113E+001
 20
2.3010802E+002
 70
0
  0
VERTEX
  8
2D_KATALOG-MITTEL
 42
3.907084E-004
 10
8.156264E+001
 20
2.301E+002
 70
1
  0
VERTEX
  8
2D_KATALOG-MITTEL
 42
2.93128E-004
 10
8.1555211E+001
 20
2.3009202E+002
 70
0
  0
VERTEX
  8
2D_KATALOG-MITTEL
 42
2.067611E-004
 10
8.154783E+001
 20
2.3008407E+002
 70
1
  0
VERTEX
  8
2D_KATALOG-MITTEL
 42
1.084883E-004
 10
8.1540493E+001
 20
2.3007616E+002
 70
0
  0
VERTEX
  8
2D_KATALOG-MITTEL
 42
1.99103E-005
 10
8.1533203E+001
 20
2.3006829E+002
 70
1
  0
VERTEX
  8
2D_KATALOG-MITTEL
 42
-8.20922E-005
 10
8.1525956E+001
 20
2.3006047E+002
 70
0
  0
VERTEX
  8
2D_KATALOG-MITTEL
 42
-1.743642E-004
 10
8.1518755E+001
 20
2.3005271E+002
 70
1
  0
VERTEX
  8
2D_KATALOG-MITTEL
 42
-2.801366E-004
 10
8.1511597E+001
 20
2.3004501E+002
 70
0
  0
VERTEX
  8
2D_KATALOG-MITTEL
 42
-3.776626E-004
 10
8.1504484E+001
 20
2.3003738E+002
 70
1
  0
VERTEX
  8
2D_KATALOG-MITTEL
 42
-4.90471E-004
 10
8.1497413E+001
 20
2.3002982E+002
 70
0
  0
VERTEX
  8
2D_KATALOG-MITTEL
 42
-5.919871E-004
 10
8.1490386E+001
 20
2.3002235E+002
 70
1
  0
VERTEX
  8
2D_KATALOG-MITTEL
 42
-7.052598E-004
 10
8.1483401E+001
 20
2.3001495E+002
 70
0
  0
VERTEX
  8
2D_KATALOG-MITTEL
 42
-8.223767E-004
 10
8.1476459E+001
 20
2.3000764E+002
 70
1
  0
VERTEX
  8
2D_KATALOG-MITTEL
 42
-9.691826E-004
 10
8.1469559E+001
 20
2.3000043E+002
 70
0
  0
VERTEX
  8
2D_KATALOG-MITTEL
 42
-1.0319746E-003
 10
8.14627E+001
 20
2.2999333E+002
 70
1
  0
VERTEX
  8
2D_KATALOG-MITTEL
 42
-1.0171459E-003
 10
8.1455887E+001
 20
2.2998632E+002
 70
0
  0
VERTEX
  8
2D_KATALOG-MITTEL
 42
-9.7456E-004
 10
8.1449127E+001
 20
2.2997943E+002
 70
1
  0
VERTEX
  8
2D_KATALOG-MITTEL
 42
-8.834546E-004
 10
8.1442428E+001
 20
2.2997265E+002
 70
0
  0
VERTEX
  8
2D_KATALOG-MITTEL
 42
-8.134809E-004
 10
8.14358E+001
 20
2.2996599E+002
 70
1
  0
VERTEX
  8
2D_KATALOG-MITTEL
 42
-7.386892E-004
 10
8.1429249E+001
 20
2.2995945E+002
 70
0
  0
VERTEX
  8
2D_KATALOG-MITTEL
 42
-6.72595E-004
 10
8.1422787E+001
 20
2.2995303E+002
 70
1
  0
VERTEX
  8
2D_KATALOG-MITTEL
 42
-5.898639E-004
 10
8.1416419E+001
 20
2.2994674E+002
 70
0
  0
VERTEX
  8
2D_KATALOG-MITTEL
 42
-5.17777E-004
 10
8.1410157E+001
 20
2.2994058E+002
 70
1
  0
VERTEX
  8
2D_KATALOG-MITTEL
 42
-4.302318E-004
 10
8.1404005E+001
 20
2.2993455E+002
 70
0
  0
VERTEX
  8
2D_KATALOG-MITTEL
 42
-3.52048E-004
 10
8.1397977E+001
 20
2.2992866E+002
 70
1
  0
VERTEX
  8
2D_KATALOG-MITTEL
 42
-2.567084E-004
 10
8.1392076E+001
 20
2.2992291E+002
 70
0
  0
VERTEX
  8
2D_KATALOG-MITTEL
 42
-1.66333E-004
 10
8.1386316E+001
 20
2.299173E+002
 70
1
  0
VERTEX
  8
2D_KATALOG-MITTEL
 42
-5.27804E-005
 10
8.13807E+001
 20
2.2991184E+002
 70
0
  0
VERTEX
  8
2D_KATALOG-MITTEL
 42
3.7621E-006
 10
8.1375242E+001
 20
2.2990654E+002
 70
1
  0
VERTEX
  8
2D_KATALOG-MITTEL
 42
1.21822E-005
 10
8.1369945E+001
 20
2.2990139E+002
 70
0
  0
VERTEX
  8
2D_KATALOG-MITTEL
 42
1.52073E-005
 10
8.1364824E+001
 20
2.2989641E+002
 70
1
  0
VERTEX
  8
2D_KATALOG-MITTEL
 42
1.25339E-005
 10
8.1359881E+001
 20
2.2989161E+002
 70
0
  0
VERTEX
  8
2D_KATALOG-MITTEL
 42
1.15606E-005
 10
8.1355133E+001
 20
2.2988699E+002
 70
1
  0
VERTEX
  8
2D_KATALOG-MITTEL
 42
1.19652E-005
 10
8.1350579E+001
 20
2.2988256E+002
 70
0
  0
VERTEX
  8
2D_KATALOG-MITTEL
 42
1.22029E-005
 10
8.1346237E+001
 20
2.2987834E+002
 70
1
  0
VERTEX
  8
2D_KATALOG-MITTEL
 42
1.1876E-005
 10
8.1342108E+001
 20
2.2987432E+002
 70
0
  0
VERTEX
  8
2D_KATALOG-MITTEL
 42
1.19877E-005
 10
8.1338209E+001
 20
2.2987053E+002
 70
1
  0
VERTEX
  8
2D_KATALOG-MITTEL
 42
1.2163E-005
 10
8.1334539E+001
 20
2.2986696E+002
 70
0
  0
VERTEX
  8
2D_KATALOG-MITTEL
 42
1.24641E-005
 10
8.1331116E+001
 20
2.2986363E+002
 70
1
  0
VERTEX
  8
2D_KATALOG-MITTEL
 42
1.23763E-005
 10
8.1327941E+001
 20
2.2986054E+002
 70
0
  0
VERTEX
  8
2D_KATALOG-MITTEL
 42
1.36909E-005
 10
8.1325035E+001
 20
2.2985771E+002
 70
1
  0
VERTEX
  8
2D_KATALOG-MITTEL
 42
1.63767E-005
 10
8.1322386E+001
 20
2.2985514E+002
 70
0
  0
VERTEX
  8
2D_KATALOG-MITTEL
 42
1.60391E-005
 10
8.1320014E+001
 20
2.2985283E+002
 70
1
  0
VERTEX
  8
2D_KATALOG-MITTEL
 42
9.846E-006
 10
8.1317944E+001
 20
2.2985081E+002
 70
0
  0
VERTEX
  8
2D_KATALOG-MITTEL
 42
2.42434E-005
 10
8.1316206E+001
 20
2.2984912E+002
 70
1
  0
VERTEX
  8
2D_KATALOG-MITTEL
 42
7.12781E-005
 10
8.1314684E+001
 20
2.2984764E+002
 70
0
  0
VERTEX
  8
2D_KATALOG-MITTEL
 42
9.50907E-005
 10
8.1313276E+001
 20
2.2984627E+002
 70
1
  0
VERTEX
  8
2D_KATALOG-MITTEL
 42
1.058251E-004
 10
8.1311993E+001
 20
2.2984502E+002
 70
0
  0
SEQEND
  0
POLYLINE
  8
2D_KATALOG-MITTEL
  6
CONTINUOUS
 62
230
 66
1
 40
5.0E-001
 41
5.0E-001
 70
2
  0
VERTEX
  8
2D_KATALOG-MITTEL
 42
0.0
 10
7.7491989E+001
 20
2.3026502E+002
 70
0
  0
VERTEX
  8
2D_KATALOG-MITTEL
 42
2.6810994E-003
 10
7.7499317E+001
 20
2.302562E+002
 70
1
  0
VERTEX
  8
2D_KATALOG-MITTEL
 42
2.7512574E-003
 10
7.750673E+001
 20
2.3024747E+002
 70
0
  0
VERTEX
  8
2D_KATALOG-MITTEL
 42
2.6961584E-003
 10
7.7514231E+001
 20
2.3023883E+002
 70
1
  0
VERTEX
  8
2D_KATALOG-MITTEL
 42
2.5005852E-003
 10
7.7521812E+001
 20
2.3023027E+002
 70
0
  0
VERTEX
  8
2D_KATALOG-MITTEL
 42
2.3581846E-003
 10
7.7529467E+001
 20
2.3022181E+002
 70
1
  0
VERTEX
  8
2D_KATALOG-MITTEL
 42
2.2302204E-003
 10
7.7537188E+001
 20
2.3021343E+002
 70
0
  0
VERTEX
  8
2D_KATALOG-MITTEL
 42
2.1103571E-003
 10
7.7544971E+001
 20
2.3020512E+002
 70
1
  0
VERTEX
  8
2D_KATALOG-MITTEL
 42
1.9658517E-003
 10
7.7552809E+001
 20
2.301969E+002
 70
0
  0
VERTEX
  8
2D_KATALOG-MITTEL
 42
1.8407821E-003
 10
7.7560697E+001
 20
2.3018874E+002
 70
1
  0
VERTEX
  8
2D_KATALOG-MITTEL
 42
1.700951E-003
 10
7.7568628E+001
 20
2.3018066E+002
 70
0
  0
VERTEX
  8
2D_KATALOG-MITTEL
 42
1.577366E-003
 10
7.7576596E+001
 20
2.3017265E+002
 70
1
  0
VERTEX
  8
2D_KATALOG-MITTEL
 42
1.436173E-003
 10
7.7584595E+001
 20
2.301647E+002
 70
0
  0
VERTEX
  8
2D_KATALOG-MITTEL
 42
1.3124817E-003
 10
7.759262E+001
 20
2.3015682E+002
 70
1
  0
VERTEX
  8
2D_KATALOG-MITTEL
 42
1.1724531E-003
 10
7.7600663E+001
 20
2.3014899E+002
 70
0
  0
VERTEX
  8
2D_KATALOG-MITTEL
 42
1.0466401E-003
 10
7.7608721E+001
 20
2.3014123E+002
 70
1
  0
VERTEX
  8
2D_KATALOG-MITTEL
 42
9.006949E-004
 10
7.7616785E+001
 20
2.3013351E+002
 70
0
  0
VERTEX
  8
2D_KATALOG-MITTEL
 42
7.816653E-004
 10
7.762485E+001
 20
2.3012585E+002
 70
1
  0
VERTEX
  8
2D_KATALOG-MITTEL
 42
6.575044E-004
 10
7.763291E+001
 20
2.3011823E+002
 70
0
  0
VERTEX
  8
2D_KATALOG-MITTEL
 42
5.631357E-004
 10
7.764096E+001
 20
2.3011067E+002
 70
1
  0
VERTEX
  8
2D_KATALOG-MITTEL
 42
4.731768E-004
 10
7.7648994E+001
 20
2.3010315E+002
 70
0
  0
VERTEX
  8
2D_KATALOG-MITTEL
 42
3.907114E-004
 10
7.7657005E+001
 20
2.3009567E+002
 70
1
  0
VERTEX
  8
2D_KATALOG-MITTEL
 42
2.931281E-004
 10
7.7664989E+001
 20
2.3008824E+002
 70
0
  0
VERTEX
  8
2D_KATALOG-MITTEL
 42
2.067603E-004
 10
7.767294E+001
 20
2.3008086E+002
 70
1
  0
VERTEX
  8
2D_KATALOG-MITTEL
 42
1.084882E-004
 10
7.7680852E+001
 20
2.3007353E+002
 70
0
  0
VERTEX
  8
2D_KATALOG-MITTEL
 42
1.99106E-005
 10
7.7688718E+001
 20
2.3006623E+002
 70
1
  0
VERTEX
  8
2D_KATALOG-MITTEL
 42
-8.20922E-005
 10
7.7696536E+001
 20
2.3005899E+002
 70
0
  0
VERTEX
  8
2D_KATALOG-MITTEL
 42
-1.743642E-004
 10
7.7704296E+001
 20
2.3005179E+002
 70
1
  0
VERTEX
  8
2D_KATALOG-MITTEL
 42
-2.801366E-004
 10
7.7711995E+001
 20
2.3004463E+002
 70
0
  0
VERTEX
  8
2D_KATALOG-MITTEL
 42
-3.776626E-004
 10
7.7719626E+001
 20
2.3003752E+002
 70
1
  0
VERTEX
  8
2D_KATALOG-MITTEL
 42
-4.90471E-004
 10
7.7727185E+001
 20
2.3003044E+002
 70
0
  0
VERTEX
  8
2D_KATALOG-MITTEL
 42
-5.919871E-004
 10
7.7734664E+001
 20
2.3002342E+002
 70
1
  0
VERTEX
  8
2D_KATALOG-MITTEL
 42
-7.052598E-004
 10
7.7742061E+001
 20
2.3001643E+002
 70
0
  0
VERTEX
  8
2D_KATALOG-MITTEL
 42
-8.223767E-004
 10
7.7749365E+001
 20
2.3000949E+002
 70
1
  0
VERTEX
  8
2D_KATALOG-MITTEL
 42
-9.691826E-004
 10
7.7756576E+001
 20
2.3000259E+002
 70
0
  0
VERTEX
  8
2D_KATALOG-MITTEL
 42
-1.0319746E-003
 10
7.7763683E+001
 20
2.2999573E+002
 70
1
  0
VERTEX
  8
2D_KATALOG-MITTEL
 42
-1.0171459E-003
 10
7.7770686E+001
 20
2.2998892E+002
 70
0
  0
VERTEX
  8
2D_KATALOG-MITTEL
 42
-9.7456E-004
 10
7.7777578E+001
 20
2.2998216E+002
 70
1
  0
VERTEX
  8
2D_KATALOG-MITTEL
 42
-8.834546E-004
 10
7.7784358E+001
 20
2.2997546E+002
 70
0
  0
VERTEX
  8
2D_KATALOG-MITTEL
 42
-8.134809E-004
 10
7.7791019E+001
 20
2.2996883E+002
 70
1
  0
VERTEX
  8
2D_KATALOG-MITTEL
 42
-7.386892E-004
 10
7.7797563E+001
 20
2.2996228E+002
 70
0
  0
VERTEX
  8
2D_KATALOG-MITTEL
 42
-6.72595E-004
 10
7.7803981E+001
 20
2.2995582E+002
 70
1
  0
VERTEX
  8
2D_KATALOG-MITTEL
 42
-5.89864E-004
 10
7.7810274E+001
 20
2.2994945E+002
 70
0
  0
VERTEX
  8
2D_KATALOG-MITTEL
 42
-5.17777E-004
 10
7.7816434E+001
 20
2.2994319E+002
 70
1
  0
VERTEX
  8
2D_KATALOG-MITTEL
 42
-4.302312E-004
 10
7.7822463E+001
 20
2.2993704E+002
 70
0
  0
VERTEX
  8
2D_KATALOG-MITTEL
 42
-3.520481E-004
 10
7.7828352E+001
 20
2.2993101E+002
 70
1
  0
VERTEX
  8
2D_KATALOG-MITTEL
 42
-2.567107E-004
 10
7.7834103E+001
 20
2.2992511E+002
 70
0
  0
VERTEX
  8
2D_KATALOG-MITTEL
 42
-1.663326E-004
 10
7.7839707E+001
 20
2.2991935E+002
 70
1
  0
VERTEX
  8
2D_KATALOG-MITTEL
 42
-5.27713E-005
 10
7.7845166E+001
 20
2.2991373E+002
 70
0
  0
VERTEX
  8
2D_KATALOG-MITTEL
 42
3.6757E-006
 10
7.785047E+001
 20
2.2990827E+002
 70
1
  0
VERTEX
  8
2D_KATALOG-MITTEL
 42
1.1856E-005
 10
7.7855619E+001
 20
2.2990298E+002
 70
0
  0
VERTEX
  8
2D_KATALOG-MITTEL
 42
1.46326E-005
 10
7.7860597E+001
 20
2.2989786E+002
 70
1
  0
VERTEX
  8
2D_KATALOG-MITTEL
 42
1.16402E-005
 10
7.7865402E+001
 20
2.2989291E+002
 70
0
  0
VERTEX
  8
2D_KATALOG-MITTEL
 42
1.03339E-005
 10
7.7870019E+001
 20
2.2988816E+002
 70
1
  0
VERTEX
  8
2D_KATALOG-MITTEL
 42
1.03233E-005
 10
7.7874447E+001
 20
2.2988361E+002
 70
0
  0
VERTEX
  8
2D_KATALOG-MITTEL
 42
1.0122E-005
 10
7.7878669E+001
 20
2.2987927E+002
 70
1
  0
VERTEX
  8
2D_KATALOG-MITTEL
 42
9.2636E-006
 10
7.7882685E+001
 20
2.2987514E+002
 70
0
  0
VERTEX
  8
2D_KATALOG-MITTEL
 42
8.6857E-006
 10
7.7886478E+001
 20
2.2987124E+002
 70
1
  0
VERTEX
  8
2D_KATALOG-MITTEL
 42
7.8928E-006
 10
7.7890048E+001
 20
2.2986757E+002
 70
0
  0
VERTEX
  8
2D_KATALOG-MITTEL
 42
7.349E-006
 10
7.7893377E+001
 20
2.2986415E+002
 70
1
  0
VERTEX
  8
2D_KATALOG-MITTEL
 42
6.5661E-006
 10
7.7896466E+001
 20
2.2986097E+002
 70
0
  0
VERTEX
  8
2D_KATALOG-MITTEL
 42
5.378E-006
 10
7.7899294E+001
 20
2.2985806E+002
 70
1
  0
VERTEX
  8
2D_KATALOG-MITTEL
 42
2.7319E-006
 10
7.790187E+001
 20
2.2985542E+002
 70
0
  0
VERTEX
  8
2D_KATALOG-MITTEL
 42
2.4662E-006
 10
7.7904179E+001
 20
2.2985304E+002
 70
1
  0
VERTEX
  8
2D_KATALOG-MITTEL
 42
5.8981E-006
 10
7.7906194E+001
 20
2.2985097E+002
 70
0
  0
VERTEX
  8
2D_KATALOG-MITTEL
 42
-4.518E-006
 10
7.7907884E+001
 20
2.2984923E+002
 70
1
  0
VERTEX
  8
2D_KATALOG-MITTEL
 42
-4.23131E-005
 10
7.7909366E+001
 20
2.2984771E+002
 70
0
  0
VERTEX
  8
2D_KATALOG-MITTEL
 42
-6.07356E-005
 10
7.7910737E+001
 20
2.298463E+002
 70
1
  0
VERTEX
  8
2D_KATALOG-MITTEL
 42
-6.33768E-005
 10
7.7911986E+001
 20
2.2984502E+002
 70
0
  0
SEQEND
  0
LINE
  8
2D_MITTELLINIEN
  6
CENTERLINE
 62
3
 10
7.5611989E+001
 20
2.3264502E+002
 11
7.5611989E+001
 21
2.290374E+002
  0
LINE
  8
2D_MITTELLINIEN
  6
CENTERLINE
 62
3
 10
8.3611989E+001
 20
2.3264502E+002
 11
8.3611989E+001
 21
2.2896562E+002
  0
LINE
  8
2D_VERDECKTE_KANTEN
  6
HIDDEN
 62
150
 10
8.1311989E+001
 20
2.2984502E+002
 11
8.6611989E+001
 21
2.2984502E+002
  0
LINE
  8
2D_VERDECKTE_KANTEN
  6
HIDDEN
 62
150
 10
7.7911989E+001
 20
2.2984502E+002
 11
7.2611989E+001
 21
2.2984502E+002
  0
LINE
  8
2D_VERDECKTE_KANTEN
  6
HIDDEN
 62
150
 10
7.4311989E+001
 20
2.2984502E+002
 11
7.4311989E+001
 21
2.3184502E+002
  0
LINE
  8
2D_VERDECKTE_KANTEN
  6
HIDDEN
 62
150
 10
7.6911989E+001
 20
2.2984502E+002
 11
7.6911989E+001
 21
2.3184502E+002
  0
LINE
  8
2D_VERDECKTE_KANTEN
  6
HIDDEN
 62
150
 10
8.2311989E+001
 20
2.2984502E+002
 11
8.2311989E+001
 21
2.3184502E+002
  0
LINE
  8
2D_VERDECKTE_KANTEN
  6
HIDDEN
 62
150
 10
8.4911989E+001
 20
2.2984502E+002
 11
8.4911989E+001
 21
2.3184502E+002
  0
LINE
  8
2D_VERDECKTE_KANTEN
  6
HIDDEN
 62
150
 10
1.1832281E+002
 20
2.2401851E+002
 11
1.1832281E+002
 21
2.282957E+002
  0
LINE
  8
2D_VERDECKTE_KANTEN
  6
HIDDEN
 62
150
 10
1.1787217E+002
 20
2.2436178E+002
 11
1.1787217E+002
 21
2.2784506E+002
  0
LINE
  8
2D_VERDECKTE_KANTEN
  6
HIDDEN
 62
150
 10
1.2222153E+002
 20
2.2401851E+002
 11
1.2222153E+002
 21
2.282957E+002
  0
POLYLINE
  8
2D_KATALOG-MITTEL
  6
CONTINUOUS
 62
230
 66
1
 40
5.0E-001
 41
5.0E-001
 70
0
  0
VERTEX
  8
2D_KATALOG-MITTEL
 42
0.0
 10
1.2267217E+002
 20
2.2436178E+002
 70
0
  0
VERTEX
  8
2D_KATALOG-MITTEL
 42
0.0
 10
1.2267217E+002
 20
2.2784506E+002
 70
0
  0
SEQEND
  0
TEXT
  8
2D_BEMASSUNG
  6
CONTINUOUS
 62
1
 10
1.3965232E+002
 20
1.5494183E+002
 40
2.5
  1
294 - bei Hub: 500mm
 41
8.0E-001
 50
9.0E+001
  0
LINE
  8
2D_MITTELLINIEN
  6
CENTERLINE
 62
3
 10
1.2027217E+002
 20
1.5072358E+002
 11
1.2027217E+002
 21
2.3005552E+002
  0
POLYLINE
  8
2D_KATALOG-MITTEL
  6
CONTINUOUS
 62
230
 66
1
 40
5.0E-001
 41
5.0E-001
 70
0
  0
VERTEX
  8
2D_KATALOG-MITTEL
 42
4.1421356E-001
 10
1.1767217E+002
 20
2.2784506E+002
 70
0
  0
VERTEX
  8
2D_KATALOG-MITTEL
 42
0.0
 10
1.1567217E+002
 20
2.2984506E+002
 70
0
  0
SEQEND
  0
POLYLINE
  8
2D_KATALOG-MITTEL
  6
CONTINUOUS
 62
230
 66
1
 40
5.0E-001
 41
5.0E-001
 70
0
  0
VERTEX
  8
2D_KATALOG-MITTEL
 42
0.0
 10
1.2287217E+002
 20
2.3184506E+002
 70
0
  0
VERTEX
  8
2D_KATALOG-MITTEL
 42
0.0
 10
1.2287217E+002
 20
2.2455508E+002
 70
0
  0
SEQEND
  0
POLYLINE
  8
2D_KATALOG-MITTEL
  6
CONTINUOUS
 62
230
 66
1
 40
5.0E-001
 41
5.0E-001
 70
0
  0
VERTEX
  8
2D_KATALOG-MITTEL
 42
0.0
 10
1.1767217E+002
 20
2.2784506E+002
 70
0
  0
VERTEX
  8
2D_KATALOG-MITTEL
 42
0.0
 10
1.1767217E+002
 20
2.2455508E+002
 70
0
  0
SEQEND
  0
POLYLINE
  8
2D_KATALOG-MITTEL
  6
CONTINUOUS
 62
230
 66
1
 40
5.0E-001
 41
5.0E-001
 70
0
  0
VERTEX
  8
2D_KATALOG-MITTEL
 42
1.932295E-002
 10
1.2267217E+002
 20
2.2436178E+002
 70
0
  0
VERTEX
  8
2D_KATALOG-MITTEL
 42
0.0
 10
1.2287217E+002
 20
2.2455508E+002
 70
0
  0
SEQEND
  0
POLYLINE
  8
2D_KATALOG-MITTEL
  6
CONTINUOUS
 62
230
 66
1
 40
5.0E-001
 41
5.0E-001
 70
0
  0
VERTEX
  8
2D_KATALOG-MITTEL
 42
4.0427278E-001
 10
1.1767217E+002
 20
2.2455508E+002
 70
0
  0
VERTEX
  8
2D_KATALOG-MITTEL
 42
0.0
 10
1.2267217E+002
 20
2.2436178E+002
 70
0
  0
SEQEND
  0
POLYLINE
  8
2D_KATALOG-MITTEL
  6
CONTINUOUS
 62
230
 66
1
 40
5.0E-001
 41
5.0E-001
 70
0
  0
VERTEX
  8
2D_KATALOG-MITTEL
 42
1.0
 10
1.2147217E+002
 20
2.2584506E+002
 70
0
  0
VERTEX
  8
2D_KATALOG-MITTEL
 42
1.0
 10
1.1907217E+002
 20
2.2584506E+002
 70
0
  0
VERTEX
  8
2D_KATALOG-MITTEL
 42
0.0
 10
1.2147217E+002
 20
2.2584506E+002
 70
0
  0
SEQEND
  0
POLYLINE
  8
2D_KATALOG-MITTEL
  6
CONTINUOUS
 62
230
 66
1
 40
5.0E-001
 41
5.0E-001
 70
0
  0
VERTEX
  8
2D_KATALOG-MITTEL
 42
0.0
 10
1.1087217E+002
 20
2.2984506E+002
 70
0
  0
VERTEX
  8
2D_KATALOG-MITTEL
 42
0.0
 10
1.1087217E+002
 20
2.3184506E+002
 70
0
  0
SEQEND
  0
POLYLINE
  8
2D_KATALOG-MITTEL
  6
CONTINUOUS
 62
230
 66
1
 40
5.0E-001
 41
5.0E-001
 70
0
  0
VERTEX
  8
2D_KATALOG-MITTEL
 42
0.0
 10
1.2287217E+002
 20
2.3184506E+002
 70
0
  0
VERTEX
  8
2D_KATALOG-MITTEL
 42
0.0
 10
1.1087217E+002
 20
2.3184506E+002
 70
0
  0
SEQEND
  0
POLYLINE
  8
2D_KATALOG-MITTEL
  6
CONTINUOUS
 62
230
 66
1
 40
5.0E-001
 41
5.0E-001
 70
0
  0
VERTEX
  8
2D_KATALOG-MITTEL
 42
0.0
 10
1.1087217E+002
 20
2.2984506E+002
 70
0
  0
VERTEX
  8
2D_KATALOG-MITTEL
 42
0.0
 10
1.1567217E+002
 20
2.2984506E+002
 70
0
  0
SEQEND
  0
POLYLINE
  8
2D_KATALOG-MITTEL
  6
CONTINUOUS
 62
230
 66
1
 40
5.0E-001
 41
5.0E-001
 70
0
  0
VERTEX
  8
2D_KATALOG-MITTEL
 42
0.0
 10
1.1107217E+002
 20
2.3184506E+002
 70
0
  0
VERTEX
  8
2D_KATALOG-MITTEL
 42
0.0
 10
1.1107217E+002
 20
2.2984506E+002
 70
0
  0
SEQEND
  0
POLYLINE
  8
2D_KATALOG-MITTEL
  6
CONTINUOUS
 62
230
 66
1
 40
5.0E-001
 41
5.0E-001
 70
0
  0
VERTEX
  8
2D_KATALOG-MITTEL
 42
0.0
 10
1.2267217E+002
 20
2.2436178E+002
 70
0
  0
VERTEX
  8
2D_KATALOG-MITTEL
 42
0.0
 10
1.2267217E+002
 20
2.3184506E+002
 70
0
  0
SEQEND
  0
POLYLINE
  8
2D_KATALOG-MITTEL
  6
CONTINUOUS
 62
230
 66
1
 40
5.0E-001
 41
5.0E-001
 70
0
  0
VERTEX
  8
2D_KATALOG-MITTEL
 42
9.6273414E-002
 10
1.191502E+002
 20
2.2627071E+002
 70
0
  0
VERTEX
  8
2D_KATALOG-MITTEL
 42
0.0
 10
1.1907244E+002
 20
2.258195E+002
 70
0
  0
SEQEND
  0
LINE
  8
2D_MITTELLINIEN
  6
CENTERLINE
 62
3
 10
1.2027217E+002
 20
2.2390999E+002
 11
1.2027217E+002
 21
2.2878908E+002
  0
LINE
  8
2D_MITTELLINIEN
  6
CENTERLINE
 62
3
 10
1.2226874E+002
 20
2.2584506E+002
 11
1.1819557E+002
 21
2.2584506E+002
  0
LINE
  8
2D_MITTELLINIEN
  6
CENTERLINE
 62
3
 10
1.1407217E+002
 20
2.2921984E+002
 11
1.1407217E+002
 21
2.331522E+002
  0
POLYLINE
  8
2D_KATALOG-MITTEL
  6
CONTINUOUS
 62
230
 66
1
 40
5.0E-001
 41
5.0E-001
 70
0
  0
VERTEX
  8
2D_KATALOG-MITTEL
 42
1.0
 10
1.2129217E+002
 20
2.2584506E+002
 70
0
  0
VERTEX
  8
2D_KATALOG-MITTEL
 42
1.0
 10
1.1925217E+002
 20
2.2584506E+002
 70
0
  0
VERTEX
  8
2D_KATALOG-MITTEL
 42
0.0
 10
1.2129217E+002
 20
2.2584506E+002
 70
0
  0
SEQEND
  0
POLYLINE
  8
2D_KATALOG-MITTEL
  6
CONTINUOUS
 62
230
 66
1
 40
5.0E-001
 41
5.0E-001
 70
0
  0
VERTEX
  8
2D_KATALOG-MITTEL
 42
0.0
 10
1.20838E+002
 20
2.2669373E+002
 70
0
  0
VERTEX
  8
2D_KATALOG-MITTEL
 42
0.0
 10
1.194235E+002
 20
2.2527923E+002
 70
0
  0
SEQEND
  0
POLYLINE
  8
2D_KATALOG-MITTEL
  6
CONTINUOUS
 62
230
 66
1
 40
5.0E-001
 41
5.0E-001
 70
0
  0
VERTEX
  8
2D_KATALOG-MITTEL
 42
0.0
 10
1.2112084E+002
 20
2.2641089E+002
 70
0
  0
VERTEX
  8
2D_KATALOG-MITTEL
 42
0.0
 10
1.1970635E+002
 20
2.2499639E+002
 70
0
  0
SEQEND
  0
LINE
  8
2D_VERDECKTE_KANTEN
  6
HIDDEN
 62
150
 10
1.1277217E+002
 20
2.2984506E+002
 11
1.1277217E+002
 21
2.3184506E+002
  0
LINE
  8
2D_VERDECKTE_KANTEN
  6
HIDDEN
 62
150
 10
1.1537217E+002
 20
2.2984506E+002
 11
1.1537217E+002
 21
2.3184506E+002
  0
LINE
  8
2D_BEMASSUNG
  6
CONTINUOUS
 62
1
 10
1.2407217E+002
 20
2.1144502E+002
 11
1.3704875E+002
 21
2.1144502E+002
  0
LINE
  8
2D_BEMASSUNG
  6
CONTINUOUS
 62
1
 10
1.2457349E+002
 20
1.3704502E+002
 11
1.3704875E+002
 21
1.3704502E+002
  0
LINE
  8
2D_BEMASSUNG
  6
CONTINUOUS
 62
1
 10
1.3504875E+002
 20
2.1144502E+002
 11
1.3463208E+002
 21
2.0894502E+002
  0
LINE
  8
2D_BEMASSUNG
  6
CONTINUOUS
 62
1
 10
1.3504875E+002
 20
2.1144502E+002
 11
1.3546542E+002
 21
2.0894502E+002
  0
LINE
  8
2D_BEMASSUNG
  6
CONTINUOUS
 62
1
 10
1.3463208E+002
 20
2.0894502E+002
 11
1.3546542E+002
 21
2.0894502E+002
  0
LINE
  8
2D_BEMASSUNG
  6
CONTINUOUS
 62
1
 10
1.3504875E+002
 20
1.3704502E+002
 11
1.3463208E+002
 21
1.3954502E+002
  0
LINE
  8
2D_BEMASSUNG
  6
CONTINUOUS
 62
1
 10
1.3504875E+002
 20
1.3704502E+002
 11
1.3546542E+002
 21
1.3954502E+002
  0
LINE
  8
2D_BEMASSUNG
  6
CONTINUOUS
 62
1
 10
1.3463208E+002
 20
1.3954502E+002
 11
1.3546542E+002
 21
1.3954502E+002
  0
LINE
  8
2D_BEMASSUNG
  6
CONTINUOUS
 62
1
 10
1.3504875E+002
 20
2.1144502E+002
 11
1.3504875E+002
 21
1.7424502E+002
  0
LINE
  8
2D_BEMASSUNG
  6
CONTINUOUS
 62
1
 10
1.3504875E+002
 20
1.3704502E+002
 11
1.3504875E+002
 21
1.7424502E+002
  0
TEXT
  8
2D_BEMASSUNG
  6
CONTINUOUS
 62
1
 10
1.3354775E+002
 20
1.5424502E+002
 40
2.5
  1
186
 41
8.0E-001
 50
9.0E+001
  0
TEXT
  8
2D_BEMASSUNG
  6
CONTINUOUS
 62
1
 10
1.3354775E+002
 20
1.6024502E+002
 40
2.5
  1
 - bei Hub: 285mm
 41
8.0E-001
 50
9.0E+001
  0
LINE
  8
2D_BEMASSUNG
  6
CONTINUOUS
 62
1
 10
1.2227277E+002
 20
2.2584506E+002
 11
1.3704875E+002
 21
2.2584506E+002
  0
LINE
  8
2D_BEMASSUNG
  6
CONTINUOUS
 62
1
 10
1.3504875E+002
 20
2.1144502E+002
 11
1.3546542E+002
 21
2.1394502E+002
  0
LINE
  8
2D_BEMASSUNG
  6
CONTINUOUS
 62
1
 10
1.3504875E+002
 20
2.1144502E+002
 11
1.3463208E+002
 21
2.1394502E+002
  0
LINE
  8
2D_BEMASSUNG
  6
CONTINUOUS
 62
1
 10
1.3546542E+002
 20
2.1394502E+002
 11
1.3463208E+002
 21
2.1394502E+002
  0
LINE
  8
2D_BEMASSUNG
  6
CONTINUOUS
 62
1
 10
1.3504875E+002
 20
2.2584506E+002
 11
1.3546542E+002
 21
2.2334506E+002
  0
LINE
  8
2D_BEMASSUNG
  6
CONTINUOUS
 62
1
 10
1.3504875E+002
 20
2.2584506E+002
 11
1.3463208E+002
 21
2.2334506E+002
  0
LINE
  8
2D_BEMASSUNG
  6
CONTINUOUS
 62
1
 10
1.3546542E+002
 20
2.2334506E+002
 11
1.3463208E+002
 21
2.2334506E+002
  0
LINE
  8
2D_BEMASSUNG
  6
CONTINUOUS
 62
1
 10
1.3504875E+002
 20
2.1144502E+002
 11
1.3504875E+002
 21
2.1864504E+002
  0
LINE
  8
2D_BEMASSUNG
  6
CONTINUOUS
 62
1
 10
1.3504875E+002
 20
2.2584506E+002
 11
1.3504875E+002
 21
2.1864504E+002
  0
TEXT
  8
2D_BEMASSUNG
  6
CONTINUOUS
 62
1
 10
1.3354775E+002
 20
2.1664504E+002
 40
2.5
  1
36
 41
8.0E-001
 50
9.0E+001
  0
LINE
  8
2D_BEMASSUNG
  6
CONTINUOUS
 62
1
 10
1.2027217E+002
 20
1.2104502E+002
 11
1.3704875E+002
 21
1.2104502E+002
  0
LINE
  8
2D_BEMASSUNG
  6
CONTINUOUS
 62
1
 10
1.3504875E+002
 20
1.3704502E+002
 11
1.3463208E+002
 21
1.3454502E+002
  0
LINE
  8
2D_BEMASSUNG
  6
CONTINUOUS
 62
1
 10
1.3504875E+002
 20
1.3704502E+002
 11
1.3546542E+002
 21
1.3454502E+002
  0
LINE
  8
2D_BEMASSUNG
  6
CONTINUOUS
 62
1
 10
1.3463208E+002
 20
1.3454502E+002
 11
1.3546542E+002
 21
1.3454502E+002
  0
LINE
  8
2D_BEMASSUNG
  6
CONTINUOUS
 62
1
 10
1.3504875E+002
 20
1.2104502E+002
 11
1.3463208E+002
 21
1.2354502E+002
  0
LINE
  8
2D_BEMASSUNG
  6
CONTINUOUS
 62
1
 10
1.3504875E+002
 20
1.2104502E+002
 11
1.3546542E+002
 21
1.2354502E+002
  0
LINE
  8
2D_BEMASSUNG
  6
CONTINUOUS
 62
1
 10
1.3463208E+002
 20
1.2354502E+002
 11
1.3546542E+002
 21
1.2354502E+002
  0
LINE
  8
2D_BEMASSUNG
  6
CONTINUOUS
 62
1
 10
1.3504875E+002
 20
1.3704502E+002
 11
1.3504875E+002
 21
1.2904502E+002
  0
LINE
  8
2D_BEMASSUNG
  6
CONTINUOUS
 62
1
 10
1.3504875E+002
 20
1.2104502E+002
 11
1.3504875E+002
 21
1.2904502E+002
  0
TEXT
  8
2D_BEMASSUNG
  6
CONTINUOUS
 62
1
 10
1.3354775E+002
 20
1.2704502E+002
 40
2.5
  1
40
 41
8.0E-001
 50
9.0E+001
  0
LINE
  8
2D_BEMASSUNG
  6
CONTINUOUS
 62
1
 10
1.2507217E+002
 20
1.3784502E+002
 11
1.2507217E+002
 21
1.4682976E+002
  0
LINE
  8
2D_BEMASSUNG
  6
CONTINUOUS
 62
1
 10
1.1547217E+002
 20
1.3784502E+002
 11
1.1547217E+002
 21
1.4682976E+002
  0
LINE
  8
2D_BEMASSUNG
  6
CONTINUOUS
 62
1
 10
1.2507217E+002
 20
1.4482976E+002
 11
1.2257217E+002
 21
1.4524642E+002
  0
LINE
  8
2D_BEMASSUNG
  6
CONTINUOUS
 62
1
 10
1.2507217E+002
 20
1.4482976E+002
 11
1.2257217E+002
 21
1.4441309E+002
  0
LINE
  8
2D_BEMASSUNG
  6
CONTINUOUS
 62
1
 10
1.2257217E+002
 20
1.4524642E+002
 11
1.2257217E+002
 21
1.4441309E+002
  0
LINE
  8
2D_BEMASSUNG
  6
CONTINUOUS
 62
1
 10
1.1547217E+002
 20
1.4482976E+002
 11
1.1797217E+002
 21
1.4524642E+002
  0
LINE
  8
2D_BEMASSUNG
  6
CONTINUOUS
 62
1
 10
1.1547217E+002
 20
1.4482976E+002
 11
1.1797217E+002
 21
1.4441309E+002
  0
LINE
  8
2D_BEMASSUNG
  6
CONTINUOUS
 62
1
 10
1.1797217E+002
 20
1.4524642E+002
 11
1.1797217E+002
 21
1.4441309E+002
  0
LINE
  8
2D_BEMASSUNG
  6
CONTINUOUS
 62
1
 10
1.2507217E+002
 20
1.4482976E+002
 11
1.2027217E+002
 21
1.4482976E+002
  0
LINE
  8
2D_BEMASSUNG
  6
CONTINUOUS
 62
1
 10
1.1547217E+002
 20
1.4482976E+002
 11
1.2027217E+002
 21
1.4482976E+002
  0
TEXT
  8
2D_BEMASSUNG
  6
CONTINUOUS
 62
1
 10
1.1727217E+002
 20
1.4633076E+002
 40
2.5
  1
%%c24
 41
8.0E-001
 50
3.6E+002
  0
ENDSEC
  0
EOF
