  0
SECTION
  2
HEADER
  9
$ACADVER
  1
AC1015
  9
$ACADMAINTVER
 70
         6
  9
$DWGCODEPAGE
  3
ANSI_1252
  9
$INSBASE
 10
0.0
 20
0.0
 30
0.0
  9
$EXTMIN
 10
0.0
 20
0.0
 30
0.0
  9
$EXTMAX
 10
210.0
 20
297.0
 30
0.0
  9
$LIMMIN
 10
0.0
 20
0.0
  9
$LIMMAX
 10
210.0
 20
297.0
  9
$ORTHOMODE
 70
         0
  9
$REGENMODE
 70
         1
  9
$FILLMODE
 70
         1
  9
$QTEXTMODE
 70
         0
  9
$MIRRTEXT
 70
         1
  9
$LTSCALE
 40
25.4
  9
$ATTMODE
 70
         1
  9
$TEXTSIZE
 40
0.2
  9
$TRACEWID
 40
0.05
  9
$TEXTSTYLE
  7
Standard
  9
$CLAYER
  8
0
  9
$CELTYPE
  6
CONTINUOUS
  9
$CECOLOR
 62
       256
  9
$CELTSCALE
 40
1.0
  9
$DISPSILH
 70
         0
  9
$DIMSCALE
 40
1.0
  9
$DIMASZ
 40
0.18
  9
$DIMEXO
 40
0.0625
  9
$DIMDLI
 40
0.38
  9
$DIMRND
 40
0.0
  9
$DIMDLE
 40
0.0
  9
$DIMEXE
 40
0.18
  9
$DIMTP
 40
0.0
  9
$DIMTM
 40
0.0
  9
$DIMTXT
 40
0.18
  9
$DIMCEN
 40
0.09
  9
$DIMTSZ
 40
0.0
  9
$DIMTOL
 70
         0
  9
$DIMLIM
 70
         0
  9
$DIMTIH
 70
         1
  9
$DIMTOH
 70
         1
  9
$DIMSE1
 70
         0
  9
$DIMSE2
 70
         0
  9
$DIMTAD
 70
         0
  9
$DIMZIN
 70
         0
  9
$DIMBLK
  1

  9
$DIMASO
 70
         1
  9
$DIMSHO
 70
         1
  9
$DIMPOST
  1

  9
$DIMAPOST
  1

  9
$DIMALT
 70
         0
  9
$DIMALTD
 70
         2
  9
$DIMALTF
 40
25.4
  9
$DIMLFAC
 40
1.0
  9
$DIMTOFL
 70
         0
  9
$DIMTVP
 40
0.0
  9
$DIMTIX
 70
         0
  9
$DIMSOXD
 70
         0
  9
$DIMSAH
 70
         0
  9
$DIMBLK1
  1

  9
$DIMBLK2
  1

  9
$DIMSTYLE
  2
Standard
  9
$DIMCLRD
 70
         0
  9
$DIMCLRE
 70
         0
  9
$DIMCLRT
 70
         0
  9
$DIMTFAC
 40
1.0
  9
$DIMGAP
 40
0.09
  9
$DIMJUST
 70
         0
  9
$DIMSD1
 70
         0
  9
$DIMSD2
 70
         0
  9
$DIMTOLJ
 70
         1
  9
$DIMTZIN
 70
         0
  9
$DIMALTZ
 70
         0
  9
$DIMALTTZ
 70
         0
  9
$DIMUPT
 70
         0
  9
$DIMDEC
 70
         4
  9
$DIMTDEC
 70
         4
  9
$DIMALTU
 70
         2
  9
$DIMALTTD
 70
         2
  9
$DIMTXSTY
  7
Standard
  9
$DIMAUNIT
 70
         0
  9
$DIMADEC
 70
         0
  9
$DIMALTRND
 40
0.0
  9
$DIMAZIN
 70
         0
  9
$DIMDSEP
 70
         0
  9
$DIMATFIT
 70
         3
  9
$DIMFRAC
 70
         0
  9
$DIMLDRBLK
  1

  9
$DIMLUNIT
 70
         2
  9
$DIMLWD
 70
         0
  9
$DIMLWE
 70
         0
  9
$DIMTMOVE
 70
         0
  9
$LUNITS
 70
         2
  9
$LUPREC
 70
         4
  9
$SKETCHINC
 40
0.1
  9
$FILLETRAD
 40
0.0
  9
$AUNITS
 70
         0
  9
$AUPREC
 70
         0
  9
$MENU
  1
acad
  9
$ELEVATION
 40
0.0
  9
$PELEVATION
 40
0.0
  9
$THICKNESS
 40
0.0
  9
$LIMCHECK
 70
         0
  9
$CHAMFERA
 40
0.0
  9
$CHAMFERB
 40
0.0
  9
$CHAMFERC
 40
0.0
  9
$CHAMFERD
 40
0.0
  9
$SKPOLY
 70
         0
  9
$TDCREATE
 40
0.000000000
  9
$TDUCREATE
 40
0.000000000
  9
$TDUPDATE
 40
0.000000000
  9
$TDUUPDATE
 40
0.000000000
  9
$TDINDWG
 40
0.0000000000
  9
$TDUSRTIMER
 40
0.0000000000
  9
$USRTIMER
 70
         1
  9
$ANGBASE
 50
0.0
  9
$ANGDIR
 70
         0
  9
$PDMODE
 70
         0
  9
$PDSIZE
 40
0.0
  9
$PLINEWID
 40
0.0
  9
$SPLFRAME
 70
         0
  9
$SPLINETYPE
 70
         6
  9
$SPLINESEGS
 70
         8
  9
$HANDSEED
  5
1ED
  9
$SURFTAB1
 70
         6
  9
$SURFTAB2
 70
         6
  9
$SURFTYPE
 70
         6
  9
$SURFU
 70
         6
  9
$SURFV
 70
         6
  9
$UCSBASE
  2

  9
$UCSNAME
  2

  9
$UCSORG
 10
0.0
 20
0.0
 30
0.0
  9
$UCSXDIR
 10
1.0
 20
0.0
 30
0.0
  9
$UCSYDIR
 10
0.0
 20
1.0
 30
0.0
  9
$UCSORTHOREF
  2

  9
$UCSORTHOVIEW
 70
         0
  9
$UCSORGTOP
 10
0.0
 20
0.0
 30
0.0
  9
$UCSORGBOTTOM
 10
0.0
 20
0.0
 30
0.0
  9
$UCSORGLEFT
 10
0.0
 20
0.0
 30
0.0
  9
$UCSORGRIGHT
 10
0.0
 20
0.0
 30
0.0
  9
$UCSORGFRONT
 10
0.0
 20
0.0
 30
0.0
  9
$UCSORGBACK
 10
0.0
 20
0.0
 30
0.0
  9
$PUCSBASE
  2

  9
$PUCSNAME
  2

  9
$PUCSORG
 10
0.0
 20
0.0
 30
0.0
  9
$PUCSXDIR
 10
1.0
 20
0.0
 30
0.0
  9
$PUCSYDIR
 10
0.0
 20
1.0
 30
0.0
  9
$PUCSORTHOREF
  2

  9
$PUCSORTHOVIEW
 70
         0
  9
$PUCSORGTOP
 10
0.0
 20
0.0
 30
0.0
  9
$PUCSORGBOTTOM
 10
0.0
 20
0.0
 30
0.0
  9
$PUCSORGLEFT
 10
0.0
 20
0.0
 30
0.0
  9
$PUCSORGRIGHT
 10
0.0
 20
0.0
 30
0.0
  9
$PUCSORGFRONT
 10
0.0
 20
0.0
 30
0.0
  9
$PUCSORGBACK
 10
0.0
 20
0.0
 30
0.0
  9
$USERI1
 70
         0
  9
$USERI2
 70
         0
  9
$USERI3
 70
         0
  9
$USERI4
 70
         0
  9
$USERI5
 70
         0
  9
$USERR1
 40
0.0
  9
$USERR2
 40
0.0
  9
$USERR3
 40
0.0
  9
$USERR4
 40
0.0
  9
$USERR5
 40
0.0
  9
$WORLDVIEW
 70
         1
  9
$SHADEDGE
 70
         3
  9
$SHADEDIF
 70
        70
  9
$TILEMODE
 70
         1
  9
$MAXACTVP
 70
        16
  9
$PINSBASE
 10
0.0
 20
0.0
 30
0.0
  9
$PLIMCHECK
 70
         0
  9
$PEXTMIN
 10
1.0000000000E+20
 20
1.0000000000E+20
 30
1.0000000000E+20
  9
$PEXTMAX
 10
-1.0000000000E+20
 20
-1.0000000000E+20
 30
-1.0000000000E+20
  9
$PLIMMIN
 10
0.0
 20
0.0
  9
$PLIMMAX
 10
12.0
 20
9.0
  9
$UNITMODE
 70
         0
  9
$VISRETAIN
 70
         0
  9
$PLINEGEN
 70
         1
  9
$PSLTSCALE
 70
         0
  9
$TREEDEPTH
 70
      3020
  9
$CMLSTYLE
  2
Standard
  9
$CMLJUST
 70
         0
  9
$CMLSCALE
 40
1.0
  9
$PROXYGRAPHICS
 70
         0
  9
$MEASUREMENT
 70
         0
  9
$CELWEIGHT
370
         0
  9
$ENDCAPS
280
         0
  9
$JOINSTYLE
280
         0
  9
$LWDISPLAY
290
         0
  9
$INSUNITS
 70
         0
  9
$HYPERLINKBASE
  1

  9
$XEDIT
290
         1
  9
$CEPSNTYPE
380
         0
  9
$PSTYLEMODE
290
         1
  9
$FINGERPRINTGUID
  2

  9
$VERSIONGUID
  2

  9
$EXTNAMES
290
         1
  9
$PSVPSCALE
 40
0.0
  0
ENDSEC
  0
SECTION
  2
CLASSES
  0
CLASS
  1
LWPOLYLINE
  2
AcDbPolyline
  3
AutoCAD 2000
 90
        0
280
         0
281
         1
  0
CLASS
  1
IMAGE
  2
AcDbRasterImage
  3
ISM
 90
    32895
280
         0
281
         1
  0
CLASS
  1
OLE2FRAME
  2
AcDbOle2Frame
  3
AutoCAD 2000
 90
    32768
280
         0
281
         1
  0
CLASS
  1
HATCH
  2
AcDbHatch
  3
AutoCAD 2000
 90
        0
280
         0
281
         1
  0
CLASS
  1
DICTIONARYVAR
  2
AcDbDictionaryVar
  3
AutoCAD 2000
 90
    32768
280
         0
281
         0
  0
CLASS
  1
RASTERVARIABLES
  2
AcDbRasterVariables
  3
ISM
 90
    32768
280
         0
281
         0
  0
CLASS
  1
IMAGEDEF
  2
AcDbRasterImageDef
  3
ISM
 90
    32768
280
         0
281
         0
  0
CLASS
  1
IMAGEDEF_REACTOR
  2
AcDbRasterImageDefReactor
  3
ISM
 90
    32769
280
         0
281
         0
  0
CLASS
  1
IDBUFFER
  2
AcDbIdBuffer
  3
AutoCAD 2000
 90
    32768
280
         0
281
         0
  0
CLASS
  1
SPATIAL_FILTER
  2
AcDbSpatialFilter
  3
AutoCAD 2000
 90
        0
280
         0
281
         0
  0
CLASS
  1
XRECORD
  2
AcDbXrecord
  3
AutoCAD 2000
 90
    32768
280
         0
281
         0
  0
CLASS
  1
SORTENTSTABLE
  2
AcDbSortentsTable
  3
AutoCAD 2000
 90
    32768
280
         0
281
         0
  0
CLASS
  1
LAYER_INDEX
  2
AcDbLayerIndex
  3
AutoCAD 2000
 90
    32768
280
         0
281
         0
  0
CLASS
  1
SPATIAL_INDEX
  2
AcDbSpatialIndex
  3
AutoCAD 2000
 90
    32768
280
         0
281
         0
  0
CLASS
  1
OBJECT_PTR
  2
CAseDLPNTableRecord
  3
"ASE-LPNTableRecord"
 90
    32769
280
         0
281
         0
  0
CLASS
  1
LAYOUT
  2
AcDbLayout
  3
AutoCAD 2000
 90
        0
280
         0
281
         0
  0
CLASS
  1
PLOTSETTINGS
  2
AcDbPlotSettings
  3
AutoCAD 2000
 90
    32768
280
         0
281
         0
  0
CLASS
  1
ACDBDICTIONARYWDFLT
  2
AcDbDictionaryWithDefault
  3
AutoCAD 2000
 90
        0
280
         0
281
         0
  0
CLASS
  1
ACDBPLACEHOLDER
  2
AcDbPlaceHolder
  3
AutoCAD 2000
 90
        0
280
         0
281
         0
  0
CLASS
  1
VBA_PROJECT
  2
AcDbVbaProject
  3
acadvba
 90
    32768
280
         0
281
         0
  0
CLASS
  1
WIPEOUT
  2
AcDbWipeout
  3
WipeOut|AutoCAD Express Tool|expresstools@autodesk.com
 90
    32895
280
         0
281
         1
  0
CLASS
  1
WIPEOUTVARIABLES
  2
AcDbWipeoutVariables
  3
WipeOut|AutoCAD Express Tool|expresstools@autodesk.com
 90
        0
280
         0
281
         0
  0
CLASS
  1
RTEXT
  2
RText
  3
RText|AutoCAD Express Tool|expresstools@autodesk.com
 90
    32768
280
         0
281
         1
  0
CLASS
  1
ARCALIGNEDTEXT
  2
AcDbArcAlignedText
  3
ATEXT|AutoCAD Express Tool|expresstools@autodesk.com
 90
    32768
280
         0
281
         1
  0
ENDSEC
  0
SECTION
  2
TABLES
  0
TABLE
  2
VPORT
  5
7
100
AcDbSymbolTable
 70
         1
  0
VPORT
  5
15
100
AcDbSymbolTableRecord
100
AcDbViewportTableRecord
  2
*ACTIVE
 70
         0
 10
0.0
 20
0.0
 11
1.0
 21
1.0
 12
105.0
 22
148.5
 13
0.0
 23
0.0
 14
1.0
 24
1.0
 15
0.0
 25
0.0
 16
0.0
 26
0.0
 36
1.0
 17
0.0
 27
0.0
 37
0.0
 40
297.0
 41
1.604229
 42
50.0
 43
0.0
 44
0.0
 50
0.0
 51
0.0
 71
         0
 72
       100
 73
         1
 74
         1
 75
         0
 76
         0
 77
         0
 78
         0
281
         0
 65
         0
110
0.0
120
0.0
130
0.0
111
1.0
121
0.0
131
0.0
112
0.0
122
1.0
132
0.0
345
0
346
0
 79
         0
146
0.0
  0
ENDTAB
  0
TABLE
  2
LTYPE
  5
4
100
AcDbSymbolTable
 70
         7
  0
LTYPE
  5
11
100
AcDbSymbolTableRecord
100
AcDbLinetypeTableRecord
  2
ByBlock
 70
        64
  3

 72
        65
 73
         0
 40
0.0
  0
LTYPE
  5
12
100
AcDbSymbolTableRecord
100
AcDbLinetypeTableRecord
  2
ByLayer
 70
        64
  3

 72
        65
 73
         0
 40
0.0
  0
LTYPE
  5
13
100
AcDbSymbolTableRecord
100
AcDbLinetypeTableRecord
  2
CONTINUOUS
 70
         0
  3
Solid line
 72
        65
 73
         0
 40
0.0
  0
LTYPE
  5
28
100
AcDbSymbolTableRecord
100
AcDbLinetypeTableRecord
  2
HIDDEN2
 70
        64
  3
_ _ _ _ _ _ _ _ _ _ _ _ _ _ _ _ _ _ _ _ _ _ _ _
 72
        65
 73
         2
 40
0.1875
 49
0.125
 74
         0
 49
-0.0625
 74
         0
  0
LTYPE
  5
29
100
AcDbSymbolTableRecord
100
AcDbLinetypeTableRecord
  2
CENTER2
 70
        64
  3
___ _ ___ _ ___ _ ___ _ ___ _ ___ _ ___ _ ___ _
 72
        65
 73
         4
 40
1.125
 49
0.75
 74
         0
 49
-0.125
 74
         0
 49
0.125
 74
         0
 49
-0.125
 74
         0
  0
LTYPE
  5
2A
100
AcDbSymbolTableRecord
100
AcDbLinetypeTableRecord
  2
PHANTOM2
 70
        64
  3
___ _ _ ___ _ _ ___ _ _ ___ _ _ ___ _ _ ___ _ _
 72
        65
 73
         6
 40
1.25
 49
0.625
 74
         0
 49
-0.125
 74
         0
 49
0.125
 74
         0
 49
-0.125
 74
         0
 49
0.125
 74
         0
 49
-0.125
 74
         0
  0
LTYPE
  5
2B
100
AcDbSymbolTableRecord
100
AcDbLinetypeTableRecord
  2
DOT2
 70
        64
  3
...............................................
 72
        65
 73
         2
 40
0.125
 49
0.0
 74
         0
 49
-0.125
 74
         0
  0
ENDTAB
  0
TABLE
  2
LAYER
  5
2
100
AcDbSymbolTable
 70
        14
  0
LAYER
  5
14
100
AcDbSymbolTableRecord
100
AcDbLayerTableRecord
  2
0
 70
         0
 62
         7
  6
CONTINUOUS
290
         1
370
        -3
390
1D
  0
LAYER
  5
2D
100
AcDbSymbolTableRecord
100
AcDbLayerTableRecord
  2
DEFAULT
 70
         0
 62
         7
  6
CONTINUOUS
290
         1
370
        -3
390
0
  0
LAYER
  5
30
100
AcDbSymbolTableRecord
100
AcDbLayerTableRecord
  2
F2
 70
         0
 62
         7
  6
CONTINUOUS
290
         1
370
        -3
390
0
  0
LAYER
  5
32
100
AcDbSymbolTableRecord
100
AcDbLayerTableRecord
  2
STANDARD
 70
         0
 62
         7
  6
CONTINUOUS
290
         1
370
        -3
390
0
  0
LAYER
  5
3C
100
AcDbSymbolTableRecord
100
AcDbLayerTableRecord
  2
RAHMEN
 70
         0
 62
         7
  6
CONTINUOUS
290
         1
370
        -3
390
0
  0
LAYER
  5
42
100
AcDbSymbolTableRecord
100
AcDbLayerTableRecord
  2
AUTO_-_HIDE
 70
         0
 62
        -1
  6
CONTINUOUS
290
         1
370
        -3
390
0
  0
LAYER
  5
47
100
AcDbSymbolTableRecord
100
AcDbLayerTableRecord
  2
MEGA_002220
 70
         0
 62
         7
  6
CONTINUOUS
290
         1
370
        -3
390
0
  0
LAYER
  5
49
100
AcDbSymbolTableRecord
100
AcDbLayerTableRecord
  2
MEGA_002233
 70
         0
 62
         7
  6
CONTINUOUS
290
         1
370
        -3
390
0
  0
LAYER
  5
4B
100
AcDbSymbolTableRecord
100
AcDbLayerTableRecord
  2
MEGA_002234
 70
         0
 62
         7
  6
CONTINUOUS
290
         1
370
        -3
390
0
  0
LAYER
  5
4D
100
AcDbSymbolTableRecord
100
AcDbLayerTableRecord
  2
MEGA_002235
 70
         0
 62
         7
  6
CONTINUOUS
290
         1
370
        -3
390
0
  0
LAYER
  5
4F
100
AcDbSymbolTableRecord
100
AcDbLayerTableRecord
  2
MEGA_002232
 70
         0
 62
         7
  6
CONTINUOUS
290
         1
370
        -3
390
0
  0
LAYER
  5
51
100
AcDbSymbolTableRecord
100
AcDbLayerTableRecord
  2
MEGA_002236
 70
         0
 62
         7
  6
CONTINUOUS
290
         1
370
        -3
390
0
  0
LAYER
  5
53
100
AcDbSymbolTableRecord
100
AcDbLayerTableRecord
  2
SICHERUNGSSCHEIB
 70
         0
 62
         7
  6
CONTINUOUS
290
         1
370
        -3
390
0
  0
LAYER
  5
55
100
AcDbSymbolTableRecord
100
AcDbLayerTableRecord
  2
SCHRAUBE_DIN_EN_
 70
         0
 62
         7
  6
CONTINUOUS
290
         1
370
        -3
390
0
  0
ENDTAB
  0
TABLE
  2
STYLE
  5
3
100
AcDbSymbolTable
 70
         3
  0
STYLE
  5
17
100
AcDbSymbolTableRecord
100
AcDbTextStyleTableRecord
  2
Standard
 70
         0
 40
0.0
 41
1.0
 50
0.0
 71
         0
 42
0.2
  3
txt
  4

  0
STYLE
  5
61
100
AcDbSymbolTableRecord
100
AcDbTextStyleTableRecord
  2
seiso_ttfI
 70
         0
 40
0.0
 41
1.0
 50
0.0
 71
         0
 42
0.2
  3
seiso.ttf
  4

1001
ACAD
1000
Solid Edge ISO
1071
 16777218
  0
STYLE
  5
6D
100
AcDbSymbolTableRecord
100
AcDbTextStyleTableRecord
  2
seiso_ttf
 70
         0
 40
0.0
 41
1.0
 50
0.0
 71
         0
 42
0.2
  3
seiso.ttf
  4

1001
ACAD
1000
Solid Edge ISO
1071
        2
  0
ENDTAB
  0
TABLE
  2
VIEW
  5
5
100
AcDbSymbolTable
 70
         0
  0
ENDTAB
  0
TABLE
  2
UCS
  5
6
100
AcDbSymbolTable
 70
         0
  0
ENDTAB
  0
TABLE
  2
APPID
  5
8
100
AcDbSymbolTable
 70
         1
  0
APPID
  5
16
100
AcDbSymbolTableRecord
100
AcDbRegAppTableRecord
  2
ACAD
 70
         0
  0
ENDTAB
  0
TABLE
  2
DIMSTYLE
  5
9
100
AcDbSymbolTable
 70
         1
100
AcDbDimStyleTable
 71
         0
  0
DIMSTYLE
105
18
100
AcDbSymbolTableRecord
100
AcDbDimStyleTableRecord
  2
Standard
 70
         0
  3

  4

 40
1.0
 41
0.18
 42
0.0625
 43
0.38
 44
0.18
 45
0.0
 46
0.0
 47
0.0
 48
0.0
 71
         0
 72
         0
 73
         1
 74
         1
 75
         0
 76
         0
 77
         0
 78
         0
 79
         0
140
0.18
141
0.09
142
0.0
143
25.4
144
1.0
145
0.0
146
1.0
147
0.09
148
0.0
170
         0
171
         2
172
         0
173
         0
174
         0
175
         0
176
         0
177
         0
178
         0
179
         0
271
         4
272
         4
273
         2
274
         2
275
         0
276
         0
277
         2
278
        46
279
         0
280
         0
281
         0
282
         0
283
         1
284
         0
285
         0
286
         0
288
         0
340
17
341
0
342
0
343
0
344
0
371
        -2
372
        -2
  0
ENDTAB
  0
TABLE
  2
BLOCK_RECORD
  5
1
100
AcDbSymbolTable
 70
        24
  0
BLOCK_RECORD
  5
A
100
AcDbSymbolTableRecord
100
AcDbBlockTableRecord
  2
*MODEL_SPACE
340
20
  0
BLOCK_RECORD
  5
B
100
AcDbSymbolTableRecord
100
AcDbBlockTableRecord
  2
*PAPER_SPACE
340
21
  0
BLOCK_RECORD
  5
56
100
AcDbSymbolTableRecord
100
AcDbBlockTableRecord
  2
SE0
340
0
102
{BLKREFS
331
57
102
}
  0
BLOCK_RECORD
  5
58
100
AcDbSymbolTableRecord
100
AcDbBlockTableRecord
  2
SE1
340
0
102
{BLKREFS
331
59
102
}
  0
BLOCK_RECORD
  5
5A
100
AcDbSymbolTableRecord
100
AcDbBlockTableRecord
  2
SE2
340
0
102
{BLKREFS
331
5B
102
}
  0
BLOCK_RECORD
  5
5C
100
AcDbSymbolTableRecord
100
AcDbBlockTableRecord
  2
SE3
340
0
102
{BLKREFS
331
5D
102
}
  0
BLOCK_RECORD
  5
5E
100
AcDbSymbolTableRecord
100
AcDbBlockTableRecord
  2
SE4
340
0
102
{BLKREFS
331
5F
102
}
  0
BLOCK_RECORD
  5
63
100
AcDbSymbolTableRecord
100
AcDbBlockTableRecord
  2
SE5
340
0
102
{BLKREFS
331
6A
102
}
  0
BLOCK_RECORD
  5
64
100
AcDbSymbolTableRecord
100
AcDbBlockTableRecord
  2
SE6
340
0
102
{BLKREFS
331
66
102
}
  0
BLOCK_RECORD
  5
6B
100
AcDbSymbolTableRecord
100
AcDbBlockTableRecord
  2
SE7
340
0
102
{BLKREFS
331
71
102
}
  0
BLOCK_RECORD
  5
6C
100
AcDbSymbolTableRecord
100
AcDbBlockTableRecord
  2
SE8
340
0
102
{BLKREFS
331
107
102
}
  0
BLOCK_RECORD
  5
6E
100
AcDbSymbolTableRecord
100
AcDbBlockTableRecord
  2
SE9
340
0
102
{BLKREFS
331
108
102
}
  0
BLOCK_RECORD
  5
6F
100
AcDbSymbolTableRecord
100
AcDbBlockTableRecord
  2
SE10
340
0
102
{BLKREFS
331
109
102
}
  0
BLOCK_RECORD
  5
70
100
AcDbSymbolTableRecord
100
AcDbBlockTableRecord
  2
SE11
340
0
102
{BLKREFS
331
10A
102
}
  0
BLOCK_RECORD
  5
72
100
AcDbSymbolTableRecord
100
AcDbBlockTableRecord
  2
SE12
340
0
102
{BLKREFS
331
7F
102
}
  0
BLOCK_RECORD
  5
73
100
AcDbSymbolTableRecord
100
AcDbBlockTableRecord
  2
SE13
340
0
102
{BLKREFS
331
1A5
102
}
  0
BLOCK_RECORD
  5
74
100
AcDbSymbolTableRecord
100
AcDbBlockTableRecord
  2
SE14
340
0
102
{BLKREFS
331
7B
102
}
  0
BLOCK_RECORD
  5
80
100
AcDbSymbolTableRecord
100
AcDbBlockTableRecord
  2
SE15
340
0
102
{BLKREFS
331
83
102
}
  0
BLOCK_RECORD
  5
84
100
AcDbSymbolTableRecord
100
AcDbBlockTableRecord
  2
SE16
340
0
102
{BLKREFS
331
87
102
}
  0
BLOCK_RECORD
  5
88
100
AcDbSymbolTableRecord
100
AcDbBlockTableRecord
  2
SE17
340
0
102
{BLKREFS
331
8B
102
}
  0
BLOCK_RECORD
  5
8C
100
AcDbSymbolTableRecord
100
AcDbBlockTableRecord
  2
SE18
340
0
102
{BLKREFS
331
8F
102
}
  0
BLOCK_RECORD
  5
90
100
AcDbSymbolTableRecord
100
AcDbBlockTableRecord
  2
SE19
340
0
102
{BLKREFS
331
93
102
}
  0
BLOCK_RECORD
  5
94
100
AcDbSymbolTableRecord
100
AcDbBlockTableRecord
  2
SE20
340
0
102
{BLKREFS
331
97
102
}
  0
BLOCK_RECORD
  5
98
100
AcDbSymbolTableRecord
100
AcDbBlockTableRecord
  2
SE21
340
0
102
{BLKREFS
331
9B
102
}
  0
BLOCK_RECORD
  5
9C
100
AcDbSymbolTableRecord
100
AcDbBlockTableRecord
  2
SE22
340
0
102
{BLKREFS
331
9E
102
}
  0
BLOCK_RECORD
  5
9F
100
AcDbSymbolTableRecord
100
AcDbBlockTableRecord
  2
SE23
340
0
102
{BLKREFS
331
A1
102
}
  0
ENDTAB
  0
ENDSEC
  0
SECTION
  2
BLOCKS
  0
BLOCK
  5
D
100
AcDbEntity
  8
0
100
AcDbBlockBegin
  2
*MODEL_SPACE
 70
         0
 10
0.0
 20
0.0
 30
0.0
  3
*MODEL_SPACE
  1

  0
ENDBLK
  5
E
100
AcDbEntity
  8
0
100
AcDbBlockEnd
  0
BLOCK
  5
F
100
AcDbEntity
 67
         1
  8
0
100
AcDbBlockBegin
  2
*PAPER_SPACE
 70
         0
 10
0.0
 20
0.0
 30
0.0
  3
*PAPER_SPACE
  1

  0
ENDBLK
  5
10
100
AcDbEntity
 67
         1
  8
0
100
AcDbBlockEnd
  0
BLOCK
  5
A2
100
AcDbEntity
  8
DEFAULT
370
         0
 62
         1
 48
0.0
100
AcDbBlockBegin
  2
SE0
 70
         0
 10
0.0
 20
0.0
 30
0.0
  3
SE0
  1

  0
LINE
  5
A3
100
AcDbEntity
  8
DEFAULT
370
         0
  6
CENTER2
 62
         7
100
AcDbLine
 10
93.453276914
 20
222.4069254787
 30
0.0
 11
67.500791243
 21
222.4069254787
 31
0.0
  0
ENDBLK
  5
A4
100
AcDbEntity
  8
DEFAULT
370
         0
  6
CENTER2
 62
         7
100
AcDbBlockEnd
  0
BLOCK
  5
A5
100
AcDbEntity
  8
DEFAULT
370
         0
 62
         1
 48
0.0
100
AcDbBlockBegin
  2
SE1
 70
         0
 10
0.0
 20
0.0
 30
0.0
  3
SE1
  1

  0
LINE
  5
A6
100
AcDbEntity
  8
DEFAULT
370
         0
  6
CENTER2
 62
         7
100
AcDbLine
 10
92.7630512312
 20
182.4069254787
 30
0.0
 11
68.0529717892
 21
182.4069254787
 31
0.0
  0
ENDBLK
  5
A7
100
AcDbEntity
  8
DEFAULT
370
         0
  6
CENTER2
 62
         7
100
AcDbBlockEnd
  0
BLOCK
  5
A8
100
AcDbEntity
  8
DEFAULT
370
         0
 62
         1
 48
0.0
100
AcDbBlockBegin
  2
SE2
 70
         0
 10
0.0
 20
0.0
 30
0.0
  3
SE2
  1

  0
LINE
  5
A9
100
AcDbEntity
  8
DEFAULT
370
         0
  6
CENTER2
 62
         7
100
AcDbLine
 10
92.8883471339
 20
83.3642571566
 30
0.0
 11
67.9385914471
 21
83.3642571566
 31
0.0
  0
ENDBLK
  5
AA
100
AcDbEntity
  8
DEFAULT
370
         0
  6
CENTER2
 62
         7
100
AcDbBlockEnd
  0
BLOCK
  5
AB
100
AcDbEntity
  8
DEFAULT
370
         0
 62
         1
 48
0.0
100
AcDbBlockBegin
  2
SE3
 70
         0
 10
0.0
 20
0.0
 30
0.0
  3
SE3
  1

  0
LINE
  5
AC
100
AcDbEntity
  8
DEFAULT
370
         0
  6
CENTER2
 62
         7
100
AcDbLine
 10
92.4713595737
 20
68.3642571566
 30
0.0
 11
68.0080893738
 21
68.3642571566
 31
0.0
  0
ENDBLK
  5
AD
100
AcDbEntity
  8
DEFAULT
370
         0
  6
CENTER2
 62
         7
100
AcDbBlockEnd
  0
BLOCK
  5
AE
100
AcDbEntity
  8
DEFAULT
370
         0
 62
         1
 48
0.0
100
AcDbBlockBegin
  2
SE4
 70
         0
 10
0.0
 20
0.0
 30
0.0
  3
SE4
  1

  0
LINE
  5
AF
100
AcDbEntity
  8
DEFAULT
370
         0
  6
CENTER2
 62
         7
100
AcDbLine
 10
119.5825959244
 20
75.7575514273
 30
0.0
 11
80.1007286203
 21
75.7575514273
 31
0.0
  0
ENDBLK
  5
B0
100
AcDbEntity
  8
DEFAULT
370
         0
  6
CENTER2
 62
         7
100
AcDbBlockEnd
  0
BLOCK
  5
F6
100
AcDbEntity
  8
0
370
         0
 62
         1
 48
0.0
100
AcDbBlockBegin
  2
SE5
 70
         0
 10
0.0
 20
0.0
 30
0.0
  3
SE5
  1

  0
ENDBLK
  5
F7
100
AcDbEntity
  8
0
370
         0
 62
         1
 48
0.0
100
AcDbBlockEnd
  0
BLOCK
  5
B1
100
AcDbEntity
  8
0
370
         0
 62
         1
 48
0.0
100
AcDbBlockBegin
  2
SE6
 70
         0
 10
0.0
 20
0.0
 30
0.0
  3
SE6
  1

  0
LINE
  5
B2
100
AcDbEntity
  8
STANDARD
370
         0
  6
CENTER2
 62
         7
100
AcDbLine
 10
74.2066737901
 20
206.9069254787
 30
0.0
 11
113.8259219345
 21
206.9069254787
 31
0.0
  0
LINE
  5
B3
100
AcDbEntity
  8
STANDARD
370
         0
  6
CONTINUOUS
 62
         7
100
AcDbLine
 10
128.0259590977
 20
266.5499500201
 30
0.0
 11
133.4061570778
 21
266.5499500201
 31
0.0
  0
HATCH
  5
B4
100
AcDbEntity
  8
0
  6
CONTINUOUS
 62
         7
100
AcDbHatch
 10
0.0
 20
0.0
 30
0.0
210
0.0
220
0.0
230
1.0
  2
LINE
 70
         0
 71
         1
 91
        1
 92
        1
 93
       28
 72
         1
 10
81.02595909770595
 20
184.15692547870796
 11
81.02595909770595
 21
220.65692547870796
 72
         1
 10
81.02595909770595
 20
220.65692547870796
 11
72.225959097705953
 21
220.65692547870796
 72
         1
 10
72.225959097705953
 20
220.65692547870796
 11
69.02595909770595
 21
222.40692547870796
 72
         1
 10
69.02595909770595
 20
222.40692547870796
 11
72.225959097705953
 21
224.15692547870796
 72
         1
 10
72.225959097705953
 20
224.15692547870796
 11
81.026756197675127
 21
224.15692547870796
 72
         1
 10
81.02595909770595
 20
224.15692547870796
 11
81.02595909770595
 21
225.90692547870796
 72
         1
 10
81.02595909770595
 20
225.90692547870796
 11
81.02595909770595
 21
227.40692547870796
 72
         1
 10
81.027363399662349
 20
227.40692521634028
 11
81.039715756773035
 21
293.52192189389268
 72
         1
 10
81.039715756773049
 20
293.52192189389268
 11
79.786479278586171
 21
294.08633255190034
 72
         1
 10
79.786479278586171
 20
294.08633255190034
 11
76.563821176404304
 21
292.18359293113662
 72
         1
 10
76.563821176404304
 20
292.18359293113667
 11
73.475440495146685
 21
292.88854939098894
 72
         1
 10
73.475440495146671
 20
292.88854939098894
 11
69.816380774961004
 21
291.47863647128435
 72
         1
 10
69.816380774961004
 20
291.47863647128435
 11
65.922335568157905
 21
294.76843328392835
 72
         1
 10
65.922335568157905
 20
294.76843328392835
 11
62.889808895970418
 21
293.40423181987239
 72
         1
 10
62.889808895970425
 20
293.40423181987239
 11
62.889808895970425
 21
134.75335104740287
 72
         1
 10
62.889808895970425
 20
134.75335104740284
 11
65.489063078381619
 21
131.06957965002562
 72
         1
 10
65.489063078381619
 20
131.06957965002564
 11
70.817629503269117
 21
136.45939396485437
 72
         1
 10
70.817629503269117
 20
136.45939396485434
 11
72.348826751800004
 21
133.76448680743997
 72
         1
 10
72.348826751800004
 20
133.76448680743999
 11
77.187410057157607
 21
137.68435176367908
 72
         1
 10
77.187410057157607
 20
137.68435176367908
 11
79.086094645335905
 21
132.91146534871424
 72
         1
 10
79.086094645335919
 20
132.91146534871422
 11
81.010155716857767
 21
135.30418877022228
 72
         1
 10
81.010155716857767
 20
135.30418877022231
 11
81.018021804038071
 21
177.40678693273168
 72
         1
 10
81.02595909770595
 20
177.40678693273165
 11
81.02595909770595
 21
178.90692547870796
 72
         1
 10
81.02595909770595
 20
178.90692547870799
 11
81.02595909770595
 21
180.65692547870799
 72
         1
 10
81.02595909770595
 20
180.65692547870796
 11
72.225959097705953
 21
180.65692547870796
 72
         1
 10
72.225959097705953
 20
180.65692547870796
 11
69.02595909770595
 21
182.40692547870796
 72
         1
 10
69.02595909770595
 20
182.40692547870796
 11
72.225959097705953
 21
184.15692547870796
 72
         1
 10
72.225959097705953
 20
184.15692547870796
 11
81.019282941844267
 21
184.15692547870796
 97
        0
 75
         0
 76
         1
 52
90.0
 41
25.4
 77
         0
 78
         1
 53
90.0
 43
0.0
 44
0.0
 45
-3.1749999999999998
 46
0.0000000000000002
 79
         0
 98
        1
 10
0.0
 20
0.0
  0
LINE
  5
B5
100
AcDbEntity
  8
STANDARD
370
         0
  6
CONTINUOUS
 62
         7
100
AcDbLine
 10
79.7864792786
 20
294.0863325519
 30
0.0
 11
81.0397157568
 21
293.5219218939
 31
0.0
  0
LINE
  5
B6
100
AcDbEntity
  8
STANDARD
370
         0
  6
CONTINUOUS
 62
         7
100
AcDbLine
 10
76.5638211764
 20
292.1835929311
 30
0.0
 11
79.7864792786
 21
294.0863325519
 31
0.0
  0
LINE
  5
B7
100
AcDbEntity
  8
STANDARD
370
         0
  6
CONTINUOUS
 62
         7
100
AcDbLine
 10
73.4754404951
 20
292.888549391
 30
0.0
 11
76.5638211764
 21
292.1835929311
 31
0.0
  0
LINE
  5
B8
100
AcDbEntity
  8
STANDARD
370
         0
  6
CONTINUOUS
 62
         7
100
AcDbLine
 10
69.816380775
 20
291.4786364713
 30
0.0
 11
73.4754404951
 21
292.888549391
 31
0.0
  0
LINE
  5
B9
100
AcDbEntity
  8
STANDARD
370
         0
  6
CONTINUOUS
 62
         7
100
AcDbLine
 10
65.9223355682
 20
294.7684332839
 30
0.0
 11
69.816380775
 21
291.4786364713
 31
0.0
  0
LINE
  5
BA
100
AcDbEntity
  8
STANDARD
370
         0
  6
CONTINUOUS
 62
         7
100
AcDbLine
 10
62.889808896
 20
293.4042318199
 30
0.0
 11
65.9223355682
 21
294.7684332839
 31
0.0
  0
LINE
  5
BB
100
AcDbEntity
  8
STANDARD
370
         0
  6
CONTINUOUS
 62
         7
100
AcDbLine
 10
62.889808896
 20
293.4042318199
 30
0.0
 11
62.889808896
 21
134.7533510474
 31
0.0
  0
LINE
  5
BC
100
AcDbEntity
  8
STANDARD
370
         0
  6
CONTINUOUS
 62
         7
100
AcDbLine
 10
62.889808896
 20
134.7533510474
 30
0.0
 11
65.4890630784
 21
131.06957965
 31
0.0
  0
LINE
  5
BD
100
AcDbEntity
  8
STANDARD
370
         0
  6
CONTINUOUS
 62
         7
100
AcDbLine
 10
65.4890630784
 20
131.06957965
 30
0.0
 11
70.8176295033
 21
136.4593939649
 31
0.0
  0
LINE
  5
BE
100
AcDbEntity
  8
STANDARD
370
         0
  6
CONTINUOUS
 62
         7
100
AcDbLine
 10
70.8176295033
 20
136.4593939649
 30
0.0
 11
72.3488267518
 21
133.7644868074
 31
0.0
  0
LINE
  5
BF
100
AcDbEntity
  8
STANDARD
370
         0
  6
CONTINUOUS
 62
         7
100
AcDbLine
 10
72.3488267518
 20
133.7644868074
 30
0.0
 11
77.1874100572
 21
137.6843517637
 31
0.0
  0
LINE
  5
C0
100
AcDbEntity
  8
STANDARD
370
         0
  6
CONTINUOUS
 62
         7
100
AcDbLine
 10
77.1874100572
 20
137.6843517637
 30
0.0
 11
79.0860946453
 21
132.9114653487
 31
0.0
  0
LINE
  5
C1
100
AcDbEntity
  8
STANDARD
370
         0
  6
CONTINUOUS
 62
         7
100
AcDbLine
 10
79.0860946453
 20
132.9114653487
 30
0.0
 11
81.0101557169
 21
135.3041887702
 31
0.0
  0
LINE
  5
C2
100
AcDbEntity
  8
STANDARD
370
         0
  6
CONTINUOUS
 62
         7
100
AcDbLine
 10
81.0397157568
 20
293.5219218939
 30
0.0
 11
81.0101557169
 21
135.3041887702
 31
0.0
  0
LINE
  5
C3
100
AcDbEntity
  8
MEGA_002220
370
         0
  6
CONTINUOUS
 62
         7
100
AcDbLine
 10
119.0259590977
 20
188.4631030606
 30
0.0
 11
119.0259590977
 21
193.6367969796
 31
0.0
  0
LINE
  5
C4
100
AcDbEntity
  8
MEGA_002220
370
         0
  6
CONTINUOUS
 62
         7
100
AcDbLine
 10
119.0259590977
 20
188.4631030606
 30
0.0
 11
119.0259590977
 21
182.9499500201
 31
0.0
  0
LINE
  5
C5
100
AcDbEntity
  8
MEGA_002220
370
         0
  6
CONTINUOUS
 62
         7
100
AcDbLine
 10
119.0259590977
 20
199.1499500201
 30
0.0
 11
119.0259590977
 21
193.6367969796
 31
0.0
  0
LINE
  5
C6
100
AcDbEntity
  8
MEGA_002220
370
         0
  6
CONTINUOUS
 62
         7
100
AcDbLine
 10
119.0259590977
 20
218.5899862985
 30
0.0
 11
119.0259590977
 21
193.6367969796
 31
0.0
  0
ARC
  5
C7
100
AcDbEntity
  8
MEGA_002220
370
         0
  6
CONTINUOUS
 62
         7
100
AcDbCircle
 10
103.025959105
 20
263.5505538449
 30
0.0
 40
22.0
100
AcDbArc
 50
325.1832499696
 51
359.9986161354
  0
LINE
  5
C8
100
AcDbEntity
  8
MEGA_002220
370
         0
  6
CONTINUOUS
 62
         7
100
AcDbLine
 10
117.6566927118
 20
180.8798373127
 30
0.0
 11
91.0259590977
 21
178.5499500201
 31
0.0
  0
LINE
  5
C9
100
AcDbEntity
  8
MEGA_002220
370
         0
  6
CONTINUOUS
 62
         7
100
AcDbLine
 10
129.3373524797
 20
253.973386007
 30
0.0
 11
121.4382542663
 21
232.2707920315
 31
0.0
  0
ARC
  5
CA
100
AcDbEntity
  8
MEGA_002220
370
         0
  6
CONTINUOUS
 62
         7
100
AcDbCircle
 10
117.5259590977
 20
182.3741293599
 30
0.0
 40
1.5
100
AcDbArc
 50
275.0
 51
360.0
  0
ARC
  5
CB
100
AcDbEntity
  8
MEGA_002220
370
         0
  6
CONTINUOUS
 62
         7
100
AcDbCircle
 10
159.0259590977
 20
218.5899862985
 30
0.0
 40
40.0
100
AcDbArc
 50
160.0
 51
180.0
  0
LINE
  5
CC
100
AcDbEntity
  8
MEGA_002220
370
         0
  6
CONTINUOUS
 62
         7
100
AcDbLine
 10
119.0259590977
 20
188.4631030606
 30
0.0
 11
119.0259590977
 21
182.3741293599
 31
0.0
  0
LINE
  5
CD
100
AcDbEntity
  8
MEGA_002220
370
         0
  6
CONTINUOUS
 62
         7
100
AcDbLine
 10
91.0259590977
 20
178.9069254787
 30
0.0
 11
91.0259590977
 21
180.0442420672
 31
0.0
  0
LINE
  5
CE
100
AcDbEntity
  8
MEGA_002220
370
         0
  6
CONTINUOUS
 62
         7
100
AcDbLine
 10
91.0259590977
 20
225.050272499
 30
0.0
 11
91.0259590977
 21
225.8793723131
 31
0.0
  0
LINE
  5
CF
100
AcDbEntity
  8
MEGA_002220
370
         0
  6
CONTINUOUS
 62
         7
100
AcDbLine
 10
91.0259590977
 20
226.5412797305
 30
0.0
 11
91.0259590977
 21
226.5499500201
 31
0.0
  0
ARC
  5
D0
100
AcDbEntity
  8
MEGA_002220
370
         0
  6
CONTINUOUS
 62
         7
100
AcDbCircle
 10
103.0259590977
 20
263.5499500201
 30
0.0
 40
28.0
100
AcDbArc
 50
340.0
 51
360.0
  0
ARC
  5
D1
100
AcDbEntity
  8
MEGA_002220
370
         0
  6
CONTINUOUS
 62
         7
100
AcDbCircle
 10
128.0259590977
 20
263.5499500201
 30
0.0
 40
3.0
100
AcDbArc
 50
0.0
 51
179.9986161356
  0
LINE
  5
D2
100
AcDbEntity
  8
MEGA_002220
370
         0
  6
CONTINUOUS
 62
         7
100
AcDbLine
 10
91.0259590977
 20
225.050272499
 30
0.0
 11
91.0259590977
 21
180.0442420672
 31
0.0
  0
LINE
  5
D3
100
AcDbEntity
  8
MEGA_002220
370
         0
  6
CONTINUOUS
 62
         7
100
AcDbLine
 10
111.5505173434
 20
237.2761100035
 30
0.0
 11
121.0875703612
 21
250.9895746303
 31
0.0
  0
ARC
  5
D4
100
AcDbEntity
  8
MEGA_002220
370
         0
  6
CONTINUOUS
 62
         7
100
AcDbCircle
 10
91.0259590977
 20
251.5499500201
 30
0.0
 40
25.0
100
AcDbArc
 50
270.0
 51
325.1832499696
  0
ARC
  5
D5
100
AcDbEntity
  8
MEGA_002236
370
         0
  6
CONTINUOUS
 62
         7
100
AcDbCircle
 10
90.2760483188
 20
178.3185006327
 30
0.0
 40
0.7499999997
100
AcDbArc
 50
270.9999992206
 51
359.9912274955
  0
ARC
  5
D6
100
AcDbEntity
  8
MEGA_002236
370
         0
  6
CONTINUOUS
 62
         7
100
AcDbCircle
 10
90.2760483188
 20
226.4953503247
 30
0.0
 40
0.75
100
AcDbArc
 50
359.9760682049
 51
89.0000007794
  0
ARC
  5
D7
100
AcDbEntity
  8
MEGA_002236
370
         0
  6
CONTINUOUS
 62
         7
100
AcDbCircle
 10
90.2759590977
 20
226.4953518821
 30
0.0
 40
0.75
100
AcDbArc
 50
0.0
 51
89.0
  0
LINE
  5
D8
100
AcDbEntity
  8
MEGA_002236
370
         0
  6
CONTINUOUS
 62
         7
100
AcDbLine
 10
91.0259590977
 20
179.8104788902
 30
0.0
 11
91.0259590977
 21
178.9069254787
 31
0.0
  0
ARC
  5
D9
100
AcDbEntity
  8
MEGA_002236
370
         0
  6
CONTINUOUS
 62
         7
100
AcDbCircle
 10
90.2759590977
 20
178.3184990753
 30
0.0
 40
0.75
100
AcDbArc
 50
271.0
 51
360.0
  0
LINE
  5
DA
100
AcDbEntity
  8
MEGA_002236
370
         0
  6
CONTINUOUS
 62
         7
100
AcDbLine
 10
91.0259590977
 20
178.9069254787
 30
0.0
 11
91.0259590977
 21
178.3184990753
 31
0.0
  0
LINE
  5
DB
100
AcDbEntity
  8
MEGA_002236
370
         0
  6
CONTINUOUS
 62
         7
100
AcDbLine
 10
91.0259590977
 20
225.9069254787
 30
0.0
 11
91.0259590977
 21
225.050272499
 31
0.0
  0
LINE
  5
DC
100
AcDbEntity
  8
MEGA_002236
370
         0
  6
CONTINUOUS
 62
         7
100
AcDbLine
 10
91.0259590977
 20
226.4953518821
 30
0.0
 11
91.0259590977
 21
225.9069254787
 31
0.0
  0
LINE
  5
DD
100
AcDbEntity
  8
MEGA_002236
370
         0
  6
CONTINUOUS
 62
         7
100
AcDbLine
 10
90.2891377307
 20
227.2452360942
 30
0.0
 11
90.2890484025
 21
227.2452376535
 31
0.0
  0
LINE
  5
DE
100
AcDbEntity
  8
MEGA_002236
370
         0
  6
CONTINUOUS
 62
         7
100
AcDbLine
 10
81.0259590977
 20
227.4069254787
 30
0.0
 11
81.0259590977
 21
225.9069254787
 31
0.0
  0
LINE
  5
DF
100
AcDbEntity
  8
MEGA_002236
370
         0
  6
CONTINUOUS
 62
         7
100
AcDbLine
 10
81.0259590977
 20
225.9069254787
 30
0.0
 11
81.0259590977
 21
178.9069254787
 31
0.0
  0
LINE
  5
E0
100
AcDbEntity
  8
MEGA_002236
370
         0
  6
CONTINUOUS
 62
         7
100
AcDbLine
 10
81.0259590977
 20
178.9069254787
 30
0.0
 11
81.0259590977
 21
177.4069254787
 31
0.0
  0
LINE
  5
E1
100
AcDbEntity
  8
MEGA_002236
370
         0
  6
CONTINUOUS
 62
         7
100
AcDbLine
 10
90.2890484025
 20
227.2452376535
 30
0.0
 11
81.0259590977
 21
227.4069254787
 31
0.0
  0
LINE
  5
E2
100
AcDbEntity
  8
MEGA_002236
370
         0
  6
CONTINUOUS
 62
         7
100
AcDbLine
 10
90.2890484025
 20
177.568613304
 30
0.0
 11
81.0259590977
 21
177.4069254787
 31
0.0
  0
LINE
  5
E3
100
AcDbEntity
  8
MEGA_002236
370
         0
  6
CONTINUOUS
 62
         7
100
AcDbLine
 10
91.0259590977
 20
178.3184990753
 30
0.0
 11
91.0259590977
 21
178.3069254787
 31
0.0
  0
LINE
  5
E4
100
AcDbEntity
  8
SCHRAUBE_DIN_EN_
370
         0
  6
CONTINUOUS
 62
         7
100
AcDbLine
 10
69.0259590977
 20
222.4069254787
 30
0.0
 11
72.2259590977
 21
220.6569254787
 31
0.0
  0
LINE
  5
E5
100
AcDbEntity
  8
SCHRAUBE_DIN_EN_
370
         0
  6
CONTINUOUS
 62
         7
100
AcDbLine
 10
72.2259590977
 20
220.6569254787
 30
0.0
 11
81.0259590977
 21
220.6569254787
 31
0.0
  0
LINE
  5
E6
100
AcDbEntity
  8
SCHRAUBE_DIN_EN_
370
         0
  6
CONTINUOUS
 62
         7
100
AcDbLine
 10
91.0259590977
 20
226.5069254787
 30
0.0
 11
91.0258697936
 21
226.5069254787
 31
0.0
  0
LINE
  5
E7
100
AcDbEntity
  8
SCHRAUBE_DIN_EN_
370
         0
  6
CONTINUOUS
 62
         7
100
AcDbLine
 10
72.2259590977
 20
224.1569254787
 30
0.0
 11
69.0259590977
 21
222.4069254787
 31
0.0
  0
LINE
  5
E8
100
AcDbEntity
  8
SCHRAUBE_DIN_EN_
370
         0
  6
CONTINUOUS
 62
         7
100
AcDbLine
 10
81.0259590977
 20
224.1569254787
 30
0.0
 11
72.2259590977
 21
224.1569254787
 31
0.0
  0
LINE
  5
E9
100
AcDbEntity
  8
SCHRAUBE_DIN_EN_
370
         0
  6
CONTINUOUS
 62
         7
100
AcDbLine
 10
72.2259590977
 20
220.6569254787
 30
0.0
 11
72.2259590977
 21
224.1569254787
 31
0.0
  0
LINE
  5
EA
100
AcDbEntity
  8
SCHRAUBE_DIN_EN_
370
         0
  6
CONTINUOUS
 62
         7
100
AcDbLine
 10
81.0259590977
 20
221.0249254787
 30
0.0
 11
71.553044812
 21
221.0249254787
 31
0.0
  0
LINE
  5
EB
100
AcDbEntity
  8
SCHRAUBE_DIN_EN_
370
         0
  6
CONTINUOUS
 62
         7
100
AcDbLine
 10
81.0259590977
 20
223.7889254787
 30
0.0
 11
71.553044812
 21
223.7889254787
 31
0.0
  0
LINE
  5
EC
100
AcDbEntity
  8
SCHRAUBE_DIN_EN_
370
         0
  6
CONTINUOUS
 62
         7
100
AcDbLine
 10
72.2259590977
 20
180.6569254787
 30
0.0
 11
81.0259590977
 21
180.6569254787
 31
0.0
  0
LINE
  5
ED
100
AcDbEntity
  8
SCHRAUBE_DIN_EN_
370
         0
  6
CONTINUOUS
 62
         7
100
AcDbLine
 10
69.0259590977
 20
182.4069254787
 30
0.0
 11
72.2259590977
 21
180.6569254787
 31
0.0
  0
LINE
  5
EE
100
AcDbEntity
  8
SCHRAUBE_DIN_EN_
370
         0
  6
CONTINUOUS
 62
         7
100
AcDbLine
 10
91.0258697936
 20
178.3069254787
 30
0.0
 11
91.0259590977
 21
178.3069254787
 31
0.0
  0
LINE
  5
EF
100
AcDbEntity
  8
SCHRAUBE_DIN_EN_
370
         0
  6
CONTINUOUS
 62
         7
100
AcDbLine
 10
81.0259590977
 20
184.1569254787
 30
0.0
 11
72.2259590977
 21
184.1569254787
 31
0.0
  0
LINE
  5
F0
100
AcDbEntity
  8
SCHRAUBE_DIN_EN_
370
         0
  6
CONTINUOUS
 62
         7
100
AcDbLine
 10
72.2259590977
 20
184.1569254787
 30
0.0
 11
69.0259590977
 21
182.4069254787
 31
0.0
  0
LINE
  5
F1
100
AcDbEntity
  8
SCHRAUBE_DIN_EN_
370
         0
  6
CONTINUOUS
 62
         7
100
AcDbLine
 10
91.0259590977
 20
178.3069254787
 30
0.0
 11
91.0259590977
 21
178.3184990753
 31
0.0
  0
LINE
  5
F2
100
AcDbEntity
  8
SCHRAUBE_DIN_EN_
370
         0
  6
CONTINUOUS
 62
         7
100
AcDbLine
 10
72.2259590977
 20
184.1569254787
 30
0.0
 11
72.2259590977
 21
180.6569254787
 31
0.0
  0
LINE
  5
F3
100
AcDbEntity
  8
SCHRAUBE_DIN_EN_
370
         0
  6
CONTINUOUS
 62
         7
100
AcDbLine
 10
81.0259590977
 20
181.0249254787
 30
0.0
 11
71.553044812
 21
181.0249254787
 31
0.0
  0
LINE
  5
F4
100
AcDbEntity
  8
SCHRAUBE_DIN_EN_
370
         0
  6
CONTINUOUS
 62
         7
100
AcDbLine
 10
81.0259590977
 20
183.7889254787
 30
0.0
 11
71.553044812
 21
183.7889254787
 31
0.0
  0
ENDBLK
  5
F5
100
AcDbEntity
  8
SCHRAUBE_DIN_EN_
370
         0
  6
CONTINUOUS
 62
         7
100
AcDbBlockEnd
  0
BLOCK
  5
106
100
AcDbEntity
  8
0
370
         0
 62
         1
 48
0.0
100
AcDbBlockBegin
  2
SE7
 70
         0
 10
0.0
 20
0.0
 30
0.0
  3
SE7
  1

  0
INSERT
  5
107
100
AcDbEntity
  8
0
370
         0
 62
         0
 48
0.0
100
AcDbBlockReference
  2
SE8
 10
0.0
 20
0.0
 30
0.0
  0
INSERT
  5
108
100
AcDbEntity
  8
0
370
         0
 62
         0
 48
0.0
100
AcDbBlockReference
  2
SE9
 10
0.0
 20
0.0
 30
0.0
  0
INSERT
  5
109
100
AcDbEntity
  8
0
370
         0
 62
         0
 48
0.0
100
AcDbBlockReference
  2
SE10
 10
0.0
 20
0.0
 30
0.0
  0
INSERT
  5
10A
100
AcDbEntity
  8
0
370
         0
 62
         0
 48
0.0
100
AcDbBlockReference
  2
SE11
 10
0.0
 20
0.0
 30
0.0
  0
LINE
  5
10B
100
AcDbEntity
  8
0
370
         0
  6
CENTER2
 62
         7
100
AcDbLine
 10
41.1691111641
 20
222.4069254787
 30
0.0
 11
36.6691111641
 21
222.4069254787
 31
0.0
  0
LINE
  5
10C
100
AcDbEntity
  8
0
370
         0
  6
CENTER2
 62
         7
100
AcDbLine
 10
161.3043465356
 20
222.4069254787
 30
0.0
 11
165.8043465356
 21
222.4069254787
 31
0.0
  0
LWPOLYLINE
  5
10D
100
AcDbEntity
  8
0
370
         0
  6
CENTER2
 62
         7
100
AcDbPolyline
 90
        2
 70
         0
 10
41.1691111641
 20
222.4069254787
 40
0.0
 41
0.0
 10
161.3043465356
 20
222.4069254787
 40
0.0
 41
0.0
  0
ENDBLK
  5
10E
100
AcDbEntity
  8
0
370
         0
  6
CENTER2
 62
         7
100
AcDbBlockEnd
  0
BLOCK
  5
F8
100
AcDbEntity
  8
0
370
         0
 62
         1
 48
0.0
100
AcDbBlockBegin
  2
SE8
 70
         0
 10
0.0
 20
0.0
 30
0.0
  3
SE8
  1

  0
TEXT
  5
F9
100
AcDbEntity
  8
0
370
         0
  6
CONTINUOUS
 62
         7
100
AcDbText
 10
39.5327475277
 20
243.4069254787
 30
0.0
 40
6.0
  1
A
  7
seiso_ttf
 11
39.5327475277
 21
249.4069254787
 31
0.0
100
AcDbText
 73
         3
  0
ENDBLK
  5
FA
100
AcDbEntity
  8
0
370
         0
  6
CONTINUOUS
 62
         7
100
AcDbBlockEnd
  0
BLOCK
  5
FB
100
AcDbEntity
  8
0
370
         0
 62
         1
 48
0.0
100
AcDbBlockBegin
  2
SE9
 70
         0
 10
0.0
 20
0.0
 30
0.0
  3
SE9
  1

  0
TEXT
  5
FC
100
AcDbEntity
  8
0
370
         0
  6
CONTINUOUS
 62
         7
100
AcDbText
 10
159.6679828992
 20
243.4069254787
 30
0.0
 40
6.0
  1
A
  7
seiso_ttf
 11
159.6679828992
 21
249.4069254787
 31
0.0
100
AcDbText
 73
         3
  0
ENDBLK
  5
FD
100
AcDbEntity
  8
0
370
         0
  6
CONTINUOUS
 62
         7
100
AcDbBlockEnd
  0
BLOCK
  5
FE
100
AcDbEntity
  8
0
370
         0
 62
         1
 48
0.0
100
AcDbBlockBegin
  2
SE10
 70
         0
 10
0.0
 20
0.0
 30
0.0
  3
SE10
  1

  0
LWPOLYLINE
  5
FF
100
AcDbEntity
  8
0
370
         0
  6
CONTINUOUS
 62
         7
100
AcDbPolyline
 90
        2
 70
         0
 10
41.1691111641
 20
222.4069254787
 40
0.0
 41
0.0
 10
41.1691111641
 20
240.4069254787
 40
0.0
 41
0.0
  0
LWPOLYLINE
  5
100
100
AcDbEntity
  8
0
370
         0
  6
CONTINUOUS
 62
         7
100
AcDbPolyline
 90
        4
 70
         1
 10
40.1691111554
 20
228.4069255309
 40
0.0
 41
0.0
 10
41.1691111641
 20
222.4069254787
 40
0.0
 41
0.0
 10
42.1691111728
 20
228.4069255309
 40
0.0
 41
0.0
 10
40.1691111554
 20
228.4069255309
 40
0.0
 41
0.0
  0
ENDBLK
  5
101
100
AcDbEntity
  8
0
370
         0
  6
CONTINUOUS
 62
         7
100
AcDbBlockEnd
  0
BLOCK
  5
102
100
AcDbEntity
  8
0
370
         0
 62
         1
 48
0.0
100
AcDbBlockBegin
  2
SE11
 70
         0
 10
0.0
 20
0.0
 30
0.0
  3
SE11
  1

  0
LWPOLYLINE
  5
103
100
AcDbEntity
  8
0
370
         0
  6
CONTINUOUS
 62
         7
100
AcDbPolyline
 90
        2
 70
         0
 10
161.3043465356
 20
222.4069254787
 40
0.0
 41
0.0
 10
161.3043465356
 20
240.4069254787
 40
0.0
 41
0.0
  0
LWPOLYLINE
  5
104
100
AcDbEntity
  8
0
370
         0
  6
CONTINUOUS
 62
         7
100
AcDbPolyline
 90
        4
 70
         1
 10
160.3043465269
 20
228.4069255309
 40
0.0
 41
0.0
 10
161.3043465356
 20
222.4069254787
 40
0.0
 41
0.0
 10
162.3043465443
 20
228.4069255309
 40
0.0
 41
0.0
 10
160.3043465269
 20
228.4069255309
 40
0.0
 41
0.0
  0
ENDBLK
  5
105
100
AcDbEntity
  8
0
370
         0
  6
CONTINUOUS
 62
         7
100
AcDbBlockEnd
  0
BLOCK
  5
1A4
100
AcDbEntity
  8
0
370
         0
 62
         1
 48
0.0
100
AcDbBlockBegin
  2
SE12
 70
         0
 10
0.0
 20
0.0
 30
0.0
  3
SE12
  1

  0
INSERT
  5
1A5
100
AcDbEntity
  8
0
370
         0
 62
         0
 48
0.0
100
AcDbBlockReference
  2
SE13
 10
0.0
 20
0.0
 30
0.0
  0
ENDBLK
  5
1A6
100
AcDbEntity
  8
0
370
         0
 62
         0
 48
0.0
100
AcDbBlockEnd
  0
BLOCK
  5
10F
100
AcDbEntity
  8
0
370
         0
 62
         1
 48
0.0
100
AcDbBlockBegin
  2
SE13
 70
         0
 10
0.0
 20
0.0
 30
0.0
  3
SE13
  1

  0
TEXT
  5
110
100
AcDbEntity
  8
0
370
         0
  6
CONTINUOUS
 62
         7
100
AcDbText
 10
73.6041473131
 20
30.351187532
 30
0.0
 40
6.0
  1
SCHNITT A-A
  7
seiso_ttf
 11
73.6041473131
 21
36.351187532
 31
0.0
100
AcDbText
 73
         3
  0
ENDBLK
  5
111
100
AcDbEntity
  8
0
370
         0
  6
CONTINUOUS
 62
         7
100
AcDbBlockEnd
  0
BLOCK
  5
112
100
AcDbEntity
  8
0
370
         0
 62
         1
 48
0.0
100
AcDbBlockBegin
  2
SE14
 70
         0
 10
0.0
 20
0.0
 30
0.0
  3
SE14
  1

  0
HATCH
  5
113
100
AcDbEntity
  8
0
  6
CONTINUOUS
 62
         7
100
AcDbHatch
 10
0.0
 20
0.0
 30
0.0
210
0.0
220
0.0
230
1.0
  2
LINE
 70
         0
 71
         1
 91
        1
 92
        1
 93
       14
 72
         1
 10
81.02595909770595
 20
81.614257156639425
 11
81.02595909770595
 21
70.114257156639425
 72
         1
 10
81.02595909770595
 20
70.114257156639411
 11
72.225959097705953
 21
70.114257156639411
 72
         1
 10
72.225959097705953
 20
70.114257156639411
 11
69.02595909770595
 21
68.364257156639411
 72
         1
 10
69.02595909770595
 20
68.364257156639411
 11
72.225959097705953
 21
66.614257156639411
 72
         1
 10
72.225959097705953
 20
66.614257156639411
 11
81.02595909770595
 21
66.614257156639411
 72
         1
 10
81.02595909770595
 20
66.614257156639425
 11
81.02595909770595
 21
42.351187531989027
 72
         1
 10
81.02595909770595
 20
42.351187531989019
 11
63.045260803433308
 21
42.351187531989019
 72
         1
 10
63.045260803433308
 20
42.351187531989019
 11
63.045260803433308
 21
108.84659112105302
 72
         1
 10
63.045260803433308
 20
108.84659112105302
 11
81.02595909770595
 21
108.84659112105302
 72
         1
 10
81.02595909770595
 20
108.84659112105302
 11
81.02595909770595
 21
85.114257156639411
 72
         1
 10
81.02595909770595
 20
85.114257156639411
 11
72.225959097705953
 21
85.114257156639411
 72
         1
 10
72.225959097705953
 20
85.114257156639411
 11
69.02595909770595
 21
83.364257156639411
 72
         1
 10
69.02595909770595
 20
83.364257156639425
 11
72.225959097705953
 21
81.614257156639425
 72
         1
 10
72.225959097705953
 20
81.614257156639425
 11
81.02595909770595
 21
81.614257156639425
 97
        0
 75
         0
 76
         1
 52
90.0
 41
25.4
 77
         0
 78
         1
 53
90.0
 43
0.0
 44
0.0
 45
-3.1749999999999998
 46
0.0000000000000002
 79
         0
 98
        1
 10
0.0
 20
0.0
  0
LINE
  5
114
100
AcDbEntity
  8
STANDARD
370
         0
  6
CONTINUOUS
 62
         7
100
AcDbLine
 10
63.0452608034
 20
42.351187532
 30
0.0
 11
81.0259590977
 21
42.351187532
 31
0.0
  0
LINE
  5
115
100
AcDbEntity
  8
STANDARD
370
         0
  6
CONTINUOUS
 62
         7
100
AcDbLine
 10
63.0452608034
 20
108.8465911211
 30
0.0
 11
63.0452608034
 21
42.351187532
 31
0.0
  0
LINE
  5
116
100
AcDbEntity
  8
STANDARD
370
         0
  6
CONTINUOUS
 62
         7
100
AcDbLine
 10
81.0259590977
 20
108.8465911211
 30
0.0
 11
63.0452608034
 21
108.8465911211
 31
0.0
  0
LINE
  5
117
100
AcDbEntity
  8
STANDARD
370
         0
  6
CONTINUOUS
 62
         7
100
AcDbLine
 10
81.0259590977
 20
42.351187532
 30
0.0
 11
81.0259590977
 21
108.8465911211
 31
0.0
  0
ARC
  5
118
100
AcDbEntity
  8
MEGA_002220
370
         0
  6
CONTINUOUS
 62
         7
100
AcDbCircle
 10
117.7045099021
 20
83.4137571702
 30
0.0
 40
1.5039815524
100
AcDbArc
 50
0.1160722723
 51
85.1145085829
  0
LINE
  5
119
100
AcDbEntity
  8
MEGA_002220
370
         0
  6
CONTINUOUS
 62
         7
100
AcDbLine
 10
117.8325959244
 20
84.9122745977
 30
0.0
 11
91.0259590977
 21
87.2575514273
 31
0.0
  0
LINE
  5
11A
100
AcDbEntity
  8
MEGA_002220
370
         0
  6
CONTINUOUS
 62
         7
100
AcDbLine
 10
119.2084883682
 20
83.4168039991
 30
0.0
 11
119.2084883682
 21
68.0982988556
 31
0.0
  0
ARC
  5
11B
100
AcDbEntity
  8
MEGA_002220
370
         0
  6
CONTINUOUS
 62
         7
100
AcDbCircle
 10
91.5259590977
 20
86.3003958147
 30
0.0
 40
0.5
100
AcDbArc
 50
180.0
 51
268.0
  0
LINE
  5
11C
100
AcDbEntity
  8
MEGA_002220
370
         0
  6
CONTINUOUS
 62
         7
100
AcDbLine
 10
91.0259590977
 20
86.3003958147
 30
0.0
 11
91.0259590977
 21
87.2575514273
 31
0.0
  0
ARC
  5
11D
100
AcDbEntity
  8
MEGA_002220
370
         0
  6
CONTINUOUS
 62
         7
100
AcDbCircle
 10
117.7041626904
 20
68.101665133
 30
0.0
 40
1.5043294442
100
AcDbArc
 50
274.8976315188
 51
359.8717876259
  0
LINE
  5
11E
100
AcDbEntity
  8
MEGA_002220
370
         0
  6
CONTINUOUS
 62
         7
100
AcDbLine
 10
91.5085093494
 20
85.8007004012
 30
0.0
 11
92.6534088461
 21
85.7607196298
 31
0.0
  0
LINE
  5
11F
100
AcDbEntity
  8
MEGA_002220
370
         0
  6
CONTINUOUS
 62
         7
100
AcDbLine
 10
91.0259590977
 20
64.2575514273
 30
0.0
 11
91.0259590977
 21
65.2147070399
 31
0.0
  0
LINE
  5
120
100
AcDbEntity
  8
MEGA_002220
370
         0
  6
CONTINUOUS
 62
         7
100
AcDbLine
 10
91.0259590977
 20
64.2575514273
 30
0.0
 11
117.8325959244
 21
66.6028282569
 31
0.0
  0
ARC
  5
121
100
AcDbEntity
  8
MEGA_002220
370
         0
  6
CONTINUOUS
 62
         7
100
AcDbCircle
 10
92.6359590977
 20
85.2610242163
 30
0.0
 40
0.5
100
AcDbArc
 50
0.0
 51
88.0
  0
ARC
  5
122
100
AcDbEntity
  8
MEGA_002220
370
         0
  6
CONTINUOUS
 62
         7
100
AcDbCircle
 10
91.5259590977
 20
65.2147070399
 30
0.0
 40
0.5
100
AcDbArc
 50
92.0
 51
180.0
  0
LINE
  5
123
100
AcDbEntity
  8
MEGA_002220
370
         0
  6
CONTINUOUS
 62
         7
100
AcDbLine
 10
92.6534088461
 20
65.7543832248
 30
0.0
 11
91.5085093494
 21
65.7144024534
 31
0.0
  0
LINE
  5
124
100
AcDbEntity
  8
MEGA_002220
370
         0
  6
CONTINUOUS
 62
         7
100
AcDbLine
 10
93.1359590977
 20
83.2572022037
 30
0.0
 11
114.5783083428
 21
82.5084188683
 31
0.0
  0
LINE
  5
125
100
AcDbEntity
  8
MEGA_002220
370
         0
  6
CONTINUOUS
 62
         7
100
AcDbLine
 10
93.1359590977
 20
83.2572022037
 30
0.0
 11
93.1359590977
 21
85.2610242163
 31
0.0
  0
ARC
  5
126
100
AcDbEntity
  8
MEGA_002220
370
         0
  6
CONTINUOUS
 62
         7
100
AcDbCircle
 10
114.5259590977
 20
81.0093326278
 30
0.0
 40
1.5
100
AcDbArc
 50
0.0
 51
88.0
  0
ARC
  5
127
100
AcDbEntity
  8
MEGA_002220
370
         0
  6
CONTINUOUS
 62
         7
100
AcDbCircle
 10
92.6359590977
 20
66.2540786383
 30
0.0
 40
0.5
100
AcDbArc
 50
272.0
 51
360.0
  0
LINE
  5
128
100
AcDbEntity
  8
MEGA_002220
370
         0
  6
CONTINUOUS
 62
         7
100
AcDbLine
 10
116.0259590977
 20
70.5057702268
 30
0.0
 11
116.0259590977
 21
81.0093326278
 31
0.0
  0
LINE
  5
129
100
AcDbEntity
  8
MEGA_002220
370
         0
  6
CONTINUOUS
 62
         7
100
AcDbLine
 10
114.5783083428
 20
69.0066839863
 30
0.0
 11
93.1359590977
 21
68.2579006509
 31
0.0
  0
ARC
  5
12A
100
AcDbEntity
  8
MEGA_002220
370
         0
  6
CONTINUOUS
 62
         7
100
AcDbCircle
 10
114.5259590977
 20
70.5057702268
 30
0.0
 40
1.5
100
AcDbArc
 50
272.0
 51
360.0
  0
LINE
  5
12B
100
AcDbEntity
  8
MEGA_002220
370
         0
  6
CONTINUOUS
 62
         7
100
AcDbLine
 10
93.1359590977
 20
66.2540786383
 30
0.0
 11
93.1359590977
 21
68.2579006509
 31
0.0
  0
LINE
  5
12C
100
AcDbEntity
  8
MEGA_002220
370
         0
  6
CONTINUOUS
 62
         7
100
AcDbLine
 10
91.0259590977
 20
85.9075514273
 30
0.0
 11
91.2154416704
 21
85.9075514273
 31
0.0
  0
LINE
  5
12D
100
AcDbEntity
  8
MEGA_002220
370
         0
  6
CONTINUOUS
 62
         7
100
AcDbLine
 10
91.212880582
 20
65.6075514273
 30
0.0
 11
91.0259590977
 21
65.6075514273
 31
0.0
  0
HATCH
  5
12E
100
AcDbEntity
  8
0
  6
CONTINUOUS
 62
         7
100
AcDbHatch
 10
0.0
 20
0.0
 30
0.0
210
0.0
220
0.0
230
1.0
  2
LINE
 70
         0
 71
         1
 91
        1
 92
        1
 93
       20
 72
         1
 10
114.5783083427597
 20
69.006683986290383
 11
93.13595909770595
 21
68.257900650942304
 72
         1
 10
93.13595909770595
 20
68.25790065094229
 11
93.13595909770595
 21
66.254078638345831
 72
         3
 10
92.63595909770595
 20
66.25407863834586
 11
0.5
 21
0.0
 40
1.0
 50
272.0
 51
360.0
 73
         1
 72
         1
 10
92.653408846057204
 20
65.754383224836289
 11
91.508509349354696
 21
65.714402453420703
 72
         3
 10
91.52595909770595
 20
65.214707039911161
 11
0.5
 21
0.0
 40
1.0
 50
92.0
 51
180.0
 73
         1
 72
         1
 10
91.02595909770595
 20
65.214707039911175
 11
91.02595909770595
 21
64.257551427314709
 72
         1
 10
91.02595909770595
 20
64.257551427314709
 11
117.83259592442741
 21
66.60282825690939
 72
         3
 10
117.70416269042028
 20
68.101665132983101
 11
1.5043294441962964
 21
0.0
 40
1.0
 50
274.8976315188
 51
359.8717876259
 73
         1
 72
         1
 10
119.20848836820826
 20
68.098298855569723
 11
119.20848836820825
 21
83.416803999059695
 72
         3
 10
117.70450990205123
 20
83.413757170159627
 11
1.5039815523570748
 21
0.0
 40
1.0
 50
0.1160722723
 51
85.1145085829
 73
         1
 72
         1
 10
117.83259592442741
 20
84.912274597720042
 11
91.02595909770595
 21
87.257551427314723
 72
         1
 10
91.02595909770595
 20
87.257551427314709
 11
91.02595909770595
 21
86.300395814718271
 72
         3
 10
91.52595909770595
 20
86.300395814718286
 11
0.5
 21
0.0
 40
1.0
 50
180.0
 51
268.0
 73
         1
 72
         1
 10
91.508509349354696
 20
85.800700401208729
 11
92.653408846057204
 21
85.760719629793158
 72
         3
 10
92.63595909770595
 20
85.261024216283602
 11
0.5
 21
0.0
 40
1.0
 50
0.0
 51
88.0
 73
         1
 72
         1
 10
93.13595909770595
 20
85.261024216283602
 11
93.13595909770595
 21
83.257202203687115
 72
         1
 10
93.13595909770595
 20
83.257202203687129
 11
114.5783083427597
 21
82.508418868339049
 72
         3
 10
114.52595909770595
 20
81.009332627810409
 11
1.5
 21
0.0
 40
1.0
 50
0.0
 51
88.0
 73
         1
 72
         1
 10
116.02595909770595
 20
81.009332627810409
 11
116.02595909770595
 21
70.505770226819024
 72
         3
 10
114.52595909770595
 20
70.505770226819024
 11
1.5
 21
0.0
 40
1.0
 50
272.0
 51
360.0
 73
         1
 97
        0
 75
         0
 76
         1
 52
45.0
 41
25.4
 77
         0
 78
         1
 53
45.0
 43
0.0
 44
0.0
 45
-2.245064030267288
 46
2.2450640302672884
 79
         0
 98
        1
 10
0.0
 20
0.0
  0
LINE
  5
12F
100
AcDbEntity
  8
MEGA_002235
370
         0
  6
CONTINUOUS
 62
         7
100
AcDbLine
 10
86.0259590977
 20
73.2575514273
 30
0.0
 11
86.3259590977
 21
73.2575514273
 31
0.0
  0
LINE
  5
130
100
AcDbEntity
  8
MEGA_002235
370
         0
  6
CONTINUOUS
 62
         7
100
AcDbLine
 10
84.0259590977
 20
73.2575514273
 30
0.0
 11
84.5259590977
 21
72.7575514273
 31
0.0
  0
LINE
  5
131
100
AcDbEntity
  8
MEGA_002235
370
         0
  6
CONTINUOUS
 62
         7
100
AcDbLine
 10
84.5259590977
 20
72.7575514273
 30
0.0
 11
86.0259590977
 21
72.7575514273
 31
0.0
  0
LINE
  5
132
100
AcDbEntity
  8
MEGA_002235
370
         0
  6
CONTINUOUS
 62
         7
100
AcDbLine
 10
84.0259590977
 20
78.2575514273
 30
0.0
 11
84.0259590977
 21
73.2575514273
 31
0.0
  0
LINE
  5
133
100
AcDbEntity
  8
MEGA_002235
370
         0
  6
CONTINUOUS
 62
         7
100
AcDbLine
 10
84.5259590977
 20
78.7575514273
 30
0.0
 11
84.5259590977
 21
72.7575514273
 31
0.0
  0
LINE
  5
134
100
AcDbEntity
  8
MEGA_002235
370
         0
  6
CONTINUOUS
 62
         7
100
AcDbLine
 10
86.3259590977
 20
78.2575514273
 30
0.0
 11
86.0259590977
 21
78.2575514273
 31
0.0
  0
LINE
  5
135
100
AcDbEntity
  8
MEGA_002235
370
         0
  6
CONTINUOUS
 62
         7
100
AcDbLine
 10
86.0259590977
 20
78.7575514273
 30
0.0
 11
86.0259590977
 21
72.7575514273
 31
0.0
  0
LINE
  5
136
100
AcDbEntity
  8
MEGA_002235
370
         0
  6
CONTINUOUS
 62
         7
100
AcDbLine
 10
84.5259590977
 20
78.7575514273
 30
0.0
 11
84.0259590977
 21
78.2575514273
 31
0.0
  0
LINE
  5
137
100
AcDbEntity
  8
MEGA_002235
370
         0
  6
CONTINUOUS
 62
         7
100
AcDbLine
 10
86.0259590977
 20
78.7575514273
 30
0.0
 11
84.5259590977
 21
78.7575514273
 31
0.0
  0
LINE
  5
138
100
AcDbEntity
  8
MEGA_002232
370
         0
  6
CONTINUOUS
 62
         7
100
AcDbLine
 10
91.1359590977
 20
65.8947182251
 30
0.0
 11
92.9836084805
 21
65.8947182251
 31
0.0
  0
LINE
  5
139
100
AcDbEntity
  8
MEGA_002232
370
         0
  6
CONTINUOUS
 62
         7
100
AcDbLine
 10
91.1359590977
 20
85.4909431807
 30
0.0
 11
91.1359590977
 21
65.9106796712
 31
0.0
  0
LINE
  5
13A
100
AcDbEntity
  8
MEGA_002232
370
         0
  6
CONTINUOUS
 62
         7
100
AcDbLine
 10
93.1359590977
 20
85.4909431807
 30
0.0
 11
91.1359590977
 21
85.4909431807
 31
0.0
  0
LINE
  5
13B
100
AcDbEntity
  8
MEGA_002232
370
         0
  6
CONTINUOUS
 62
         7
100
AcDbLine
 10
93.1359590977
 20
85.4909431807
 30
0.0
 11
93.1359590977
 21
65.9106796712
 31
0.0
  0
LINE
  5
13C
100
AcDbEntity
  8
MEGA_002232
370
         0
  6
CONTINUOUS
 62
         7
100
AcDbLine
 10
91.1359590977
 20
65.9106796712
 30
0.0
 11
93.1359590977
 21
65.9106796712
 31
0.0
  0
LINE
  5
13D
100
AcDbEntity
  8
MEGA_002232
370
         0
  6
CONTINUOUS
 62
         7
100
AcDbLine
 10
91.1359590977
 20
65.8947182251
 30
0.0
 11
91.1359590977
 21
65.9106796712
 31
0.0
  0
LINE
  5
13E
100
AcDbEntity
  8
MEGA_002232
370
         0
  6
CONTINUOUS
 62
         7
100
AcDbLine
 10
91.1359590977
 20
85.4909431807
 30
0.0
 11
91.1359590977
 21
85.4936627672
 31
0.0
  0
LINE
  5
13F
100
AcDbEntity
  8
MEGA_002232
370
         0
  6
CONTINUOUS
 62
         7
100
AcDbLine
 10
91.1359590977
 20
85.4936627672
 30
0.0
 11
91.1359590977
 21
85.9075514273
 31
0.0
  0
HATCH
  5
140
100
AcDbEntity
  8
0
  6
CONTINUOUS
 62
         7
100
AcDbHatch
 10
0.0
 20
0.0
 30
0.0
210
0.0
220
0.0
230
1.0
  2
LINE
 70
         0
 71
         1
 91
        1
 92
        1
 93
        4
 72
         1
 10
93.13595909770595
 20
85.490943180736153
 11
91.13595909770595
 21
85.490943180736153
 72
         1
 10
91.13595909770595
 20
85.490943180736153
 11
91.13595909770595
 21
65.910679671203724
 72
         1
 10
91.13595909770595
 20
65.910679671203724
 11
93.13595909770595
 21
65.910679671203724
 72
         1
 10
93.13595909770595
 20
65.910679671203724
 11
93.13595909770595
 21
85.490943180736153
 97
        0
 75
         0
 76
         1
 52
135.0
 41
25.4
 77
         0
 78
         1
 53
135.0
 43
0.0
 44
0.0
 45
-2.2450640302672884
 46
-2.245064030267288
 79
         0
 98
        1
 10
0.0
 20
0.0
  0
LINE
  5
141
100
AcDbEntity
  8
MEGA_002236
370
         0
  6
CONTINUOUS
 62
         7
100
AcDbLine
 10
88.6759590977
 20
85.6142571566
 30
0.0
 11
88.6759590977
 21
85.524307663
 31
0.0
  0
LINE
  5
142
100
AcDbEntity
  8
MEGA_002236
370
         0
  6
CONTINUOUS
 62
         7
100
AcDbLine
 10
88.6759590977
 20
81.2042066503
 30
0.0
 11
88.6759590977
 21
81.1142571566
 31
0.0
  0
LINE
  5
143
100
AcDbEntity
  8
MEGA_002236
370
         0
  6
CONTINUOUS
 62
         7
100
AcDbLine
 10
81.3259590977
 20
72.954592548
 30
0.0
 11
81.3259590977
 21
72.3787458863
 31
0.0
  0
LINE
  5
144
100
AcDbEntity
  8
MEGA_002236
370
         0
  6
CONTINUOUS
 62
         7
100
AcDbLine
 10
90.5259590977
 20
64.2642571566
 30
0.0
 11
90.5259590977
 21
64.3770854609
 31
0.0
  0
LINE
  5
145
100
AcDbEntity
  8
MEGA_002236
370
         0
  6
CONTINUOUS
 62
         7
100
AcDbLine
 10
90.5259590977
 20
72.3494280006
 30
0.0
 11
90.5259590977
 21
72.4642571566
 31
0.0
  0
LINE
  5
146
100
AcDbEntity
  8
MEGA_002236
370
         0
  6
CONTINUOUS
 62
         7
100
AcDbLine
 10
81.0259590977
 20
66.3642571566
 30
0.0
 11
81.0259590977
 21
66.6142571566
 31
0.0
  0
LINE
  5
147
100
AcDbEntity
  8
MEGA_002236
370
         0
  6
CONTINUOUS
 62
         7
100
AcDbLine
 10
81.0259590977
 20
70.1142571566
 30
0.0
 11
81.0259590977
 21
81.6142571566
 31
0.0
  0
LINE
  5
148
100
AcDbEntity
  8
MEGA_002236
370
         0
  6
CONTINUOUS
 62
         7
100
AcDbLine
 10
81.0259590977
 20
85.1142571566
 30
0.0
 11
81.0259590977
 21
85.3642571566
 31
0.0
  0
LINE
  5
149
100
AcDbEntity
  8
MEGA_002236
370
         0
  6
CONTINUOUS
 62
         7
100
AcDbLine
 10
81.0259590977
 20
65.3642571566
 30
0.0
 11
81.0259590977
 21
66.3642571566
 31
0.0
  0
LINE
  5
14A
100
AcDbEntity
  8
MEGA_002236
370
         0
  6
CONTINUOUS
 62
         7
100
AcDbLine
 10
81.0259590977
 20
85.3642571566
 30
0.0
 11
81.0259590977
 21
86.3642571566
 31
0.0
  0
LINE
  5
14B
100
AcDbEntity
  8
MEGA_002236
370
         0
  6
CONTINUOUS
 62
         7
100
AcDbLine
 10
81.3259590977
 20
79.3500011497
 30
0.0
 11
81.3259590977
 21
78.7739217653
 31
0.0
  0
LINE
  5
14C
100
AcDbEntity
  8
MEGA_002236
370
         0
  6
CONTINUOUS
 62
         7
100
AcDbLine
 10
91.0259590977
 20
87.45268356
 30
0.0
 11
91.0259590977
 21
87.4336551465
 31
0.0
  0
LINE
  5
14D
100
AcDbEntity
  8
MEGA_002236
370
         0
  6
CONTINUOUS
 62
         7
100
AcDbLine
 10
90.5259590977
 20
79.2642571566
 30
0.0
 11
90.5259590977
 21
79.3770854609
 31
0.0
  0
LINE
  5
14E
100
AcDbEntity
  8
MEGA_002236
370
         0
  6
CONTINUOUS
 62
         7
100
AcDbLine
 10
90.5259590977
 20
87.3494280006
 30
0.0
 11
90.5259590977
 21
87.4642571566
 31
0.0
  0
LINE
  5
14F
100
AcDbEntity
  8
MEGA_002236
370
         0
  6
CONTINUOUS
 62
         7
100
AcDbLine
 10
81.3259590977
 20
70.5142571566
 30
0.0
 11
81.3259590977
 21
70.1142571566
 31
0.0
  0
LINE
  5
150
100
AcDbEntity
  8
MEGA_002236
370
         0
  6
CONTINUOUS
 62
         7
100
AcDbLine
 10
81.3259590977
 20
66.6142571566
 30
0.0
 11
81.3259590977
 21
66.2142571566
 31
0.0
  0
LINE
  5
151
100
AcDbEntity
  8
MEGA_002236
370
         0
  6
CONTINUOUS
 62
         7
100
AcDbLine
 10
81.3259590977
 20
85.5142571566
 30
0.0
 11
81.3259590977
 21
85.1142571566
 31
0.0
  0
LINE
  5
152
100
AcDbEntity
  8
MEGA_002236
370
         0
  6
CONTINUOUS
 62
         7
100
AcDbLine
 10
81.3259590977
 20
81.6142571566
 30
0.0
 11
81.3259590977
 21
81.2142571566
 31
0.0
  0
LINE
  5
153
100
AcDbEntity
  8
MEGA_002236
370
         0
  6
CONTINUOUS
 62
         7
100
AcDbLine
 10
88.6759590977
 20
70.6142571566
 30
0.0
 11
88.6759590977
 21
70.524307663
 31
0.0
  0
LINE
  5
154
100
AcDbEntity
  8
MEGA_002236
370
         0
  6
CONTINUOUS
 62
         7
100
AcDbLine
 10
88.6759590977
 20
66.2042066503
 30
0.0
 11
88.6759590977
 21
66.1142571566
 31
0.0
  0
LINE
  5
155
100
AcDbEntity
  8
MEGA_002236
370
         0
  6
CONTINUOUS
 62
         7
100
AcDbLine
 10
91.0259590977
 20
87.4642571566
 30
0.0
 11
91.0259590977
 21
87.45268356
 31
0.0
  0
ARC
  5
156
100
AcDbEntity
  8
MEGA_002236
370
         0
  6
CONTINUOUS
 62
         7
100
AcDbCircle
 10
90.2760484258
 20
87.4526820008
 30
0.0
 40
0.75
100
AcDbArc
 50
0.8843118784
 51
89.0
  0
LINE
  5
157
100
AcDbEntity
  8
MEGA_002236
370
         0
  6
CONTINUOUS
 62
         7
100
AcDbLine
 10
91.0259590977
 20
87.4642571566
 30
0.0
 11
90.5259590977
 21
87.4642571566
 31
0.0
  0
LINE
  5
158
100
AcDbEntity
  8
MEGA_002236
370
         0
  6
CONTINUOUS
 62
         7
100
AcDbLine
 10
81.0259590977
 20
86.3642571566
 30
0.0
 11
81.3259590977
 21
86.3590206372
 31
0.0
  0
LINE
  5
159
100
AcDbEntity
  8
MEGA_002236
370
         0
  6
CONTINUOUS
 62
         7
100
AcDbLine
 10
81.0259590977
 20
86.3642571566
 30
0.0
 11
81.0259590977
 21
88.3642571566
 31
0.0
  0
LINE
  5
15A
100
AcDbEntity
  8
MEGA_002236
370
         0
  6
CONTINUOUS
 62
         7
100
AcDbLine
 10
81.0259590977
 20
88.3642571566
 30
0.0
 11
90.2891377307
 21
88.2025677722
 31
0.0
  0
LINE
  5
15B
100
AcDbEntity
  8
MEGA_002236
370
         0
  6
CONTINUOUS
 62
         7
100
AcDbLine
 10
81.3259590977
 20
86.3590206372
 30
0.0
 11
81.3259590977
 21
85.5142571566
 31
0.0
  0
LINE
  5
15C
100
AcDbEntity
  8
MEGA_002236
370
         0
  6
CONTINUOUS
 62
         7
100
AcDbLine
 10
90.5259590977
 20
87.4642571566
 30
0.0
 11
88.6759590977
 21
85.6142571566
 31
0.0
  0
ARC
  5
15D
100
AcDbEntity
  8
MEGA_002236
370
         0
  6
CONTINUOUS
 62
         7
100
AcDbCircle
 10
90.2760484258
 20
64.2758323125
 30
0.0
 40
0.75
100
AcDbArc
 50
271.0
 51
359.1156881216
  0
LINE
  5
15E
100
AcDbEntity
  8
MEGA_002236
370
         0
  6
CONTINUOUS
 62
         7
100
AcDbLine
 10
88.6759590977
 20
85.6142571566
 30
0.0
 11
81.3259590977
 21
85.5142571566
 31
0.0
  0
LINE
  5
15F
100
AcDbEntity
  8
MEGA_002236
370
         0
  6
CONTINUOUS
 62
         7
100
AcDbLine
 10
90.2891377307
 20
63.5259465411
 30
0.0
 11
81.0259590977
 21
63.3642571566
 31
0.0
  0
LINE
  5
160
100
AcDbEntity
  8
MEGA_002236
370
         0
  6
CONTINUOUS
 62
         7
100
AcDbLine
 10
90.5259590977
 20
64.2642571566
 30
0.0
 11
91.0259590977
 21
64.2642571566
 31
0.0
  0
LINE
  5
161
100
AcDbEntity
  8
MEGA_002236
370
         0
  6
CONTINUOUS
 62
         7
100
AcDbLine
 10
81.3259590977
 20
65.3694936761
 30
0.0
 11
81.0259590977
 21
65.3642571566
 31
0.0
  0
LINE
  5
162
100
AcDbEntity
  8
MEGA_002236
370
         0
  6
CONTINUOUS
 62
         7
100
AcDbLine
 10
81.0259590977
 20
63.3642571566
 30
0.0
 11
81.0259590977
 21
65.3642571566
 31
0.0
  0
LINE
  5
163
100
AcDbEntity
  8
MEGA_002236
370
         0
  6
CONTINUOUS
 62
         7
100
AcDbLine
 10
88.6759590977
 20
66.1142571566
 30
0.0
 11
90.5259590977
 21
64.2642571566
 31
0.0
  0
LINE
  5
164
100
AcDbEntity
  8
MEGA_002236
370
         0
  6
CONTINUOUS
 62
         7
100
AcDbLine
 10
81.3259590977
 20
65.3694936761
 30
0.0
 11
81.3259590977
 21
66.2142571566
 31
0.0
  0
LINE
  5
165
100
AcDbEntity
  8
MEGA_002236
370
         0
  6
CONTINUOUS
 62
         7
100
AcDbLine
 10
81.3259590977
 20
66.2142571566
 30
0.0
 11
88.6759590977
 21
66.1142571566
 31
0.0
  0
LINE
  5
166
100
AcDbEntity
  8
MEGA_002236
370
         0
  6
CONTINUOUS
 62
         7
100
AcDbLine
 10
81.3259590977
 20
81.2142571566
 30
0.0
 11
88.6759590977
 21
81.1142571566
 31
0.0
  0
LINE
  5
167
100
AcDbEntity
  8
MEGA_002236
370
         0
  6
CONTINUOUS
 62
         7
100
AcDbLine
 10
88.6759590977
 20
81.1142571566
 30
0.0
 11
90.5259590977
 21
79.2642571566
 31
0.0
  0
LINE
  5
168
100
AcDbEntity
  8
MEGA_002236
370
         0
  6
CONTINUOUS
 62
         7
100
AcDbLine
 10
81.3259590977
 20
81.2142571566
 30
0.0
 11
81.3259590977
 21
79.3590206372
 31
0.0
  0
LINE
  5
169
100
AcDbEntity
  8
MEGA_002236
370
         0
  6
CONTINUOUS
 62
         7
100
AcDbLine
 10
90.5259590977
 20
79.2642571566
 30
0.0
 11
91.0259590977
 21
79.2642571566
 31
0.0
  0
LINE
  5
16A
100
AcDbEntity
  8
MEGA_002236
370
         0
  6
CONTINUOUS
 62
         7
100
AcDbLine
 10
81.3259590977
 20
79.3590206372
 30
0.0
 11
87.5434115041
 21
79.2504946017
 31
0.0
  0
LINE
  5
16B
100
AcDbEntity
  8
MEGA_002236
370
         0
  6
CONTINUOUS
 62
         7
100
AcDbLine
 10
91.0259590977
 20
72.4642571566
 30
0.0
 11
91.0259590977
 21
79.2642571566
 31
0.0
  0
LINE
  5
16C
100
AcDbEntity
  8
MEGA_002236
370
         0
  6
CONTINUOUS
 62
         7
100
AcDbLine
 10
91.0259590977
 20
72.4642571566
 30
0.0
 11
90.5259590977
 21
72.4642571566
 31
0.0
  0
ARC
  5
16D
100
AcDbEntity
  8
MEGA_002236
370
         0
  6
CONTINUOUS
 62
         7
100
AcDbCircle
 10
87.5259590977
 20
78.2506469066
 30
0.0
 40
1.0
100
AcDbArc
 50
0.0
 51
89.0
  0
LINE
  5
16E
100
AcDbEntity
  8
MEGA_002236
370
         0
  6
CONTINUOUS
 62
         7
100
AcDbLine
 10
88.5259590977
 20
73.4778674067
 30
0.0
 11
88.5259590977
 21
78.2506469066
 31
0.0
  0
LINE
  5
16F
100
AcDbEntity
  8
MEGA_002236
370
         0
  6
CONTINUOUS
 62
         7
100
AcDbLine
 10
90.5259590977
 20
72.4642571566
 30
0.0
 11
88.6759590977
 21
70.6142571566
 31
0.0
  0
ARC
  5
170
100
AcDbEntity
  8
MEGA_002236
370
         0
  6
CONTINUOUS
 62
         7
100
AcDbCircle
 10
87.5259590977
 20
73.4778674067
 30
0.0
 40
1.0
100
AcDbArc
 50
271.0
 51
360.0
  0
LINE
  5
171
100
AcDbEntity
  8
MEGA_002236
370
         0
  6
CONTINUOUS
 62
         7
100
AcDbLine
 10
88.6759590977
 20
70.6142571566
 30
0.0
 11
81.3259590977
 21
70.5142571566
 31
0.0
  0
LINE
  5
172
100
AcDbEntity
  8
MEGA_002236
370
         0
  6
CONTINUOUS
 62
         7
100
AcDbLine
 10
81.3259590977
 20
72.3694936761
 30
0.0
 11
87.5434115041
 21
72.4780197116
 31
0.0
  0
LINE
  5
173
100
AcDbEntity
  8
MEGA_002236
370
         0
  6
CONTINUOUS
 62
         7
100
AcDbLine
 10
81.3259590977
 20
70.5142571566
 30
0.0
 11
81.3259590977
 21
72.3694936761
 31
0.0
  0
ARC
  5
174
100
AcDbEntity
  8
MEGA_002236
370
         0
  6
CONTINUOUS
 62
         7
100
AcDbCircle
 10
91.3259590977
 20
83.6590663356
 30
0.0
 40
0.3
100
AcDbArc
 50
180.0
 51
269.0
  0
HATCH
  5
175
100
AcDbEntity
  8
0
  6
CONTINUOUS
 62
         7
100
AcDbHatch
 10
0.0
 20
0.0
 30
0.0
210
0.0
220
0.0
230
1.0
  2
LINE
 70
         0
 71
         1
 91
        1
 92
        1
 93
        8
 72
         1
 10
88.675959097705956
 20
85.614257156639425
 11
90.525959097705964
 21
87.46425715663942
 72
         1
 10
90.52595909770595
 20
87.46425715663942
 11
91.02595909770595
 21
87.46425715663942
 72
         3
 10
90.276048425847563
 20
87.452682000791967
 11
0.75
 21
0.0
 40
1.0
 50
0.8843118784
 51
89.0
 73
         1
 72
         1
 10
90.289137730675506
 20
88.202567772159256
 11
81.025959097705936
 21
88.364257156639425
 72
         1
 10
81.02595909770595
 20
88.364257156639425
 11
81.02595909770595
 21
86.364257156639411
 72
         1
 10
81.02595909770595
 20
86.364257156639411
 11
81.325959097705947
 21
86.359020637160938
 72
         1
 10
81.325959097705962
 20
86.359020637160938
 11
81.325959097705962
 21
85.514257156639403
 72
         1
 10
81.325959097705962
 20
85.514257156639417
 11
88.675959097705956
 21
85.614257156639411
 97
        0
 75
         0
 76
         1
 52
45.0
 41
50.8
 77
         0
 78
         1
 53
45.0
 43
0.0
 44
0.0
 45
-4.4901280605345759
 46
4.4901280605345768
 79
         0
 98
        1
 10
0.0
 20
0.0
  0
HATCH
  5
176
100
AcDbEntity
  8
0
  6
CONTINUOUS
 62
         7
100
AcDbHatch
 10
0.0
 20
0.0
 30
0.0
210
0.0
220
0.0
230
1.0
  2
LINE
 70
         0
 71
         1
 91
        1
 92
        1
 93
        8
 72
         1
 10
81.325959097705962
 20
66.21425715663942
 11
81.325959097705962
 21
65.369493676117884
 72
         1
 10
81.325959097705962
 20
65.36949367611787
 11
81.025959097705964
 21
65.364257156639397
 72
         1
 10
81.02595909770595
 20
65.364257156639411
 11
81.02595909770595
 21
63.364257156639411
 72
         1
 10
81.02595909770595
 20
63.364257156639404
 11
90.28913773067552
 21
63.525946541119566
 72
         3
 10
90.276048425847549
 20
64.275832312486855
 11
0.75
 21
0.0
 40
1.0
 50
271.0
 51
359.1156881216
 73
         1
 72
         1
 10
91.02595909770595
 20
64.264257156639417
 11
90.52595909770595
 21
64.264257156639417
 72
         1
 10
90.52595909770595
 20
64.264257156639417
 11
88.675959097705942
 21
66.114257156639425
 72
         1
 10
88.675959097705956
 20
66.114257156639425
 11
81.325959097705962
 21
66.21425715663942
 97
        0
 75
         0
 76
         1
 52
45.0
 41
50.8
 77
         0
 78
         1
 53
45.0
 43
0.0
 44
0.0
 45
-4.4901280605345759
 46
4.4901280605345768
 79
         0
 98
        1
 10
0.0
 20
0.0
  0
HATCH
  5
177
100
AcDbEntity
  8
0
  6
CONTINUOUS
 62
         7
100
AcDbHatch
 10
0.0
 20
0.0
 30
0.0
210
0.0
220
0.0
230
1.0
  2
LINE
 70
         0
 71
         1
 91
        1
 92
        1
 93
       14
 72
         1
 10
81.325959097705962
 20
70.514257156639417
 11
88.675959097705942
 21
70.614257156639411
 72
         1
 10
88.675959097705956
 20
70.614257156639411
 11
90.525959097705964
 21
72.464257156639405
 72
         1
 10
90.52595909770595
 20
72.46425715663942
 11
91.02595909770595
 21
72.46425715663942
 72
         1
 10
91.02595909770595
 20
72.46425715663942
 11
91.02595909770595
 21
79.264257156639431
 72
         1
 10
91.02595909770595
 20
79.264257156639417
 11
90.52595909770595
 21
79.264257156639417
 72
         1
 10
90.52595909770595
 20
79.264257156639431
 11
88.675959097705942
 21
81.114257156639425
 72
         1
 10
88.675959097705956
 20
81.114257156639425
 11
81.325959097705976
 21
81.21425715663942
 72
         1
 10
81.325959097705962
 20
81.21425715663942
 11
81.325959097705947
 21
79.359020637160938
 72
         1
 10
81.325959097705962
 20
79.359020637160938
 11
87.543411504143265
 21
79.250494601718472
 72
         3
 10
87.52595909770595
 20
78.250646906562082
 11
1.0
 21
0.0
 40
1.0
 50
0.0
 51
89.0
 73
         1
 72
         1
 10
88.52595909770595
 20
78.250646906562082
 11
88.52595909770595
 21
73.477867406716726
 72
         3
 10
87.52595909770595
 20
73.477867406716726
 11
1.0
 21
0.0
 40
1.0
 50
271.0
 51
360.0
 73
         1
 72
         1
 10
87.543411504143222
 20
72.47801971156035
 11
81.325959097705976
 21
72.369493676117884
 72
         1
 10
81.32595909770599
 20
72.369493676117884
 11
81.325959097705962
 21
70.514257156639417
 97
        0
 75
         0
 76
         1
 52
45.0
 41
50.8
 77
         0
 78
         1
 53
45.0
 43
0.0
 44
0.0
 45
-4.4901280605345759
 46
4.4901280605345768
 79
         0
 98
        1
 10
0.0
 20
0.0
  0
LINE
  5
178
100
AcDbEntity
  8
SICHERUNGSSCHEIB
370
         0
  6
CONTINUOUS
 62
         7
100
AcDbLine
 10
87.0259590977
 20
72.4689875462
 30
0.0
 11
87.0259590977
 21
79.2595267671
 31
0.0
  0
LINE
  5
179
100
AcDbEntity
  8
SICHERUNGSSCHEIB
370
         0
  6
CONTINUOUS
 62
         7
100
AcDbLine
 10
86.3259590977
 20
72.4567690008
 30
0.0
 11
86.3259590977
 21
79.2717453125
 31
0.0
  0
LINE
  5
17A
100
AcDbEntity
  8
SCHRAUBE_DIN_EN_
370
         0
  6
CONTINUOUS
 62
         7
100
AcDbLine
 10
91.0259590977
 20
79.2948591668
 30
0.0
 11
91.0259590977
 21
86.3003958147
 31
0.0
  0
LINE
  5
17B
100
AcDbEntity
  8
SCHRAUBE_DIN_EN_
370
         0
  6
CONTINUOUS
 62
         7
100
AcDbLine
 10
91.0259590977
 20
87.2575514273
 30
0.0
 11
91.0259590977
 21
87.4336551465
 31
0.0
  0
LINE
  5
17C
100
AcDbEntity
  8
SCHRAUBE_DIN_EN_
370
         0
  6
CONTINUOUS
 62
         7
100
AcDbLine
 10
72.2259590977
 20
81.6142571566
 30
0.0
 11
87.686009604
 21
81.6142571566
 31
0.0
  0
ARC
  5
17D
100
AcDbEntity
  8
SCHRAUBE_DIN_EN_
370
         0
  6
CONTINUOUS
 62
         7
100
AcDbCircle
 10
87.686009604
 20
86.5142571566
 30
0.0
 40
1.4
100
AcDbArc
 50
270.0
 51
315.0
  0
ARC
  5
17E
100
AcDbEntity
  8
SCHRAUBE_DIN_EN_
370
         0
  6
CONTINUOUS
 62
         7
100
AcDbCircle
 10
87.686009604
 20
80.2142571566
 30
0.0
 40
1.4
100
AcDbArc
 50
45.0
 51
90.0
  0
LINE
  5
17F
100
AcDbEntity
  8
SCHRAUBE_DIN_EN_
370
         0
  6
CONTINUOUS
 62
         7
100
AcDbLine
 10
91.0259590977
 20
87.4336551465
 30
0.0
 11
90.6738984901
 21
87.4336551465
 31
0.0
  0
LINE
  5
180
100
AcDbEntity
  8
SCHRAUBE_DIN_EN_
370
         0
  6
CONTINUOUS
 62
         7
100
AcDbLine
 10
91.0259590977
 20
79.2948591668
 30
0.0
 11
90.6738984901
 21
79.2948591668
 31
0.0
  0
LINE
  5
181
100
AcDbEntity
  8
SCHRAUBE_DIN_EN_
370
         0
  6
CONTINUOUS
 62
         7
100
AcDbLine
 10
87.686009604
 20
85.1142571566
 30
0.0
 11
72.2259590977
 21
85.1142571566
 31
0.0
  0
LINE
  5
182
100
AcDbEntity
  8
SCHRAUBE_DIN_EN_
370
         0
  6
CONTINUOUS
 62
         7
100
AcDbLine
 10
72.2259590977
 20
85.1142571566
 30
0.0
 11
69.0259590977
 21
83.3642571566
 31
0.0
  0
LINE
  5
183
100
AcDbEntity
  8
SCHRAUBE_DIN_EN_
370
         0
  6
CONTINUOUS
 62
         7
100
AcDbLine
 10
69.0259590977
 20
83.3642571566
 30
0.0
 11
72.2259590977
 21
81.6142571566
 31
0.0
  0
ARC
  5
184
100
AcDbEntity
  8
SCHRAUBE_DIN_EN_
370
         0
  6
CONTINUOUS
 62
         7
100
AcDbCircle
 10
90.6739866708
 20
87.2941890721
 30
0.0
 40
0.1394661023
100
AcDbArc
 50
90.0362266107
 51
135.2712121449
  0
ARC
  5
185
100
AcDbEntity
  8
SCHRAUBE_DIN_EN_
370
         0
  6
CONTINUOUS
 62
         7
100
AcDbCircle
 10
90.6739730142
 20
79.4342925197
 30
0.0
 40
0.1394333728
100
AcDbArc
 50
224.7231845896
 51
269.9693766544
  0
ARC
  5
186
100
AcDbEntity
  8
SCHRAUBE_DIN_EN_
370
         0
  6
CONTINUOUS
 62
         7
100
AcDbCircle
 10
477.0358755176
 20
-296.2044822575
 30
0.0
 40
544.5168535705
100
AcDbArc
 50
135.2131048042
 51
135.3250808878
  0
ARC
  5
187
100
AcDbEntity
  8
SCHRAUBE_DIN_EN_
370
         0
  6
CONTINUOUS
 62
         7
100
AcDbCircle
 10
477.0358755177
 20
462.9329965708
 30
0.0
 40
544.5168535706
100
AcDbArc
 50
224.6749191122
 51
224.7868951958
  0
LINE
  5
188
100
AcDbEntity
  8
SCHRAUBE_DIN_EN_
370
         0
  6
CONTINUOUS
 62
         7
100
AcDbLine
 10
89.8259590977
 20
80.0542066503
 30
0.0
 11
89.8259590977
 21
86.674307663
 31
0.0
  0
LINE
  5
189
100
AcDbEntity
  8
SCHRAUBE_DIN_EN_
370
         0
  6
CONTINUOUS
 62
         7
100
AcDbLine
 10
88.6759590977
 20
81.2042066503
 30
0.0
 11
89.8259590977
 21
80.0542066503
 31
0.0
  0
LINE
  5
18A
100
AcDbEntity
  8
SCHRAUBE_DIN_EN_
370
         0
  6
CONTINUOUS
 62
         7
100
AcDbLine
 10
89.8259590977
 20
86.674307663
 30
0.0
 11
88.6759590977
 21
85.524307663
 31
0.0
  0
LINE
  5
18B
100
AcDbEntity
  8
SCHRAUBE_DIN_EN_
370
         0
  6
CONTINUOUS
 62
         7
100
AcDbLine
 10
87.686009604
 20
81.9822571566
 30
0.0
 11
71.553044812
 21
81.9822571566
 31
0.0
  0
LINE
  5
18C
100
AcDbEntity
  8
SCHRAUBE_DIN_EN_
370
         0
  6
CONTINUOUS
 62
         7
100
AcDbLine
 10
87.686009604
 20
81.9822571566
 30
0.0
 11
87.686009604
 21
81.6142571566
 31
0.0
  0
LINE
  5
18D
100
AcDbEntity
  8
SCHRAUBE_DIN_EN_
370
         0
  6
CONTINUOUS
 62
         7
100
AcDbLine
 10
87.686009604
 20
84.7462571566
 30
0.0
 11
71.553044812
 21
84.7462571566
 31
0.0
  0
LINE
  5
18E
100
AcDbEntity
  8
SCHRAUBE_DIN_EN_
370
         0
  6
CONTINUOUS
 62
         7
100
AcDbLine
 10
87.686009604
 20
84.7462571566
 30
0.0
 11
87.686009604
 21
85.1142571566
 31
0.0
  0
ARC
  5
18F
100
AcDbEntity
  8
SCHRAUBE_DIN_EN_
370
         0
  6
CONTINUOUS
 62
         7
100
AcDbCircle
 10
87.686009604
 20
71.5142571566
 30
0.0
 40
1.4
100
AcDbArc
 50
270.0
 51
315.0
  0
LINE
  5
190
100
AcDbEntity
  8
SCHRAUBE_DIN_EN_
370
         0
  6
CONTINUOUS
 62
         7
100
AcDbLine
 10
87.686009604
 20
70.1142571566
 30
0.0
 11
72.2259590977
 21
70.1142571566
 31
0.0
  0
LINE
  5
191
100
AcDbEntity
  8
SCHRAUBE_DIN_EN_
370
         0
  6
CONTINUOUS
 62
         7
100
AcDbLine
 10
72.2259590977
 20
66.6142571566
 30
0.0
 11
87.686009604
 21
66.6142571566
 31
0.0
  0
LINE
  5
192
100
AcDbEntity
  8
SCHRAUBE_DIN_EN_
370
         0
  6
CONTINUOUS
 62
         7
100
AcDbLine
 10
72.2259590977
 20
70.1142571566
 30
0.0
 11
69.0259590977
 21
68.3642571566
 31
0.0
  0
LINE
  5
193
100
AcDbEntity
  8
SCHRAUBE_DIN_EN_
370
         0
  6
CONTINUOUS
 62
         7
100
AcDbLine
 10
69.0259590977
 20
68.3642571566
 30
0.0
 11
72.2259590977
 21
66.6142571566
 31
0.0
  0
ARC
  5
194
100
AcDbEntity
  8
SCHRAUBE_DIN_EN_
370
         0
  6
CONTINUOUS
 62
         7
100
AcDbCircle
 10
477.0358755176
 20
447.9329965708
 30
0.0
 40
544.5168535705
100
AcDbArc
 50
224.6749191122
 51
224.7868951958
  0
LINE
  5
195
100
AcDbEntity
  8
SCHRAUBE_DIN_EN_
370
         0
  6
CONTINUOUS
 62
         7
100
AcDbLine
 10
91.0259590977
 20
65.2147070399
 30
0.0
 11
91.0259590977
 21
72.4336551465
 31
0.0
  0
LINE
  5
196
100
AcDbEntity
  8
SCHRAUBE_DIN_EN_
370
         0
  6
CONTINUOUS
 62
         7
100
AcDbLine
 10
91.0259590977
 20
72.4336551465
 30
0.0
 11
90.6738984901
 21
72.4336551465
 31
0.0
  0
LINE
  5
197
100
AcDbEntity
  8
SCHRAUBE_DIN_EN_
370
         0
  6
CONTINUOUS
 62
         7
100
AcDbLine
 10
91.0259590977
 20
64.2948591668
 30
0.0
 11
90.6738984901
 21
64.2948591668
 31
0.0
  0
ARC
  5
198
100
AcDbEntity
  8
SCHRAUBE_DIN_EN_
370
         0
  6
CONTINUOUS
 62
         7
100
AcDbCircle
 10
90.6739866708
 20
72.2941890721
 30
0.0
 40
0.1394661023
100
AcDbArc
 50
90.0362266107
 51
135.2712121449
  0
ARC
  5
199
100
AcDbEntity
  8
SCHRAUBE_DIN_EN_
370
         0
  6
CONTINUOUS
 62
         7
100
AcDbCircle
 10
90.6739730142
 20
64.4342925197
 30
0.0
 40
0.1394333728
100
AcDbArc
 50
224.7231845896
 51
269.9693766544
  0
ARC
  5
19A
100
AcDbEntity
  8
SCHRAUBE_DIN_EN_
370
         0
  6
CONTINUOUS
 62
         7
100
AcDbCircle
 10
477.0358755179
 20
-311.2044822578
 30
0.0
 40
544.5168535709
100
AcDbArc
 50
135.2131048042
 51
135.3250808878
  0
LINE
  5
19B
100
AcDbEntity
  8
SCHRAUBE_DIN_EN_
370
         0
  6
CONTINUOUS
 62
         7
100
AcDbLine
 10
89.8259590977
 20
65.0542066503
 30
0.0
 11
89.8259590977
 21
71.674307663
 31
0.0
  0
LINE
  5
19C
100
AcDbEntity
  8
SCHRAUBE_DIN_EN_
370
         0
  6
CONTINUOUS
 62
         7
100
AcDbLine
 10
88.6759590977
 20
66.2042066503
 30
0.0
 11
89.8259590977
 21
65.0542066503
 31
0.0
  0
ARC
  5
19D
100
AcDbEntity
  8
SCHRAUBE_DIN_EN_
370
         0
  6
CONTINUOUS
 62
         7
100
AcDbCircle
 10
87.686009604
 20
65.2142571566
 30
0.0
 40
1.4
100
AcDbArc
 50
45.0
 51
90.0
  0
LINE
  5
19E
100
AcDbEntity
  8
SCHRAUBE_DIN_EN_
370
         0
  6
CONTINUOUS
 62
         7
100
AcDbLine
 10
89.8259590977
 20
71.674307663
 30
0.0
 11
88.6759590977
 21
70.524307663
 31
0.0
  0
LINE
  5
19F
100
AcDbEntity
  8
SCHRAUBE_DIN_EN_
370
         0
  6
CONTINUOUS
 62
         7
100
AcDbLine
 10
87.686009604
 20
69.7462571566
 30
0.0
 11
71.553044812
 21
69.7462571566
 31
0.0
  0
LINE
  5
1A0
100
AcDbEntity
  8
SCHRAUBE_DIN_EN_
370
         0
  6
CONTINUOUS
 62
         7
100
AcDbLine
 10
87.686009604
 20
69.7462571566
 30
0.0
 11
87.686009604
 21
70.1142571566
 31
0.0
  0
LINE
  5
1A1
100
AcDbEntity
  8
SCHRAUBE_DIN_EN_
370
         0
  6
CONTINUOUS
 62
         7
100
AcDbLine
 10
87.686009604
 20
66.9822571566
 30
0.0
 11
71.553044812
 21
66.9822571566
 31
0.0
  0
LINE
  5
1A2
100
AcDbEntity
  8
SCHRAUBE_DIN_EN_
370
         0
  6
CONTINUOUS
 62
         7
100
AcDbLine
 10
87.686009604
 20
66.9822571566
 30
0.0
 11
87.686009604
 21
66.6142571566
 31
0.0
  0
ENDBLK
  5
1A3
100
AcDbEntity
  8
SCHRAUBE_DIN_EN_
370
         0
  6
CONTINUOUS
 62
         7
100
AcDbBlockEnd
  0
BLOCK
  5
1A7
100
AcDbEntity
  8
DEFAULT
370
         0
 62
         1
 48
0.0
100
AcDbBlockBegin
  2
SE15
 70
         0
 10
0.0
 20
0.0
 30
0.0
  3
SE15
  1

  0
HATCH
  5
1A8
100
AcDbEntity
  8
DEFAULT
  6
CONTINUOUS
 62
         7
100
AcDbHatch
 10
0.0
 20
0.0
 30
0.0
210
0.0
220
0.0
230
1.0
  2
SOLID
 70
         1
 71
         1
 91
        1
 92
        1
 93
        3
 72
         1
 10
56.69887392619021
 20
219.40692545263093
 11
57.198873930536379
 21
222.40692547870796
 72
         1
 10
57.198873930536379
 20
222.40692547870796
 11
57.698873934882549
 21
219.40692545263093
 72
         1
 10
57.698873934882549
 20
219.40692545263093
 11
56.69887392619021
 21
219.40692545263093
 97
        0
 75
         0
 76
         1
 98
        1
 10
0.0
 20
0.0
  0
HATCH
  5
1A9
100
AcDbEntity
  8
DEFAULT
  6
CONTINUOUS
 62
         7
100
AcDbHatch
 10
0.0
 20
0.0
 30
0.0
210
0.0
220
0.0
230
1.0
  2
SOLID
 70
         1
 71
         1
 91
        1
 92
        1
 93
        3
 72
         1
 10
56.69887392619021
 20
209.90692550478502
 11
57.198873930536379
 21
206.90692547870799
 72
         1
 10
57.198873930536379
 20
206.90692547870799
 11
57.698873934882549
 21
209.90692550478502
 72
         1
 10
57.698873934882549
 20
209.90692550478502
 11
56.69887392619021
 21
209.90692550478502
 97
        0
 75
         0
 76
         1
 98
        1
 10
0.0
 20
0.0
  0
LINE
  5
1AA
100
AcDbEntity
  8
DEFAULT
370
         0
  6
CONTINUOUS
 62
         7
100
AcDbLine
 10
69.0259590977
 20
222.4069254787
 30
0.0
 11
55.6988739175
 21
222.4069254787
 31
0.0
  0
LINE
  5
1AB
100
AcDbEntity
  8
DEFAULT
370
         0
  6
CONTINUOUS
 62
         7
100
AcDbLine
 10
74.2066737901
 20
206.9069254787
 30
0.0
 11
55.6988739175
 21
206.9069254787
 31
0.0
  0
LINE
  5
1AC
100
AcDbEntity
  8
DEFAULT
370
         0
  6
CONTINUOUS
 62
         7
100
AcDbLine
 10
57.1988739305
 20
222.4069254787
 30
0.0
 11
57.1988739305
 21
206.906925732
 31
0.0
  0
TEXT
  5
1AD
100
AcDbEntity
  8
DEFAULT
370
         0
  6
CONTINUOUS
 62
         7
100
AcDbText
 10
56.4488739305
 20
212.0660165145
 30
0.0
 40
3.0
  1
15,5
 50
90.0
  7
seiso_ttf
 11
53.4488739305
 21
212.0660165145
 31
0.0
100
AcDbText
 73
         3
  0
ENDBLK
  5
1AE
100
AcDbEntity
  8
DEFAULT
370
         0
  6
CONTINUOUS
 62
         7
100
AcDbBlockEnd
  0
BLOCK
  5
1AF
100
AcDbEntity
  8
DEFAULT
370
         0
 62
         1
 48
0.0
100
AcDbBlockBegin
  2
SE16
 70
         0
 10
0.0
 20
0.0
 30
0.0
  3
SE16
  1

  0
HATCH
  5
1B0
100
AcDbEntity
  8
DEFAULT
  6
CONTINUOUS
 62
         7
100
AcDbHatch
 10
0.0
 20
0.0
 30
0.0
210
0.0
220
0.0
230
1.0
  2
SOLID
 70
         1
 71
         1
 91
        1
 92
        1
 93
        3
 72
         1
 10
56.698873966618926
 20
203.90692545263096
 11
57.198873970965096
 21
206.90692547870799
 72
         1
 10
57.198873970965096
 20
206.90692547870799
 11
57.698873975311265
 21
203.90692545263096
 72
         1
 10
57.698873975311265
 20
203.90692545263096
 11
56.698873966618926
 21
203.90692545263096
 97
        0
 75
         0
 76
         1
 98
        1
 10
0.0
 20
0.0
  0
HATCH
  5
1B1
100
AcDbEntity
  8
DEFAULT
  6
CONTINUOUS
 62
         7
100
AcDbHatch
 10
0.0
 20
0.0
 30
0.0
210
0.0
220
0.0
230
1.0
  2
SOLID
 70
         1
 71
         1
 91
        1
 92
        1
 93
        3
 72
         1
 10
56.698873966618926
 20
185.40692550478499
 11
57.198873970965096
 21
182.40692547870796
 72
         1
 10
57.198873970965096
 20
182.40692547870796
 11
57.698873975311265
 21
185.40692550478499
 72
         1
 10
57.698873975311265
 20
185.40692550478499
 11
56.698873966618926
 21
185.40692550478499
 97
        0
 75
         0
 76
         1
 98
        1
 10
0.0
 20
0.0
  0
LINE
  5
1B2
100
AcDbEntity
  8
DEFAULT
370
         0
  6
CONTINUOUS
 62
         7
100
AcDbLine
 10
74.2066737901
 20
206.9069254787
 30
0.0
 11
55.6988739579
 21
206.9069254787
 31
0.0
  0
LINE
  5
1B3
100
AcDbEntity
  8
DEFAULT
370
         0
  6
CONTINUOUS
 62
         7
100
AcDbLine
 10
69.0259590977
 20
182.4069254787
 30
0.0
 11
55.6988739579
 21
182.4069254787
 31
0.0
  0
LINE
  5
1B4
100
AcDbEntity
  8
DEFAULT
370
         0
  6
CONTINUOUS
 62
         7
100
AcDbLine
 10
57.198873971
 20
206.9069254787
 30
0.0
 11
57.198873971
 21
182.4069261195
 31
0.0
  0
TEXT
  5
1B5
100
AcDbEntity
  8
DEFAULT
370
         0
  6
CONTINUOUS
 62
         7
100
AcDbText
 10
56.448873971
 20
191.7251076173
 30
0.0
 40
3.0
  1
24,5
 50
90.0
  7
seiso_ttf
 11
53.448873971
 21
191.7251076173
 31
0.0
100
AcDbText
 73
         3
  0
ENDBLK
  5
1B6
100
AcDbEntity
  8
DEFAULT
370
         0
  6
CONTINUOUS
 62
         7
100
AcDbBlockEnd
  0
BLOCK
  5
1B7
100
AcDbEntity
  8
DEFAULT
370
         0
 62
         1
 48
0.0
100
AcDbBlockBegin
  2
SE17
 70
         0
 10
0.0
 20
0.0
 30
0.0
  3
SE17
  1

  0
HATCH
  5
1B8
100
AcDbEntity
  8
DEFAULT
  6
CONTINUOUS
 62
         7
100
AcDbHatch
 10
0.0
 20
0.0
 30
0.0
210
0.0
220
0.0
230
1.0
  2
SOLID
 70
         1
 71
         1
 91
        1
 92
        1
 93
        3
 72
         1
 10
42.171316404131723
 20
224.40692545263093
 11
42.671316408477892
 21
227.40692547870796
 72
         1
 10
42.671316408477892
 20
227.40692547870796
 11
43.171316412824062
 21
224.40692545263093
 72
         1
 10
43.171316412824062
 20
224.40692545263093
 11
42.171316404131723
 21
224.40692545263093
 97
        0
 75
         0
 76
         1
 98
        1
 10
0.0
 20
0.0
  0
HATCH
  5
1B9
100
AcDbEntity
  8
DEFAULT
  6
CONTINUOUS
 62
         7
100
AcDbHatch
 10
0.0
 20
0.0
 30
0.0
210
0.0
220
0.0
230
1.0
  2
SOLID
 70
         1
 71
         1
 91
        1
 92
        1
 93
        3
 72
         1
 10
42.171316404131723
 20
180.40692550478499
 11
42.671316408477892
 21
177.40692547870796
 72
         1
 10
42.671316408477892
 20
177.40692547870796
 11
43.171316412824062
 21
180.40692550478499
 72
         1
 10
43.171316412824062
 20
180.40692550478499
 11
42.171316404131723
 21
180.40692550478499
 97
        0
 75
         0
 76
         1
 98
        1
 10
0.0
 20
0.0
  0
LINE
  5
1BA
100
AcDbEntity
  8
DEFAULT
370
         0
  6
CONTINUOUS
 62
         7
100
AcDbLine
 10
81.0259590977
 20
227.4069254787
 30
0.0
 11
41.1713163954
 21
227.4069254787
 31
0.0
  0
LINE
  5
1BB
100
AcDbEntity
  8
DEFAULT
370
         0
  6
CONTINUOUS
 62
         7
100
AcDbLine
 10
81.0259590977
 20
177.4069254787
 30
0.0
 11
41.1713163954
 21
177.4069254787
 31
0.0
  0
LINE
  5
1BC
100
AcDbEntity
  8
DEFAULT
370
         0
  6
CONTINUOUS
 62
         7
100
AcDbLine
 10
42.6713164085
 20
227.4069254787
 30
0.0
 11
42.6713164085
 21
177.4069247336
 31
0.0
  0
TEXT
  5
1BD
100
AcDbEntity
  8
DEFAULT
370
         0
  6
CONTINUOUS
 62
         7
100
AcDbText
 10
41.9213164085
 20
200.6682887425
 30
0.0
 40
3.0
  1
50
 50
90.0
  7
seiso_ttf
 11
38.9213164085
 21
200.6682887425
 31
0.0
100
AcDbText
 73
         3
  0
ENDBLK
  5
1BE
100
AcDbEntity
  8
DEFAULT
370
         0
  6
CONTINUOUS
 62
         7
100
AcDbBlockEnd
  0
BLOCK
  5
1BF
100
AcDbEntity
  8
DEFAULT
370
         0
 62
         1
 48
0.0
100
AcDbBlockBegin
  2
SE18
 70
         0
 10
0.0
 20
0.0
 30
0.0
  3
SE18
  1

  0
HATCH
  5
1C0
100
AcDbEntity
  8
DEFAULT
  6
CONTINUOUS
 62
         7
100
AcDbHatch
 10
0.0
 20
0.0
 30
0.0
210
0.0
220
0.0
230
1.0
  2
SOLID
 70
         1
 71
         1
 91
        1
 92
        1
 93
        3
 72
         1
 10
84.025959123782982
 20
159.6310507255358
 11
81.02595909770595
 21
160.13105072988196
 72
         1
 10
81.02595909770595
 20
160.13105072988196
 11
84.025959123782982
 21
160.63105073422813
 72
         1
 10
84.025959123782982
 20
160.63105073422813
 11
84.025959123782982
 21
159.6310507255358
 97
        0
 75
         0
 76
         1
 98
        1
 10
0.0
 20
0.0
  0
HATCH
  5
1C1
100
AcDbEntity
  8
DEFAULT
  6
CONTINUOUS
 62
         7
100
AcDbHatch
 10
0.0
 20
0.0
 30
0.0
210
0.0
220
0.0
230
1.0
  2
SOLID
 70
         1
 71
         1
 91
        1
 92
        1
 93
        3
 72
         1
 10
88.025959071628918
 20
159.6310507255358
 11
91.02595909770595
 21
160.13105072988196
 72
         1
 10
91.02595909770595
 20
160.13105072988196
 11
88.025959071628918
 21
160.63105073422813
 72
         1
 10
88.025959071628918
 20
160.63105073422813
 11
88.025959071628918
 21
159.6310507255358
 97
        0
 75
         0
 76
         1
 98
        1
 10
0.0
 20
0.0
  0
LINE
  5
1C2
100
AcDbEntity
  8
DEFAULT
370
         0
  6
CONTINUOUS
 62
         7
100
AcDbLine
 10
81.0259590977
 20
178.9069254787
 30
0.0
 11
81.0259590977
 21
158.6310507168
 31
0.0
  0
LINE
  5
1C3
100
AcDbEntity
  8
DEFAULT
370
         0
  6
CONTINUOUS
 62
         7
100
AcDbLine
 10
91.0259590977
 20
180.0442420672
 30
0.0
 11
91.0259590977
 21
158.6310507168
 31
0.0
  0
LINE
  5
1C4
100
AcDbEntity
  8
DEFAULT
370
         0
  6
CONTINUOUS
 62
         7
100
AcDbLine
 10
81.0259590977
 20
160.1310507299
 30
0.0
 11
91.0259588742
 21
160.1310507299
 31
0.0
  0
TEXT
  5
1C5
100
AcDbEntity
  8
DEFAULT
370
         0
  6
CONTINUOUS
 62
         7
100
AcDbText
 10
84.5259589859
 20
160.8810507299
 30
0.0
 40
3.0
  1
10
  7
seiso_ttf
 11
84.5259589859
 21
163.8810507299
 31
0.0
100
AcDbText
 73
         3
  0
ENDBLK
  5
1C6
100
AcDbEntity
  8
DEFAULT
370
         0
  6
CONTINUOUS
 62
         7
100
AcDbBlockEnd
  0
BLOCK
  5
1C7
100
AcDbEntity
  8
DEFAULT
370
         0
 62
         1
 48
0.0
100
AcDbBlockBegin
  2
SE19
 70
         0
 10
0.0
 20
0.0
 30
0.0
  3
SE19
  1

  0
HATCH
  5
1C8
100
AcDbEntity
  8
DEFAULT
  6
CONTINUOUS
 62
         7
100
AcDbHatch
 10
0.0
 20
0.0
 30
0.0
210
0.0
220
0.0
230
1.0
  2
SOLID
 70
         1
 71
         1
 91
        1
 92
        1
 93
        3
 72
         1
 10
84.025959123782982
 20
151.32961196179812
 11
81.02595909770595
 21
151.82961196614428
 72
         1
 10
81.02595909770595
 20
151.82961196614428
 11
84.025959123782982
 21
152.32961197049045
 72
         1
 10
84.025959123782982
 20
152.32961197049045
 11
84.025959123782982
 21
151.32961196179812
 97
        0
 75
         0
 76
         1
 98
        1
 10
0.0
 20
0.0
  0
HATCH
  5
1C9
100
AcDbEntity
  8
DEFAULT
  6
CONTINUOUS
 62
         7
100
AcDbHatch
 10
0.0
 20
0.0
 30
0.0
210
0.0
220
0.0
230
1.0
  2
SOLID
 70
         1
 71
         1
 91
        1
 92
        1
 93
        3
 72
         1
 10
116.02595907162892
 20
151.32961196179812
 11
119.02595909770595
 21
151.82961196614428
 72
         1
 10
119.02595909770595
 20
151.82961196614428
 11
116.02595907162892
 21
152.32961197049045
 72
         1
 10
116.02595907162892
 20
152.32961197049045
 11
116.02595907162892
 21
151.32961196179812
 97
        0
 75
         0
 76
         1
 98
        1
 10
0.0
 20
0.0
  0
LINE
  5
1CA
100
AcDbEntity
  8
DEFAULT
370
         0
  6
CONTINUOUS
 62
         7
100
AcDbLine
 10
81.0259590977
 20
178.9069254787
 30
0.0
 11
81.0259590977
 21
150.3296119531
 31
0.0
  0
LINE
  5
1CB
100
AcDbEntity
  8
DEFAULT
370
         0
  6
CONTINUOUS
 62
         7
100
AcDbLine
 10
119.0259590977
 20
182.9499500201
 30
0.0
 11
119.0259590977
 21
150.3296119531
 31
0.0
  0
LINE
  5
1CC
100
AcDbEntity
  8
DEFAULT
370
         0
  6
CONTINUOUS
 62
         7
100
AcDbLine
 10
81.0259590977
 20
151.8296119661
 30
0.0
 11
119.0259578758
 21
151.8296119661
 31
0.0
  0
TEXT
  5
1CD
100
AcDbEntity
  8
DEFAULT
370
         0
  6
CONTINUOUS
 62
         7
100
AcDbText
 10
98.2873221231
 20
152.5796119661
 30
0.0
 40
3.0
  1
38
  7
seiso_ttf
 11
98.2873221231
 21
155.5796119661
 31
0.0
100
AcDbText
 73
         3
  0
ENDBLK
  5
1CE
100
AcDbEntity
  8
DEFAULT
370
         0
  6
CONTINUOUS
 62
         7
100
AcDbBlockEnd
  0
BLOCK
  5
1CF
100
AcDbEntity
  8
DEFAULT
370
         0
 62
         1
 48
0.0
100
AcDbBlockBegin
  2
SE20
 70
         0
 10
0.0
 20
0.0
 30
0.0
  3
SE20
  1

  0
HATCH
  5
1D0
100
AcDbEntity
  8
DEFAULT
  6
CONTINUOUS
 62
         7
100
AcDbHatch
 10
0.0
 20
0.0
 30
0.0
210
0.0
220
0.0
230
1.0
  2
SOLID
 70
         1
 71
         1
 91
        1
 92
        1
 93
        3
 72
         1
 10
153.99555328263605
 20
181.54995004618351
 11
153.49555327828989
 21
178.54995002010648
 72
         1
 10
153.49555327828989
 20
178.54995002010648
 11
152.99555327394373
 21
181.54995004618351
 72
         1
 10
152.99555327394373
 20
181.54995004618351
 11
153.99555328263605
 21
181.54995004618351
 97
        0
 75
         0
 76
         1
 98
        1
 10
0.0
 20
0.0
  0
HATCH
  5
1D1
100
AcDbEntity
  8
DEFAULT
  6
CONTINUOUS
 62
         7
100
AcDbHatch
 10
0.0
 20
0.0
 30
0.0
210
0.0
220
0.0
230
1.0
  2
SOLID
 70
         1
 71
         1
 91
        1
 92
        1
 93
        3
 72
         1
 10
153.99555328263605
 20
263.54994999402948
 11
153.49555327828989
 21
266.54995002010651
 72
         1
 10
153.49555327828989
 20
266.54995002010651
 11
152.99555327394373
 21
263.54994999402948
 72
         1
 10
152.99555327394373
 20
263.54994999402948
 11
153.99555328263605
 21
263.54994999402948
 97
        0
 75
         0
 76
         1
 98
        1
 10
0.0
 20
0.0
  0
LINE
  5
1D2
100
AcDbEntity
  8
DEFAULT
370
         0
  6
CONTINUOUS
 62
         7
100
AcDbLine
 10
91.0259590977
 20
178.5499500201
 30
0.0
 11
154.9955532913
 21
178.5499500201
 31
0.0
  0
LINE
  5
1D3
100
AcDbEntity
  8
DEFAULT
370
         0
  6
CONTINUOUS
 62
         7
100
AcDbLine
 10
133.4061570778
 20
266.5499500201
 30
0.0
 11
154.9955532913
 21
266.5499500201
 31
0.0
  0
LINE
  5
1D4
100
AcDbEntity
  8
DEFAULT
370
         0
  6
CONTINUOUS
 62
         7
100
AcDbLine
 10
153.4955532783
 20
178.5499500201
 30
0.0
 11
153.4955532783
 21
266.5499495433
 31
0.0
  0
TEXT
  5
1D5
100
AcDbEntity
  8
DEFAULT
370
         0
  6
CONTINUOUS
 62
         7
100
AcDbText
 10
152.7455532783
 20
220.6408588726
 30
0.0
 40
3.0
  1
88
 50
90.0
  7
seiso_ttf
 11
149.7455532783
 21
220.6408588726
 31
0.0
100
AcDbText
 73
         3
  0
ENDBLK
  5
1D6
100
AcDbEntity
  8
DEFAULT
370
         0
  6
CONTINUOUS
 62
         7
100
AcDbBlockEnd
  0
BLOCK
  5
1D7
100
AcDbEntity
  8
DEFAULT
370
         0
 62
         1
 48
0.0
100
AcDbBlockBegin
  2
SE21
 70
         0
 10
0.0
 20
0.0
 30
0.0
  3
SE21
  1

  0
HATCH
  5
1D8
100
AcDbEntity
  8
DEFAULT
  6
CONTINUOUS
 62
         7
100
AcDbHatch
 10
0.0
 20
0.0
 30
0.0
210
0.0
220
0.0
230
1.0
  2
SOLID
 70
         1
 71
         1
 91
        1
 92
        1
 93
        3
 72
         1
 10
84.025959123782982
 20
288.10424463302513
 11
81.02595909770595
 21
287.60424462867894
 72
         1
 10
81.02595909770595
 20
287.60424462867894
 11
84.025959123782982
 21
287.10424462433275
 72
         1
 10
84.025959123782982
 20
287.10424462433275
 11
84.025959123782982
 21
288.10424463302513
 97
        0
 75
         0
 76
         1
 98
        1
 10
0.0
 20
0.0
  0
HATCH
  5
1D9
100
AcDbEntity
  8
DEFAULT
  6
CONTINUOUS
 62
         7
100
AcDbHatch
 10
0.0
 20
0.0
 30
0.0
210
0.0
220
0.0
230
1.0
  2
SOLID
 70
         1
 71
         1
 91
        1
 92
        1
 93
        3
 72
         1
 10
128.02595907162896
 20
288.10424463302513
 11
131.02595909770599
 21
287.60424462867894
 72
         1
 10
131.02595909770599
 20
287.60424462867894
 11
128.02595907162896
 21
287.10424462433275
 72
         1
 10
128.02595907162896
 20
287.10424462433275
 11
128.02595907162896
 21
288.10424463302513
 97
        0
 75
         0
 76
         1
 98
        1
 10
0.0
 20
0.0
  0
LINE
  5
1DA
100
AcDbEntity
  8
DEFAULT
370
         0
  6
CONTINUOUS
 62
         7
100
AcDbLine
 10
81.0259590977
 20
225.9069254787
 30
0.0
 11
81.0259590977
 21
289.1042446417
 31
0.0
  0
LINE
  5
1DB
100
AcDbEntity
  8
DEFAULT
370
         0
  6
CONTINUOUS
 62
         7
100
AcDbLine
 10
131.0259590977
 20
263.5499500201
 30
0.0
 11
131.0259590977
 21
289.1042446417
 31
0.0
  0
LINE
  5
1DC
100
AcDbEntity
  8
DEFAULT
370
         0
  6
CONTINUOUS
 62
         7
100
AcDbLine
 10
81.0259590977
 20
287.6042446287
 30
0.0
 11
131.0259598428
 21
287.6042446287
 31
0.0
  0
TEXT
  5
1DD
100
AcDbEntity
  8
DEFAULT
370
         0
  6
CONTINUOUS
 62
         7
100
AcDbText
 10
104.2873231066
 20
288.3542446287
 30
0.0
 40
3.0
  1
50
  7
seiso_ttf
 11
104.2873231066
 21
291.3542446287
 31
0.0
100
AcDbText
 73
         3
  0
ENDBLK
  5
1DE
100
AcDbEntity
  8
DEFAULT
370
         0
  6
CONTINUOUS
 62
         7
100
AcDbBlockEnd
  0
BLOCK
  5
1DF
100
AcDbEntity
  8
DEFAULT
370
         0
 62
         1
 48
0.0
100
AcDbBlockBegin
  2
SE22
 70
         0
 10
0.0
 20
0.0
 30
0.0
  3
SE22
  1

  0
HATCH
  5
1E0
100
AcDbEntity
  8
DEFAULT
  6
CONTINUOUS
 62
         7
100
AcDbHatch
 10
0.0
 20
0.0
 30
0.0
210
0.0
220
0.0
230
1.0
  2
SOLID
 70
         1
 71
         1
 91
        1
 92
        1
 93
        3
 72
         1
 10
55.902248535541368
 20
86.364257182716457
 11
56.402248539887538
 21
83.364257156639425
 72
         1
 10
56.402248539887538
 20
83.364257156639425
 11
56.902248544233707
 21
86.364257182716457
 72
         1
 10
56.902248544233707
 20
86.364257182716457
 11
55.902248535541368
 21
86.364257182716457
 97
        0
 75
         0
 76
         1
 98
        1
 10
0.0
 20
0.0
  0
LINE
  5
1E1
100
AcDbEntity
  8
DEFAULT
370
         0
  6
CONTINUOUS
 62
         7
100
AcDbLine
 10
69.0259590977
 20
83.3642571566
 30
0.0
 11
54.9022485268
 21
83.3642571566
 31
0.0
  0
LINE
  5
1E2
100
AcDbEntity
  8
DEFAULT
370
         0
  6
CONTINUOUS
 62
         7
100
AcDbLine
 10
81.0259590977
 20
75.8642571566
 30
0.0
 11
54.9022485268
 21
75.8642571566
 31
0.0
  0
LINE
  5
1E3
100
AcDbEntity
  8
DEFAULT
370
         0
  6
CONTINUOUS
 62
         7
100
AcDbLine
 10
56.4022485399
 20
89.3642572088
 30
0.0
 11
56.4022485399
 21
69.8642568065
 31
0.0
  0
TEXT
  5
1E4
100
AcDbEntity
  8
DEFAULT
370
         0
  6
CONTINUOUS
 62
         7
100
AcDbText
 10
55.6522485399
 20
77.5347117859
 30
0.0
 40
3.0
  1
7,5
 50
90.0
  7
seiso_ttf
 11
52.6522485399
 21
77.5347117859
 31
0.0
100
AcDbText
 73
         3
  0
ENDBLK
  5
1E5
100
AcDbEntity
  8
DEFAULT
370
         0
  6
CONTINUOUS
 62
         7
100
AcDbBlockEnd
  0
BLOCK
  5
1E6
100
AcDbEntity
  8
DEFAULT
370
         0
 62
         1
 48
0.0
100
AcDbBlockBegin
  2
SE23
 70
         0
 10
0.0
 20
0.0
 30
0.0
  3
SE23
  1

  0
HATCH
  5
1E7
100
AcDbEntity
  8
DEFAULT
  6
CONTINUOUS
 62
         7
100
AcDbHatch
 10
0.0
 20
0.0
 30
0.0
210
0.0
220
0.0
230
1.0
  2
SOLID
 70
         1
 71
         1
 91
        1
 92
        1
 93
        3
 72
         1
 10
55.90224843123324
 20
65.364257130562379
 11
56.402248435579409
 21
68.364257156639411
 72
         1
 10
56.402248435579409
 20
68.364257156639411
 11
56.902248439925579
 21
65.364257130562379
 72
         1
 10
56.902248439925579
 20
65.364257130562379
 11
55.90224843123324
 21
65.364257130562379
 97
        0
 75
         0
 76
         1
 98
        1
 10
0.0
 20
0.0
  0
LINE
  5
1E8
100
AcDbEntity
  8
DEFAULT
370
         0
  6
CONTINUOUS
 62
         7
100
AcDbLine
 10
81.0259590977
 20
75.8642571566
 30
0.0
 11
54.9022484225
 21
75.8642571566
 31
0.0
  0
LINE
  5
1E9
100
AcDbEntity
  8
DEFAULT
370
         0
  6
CONTINUOUS
 62
         7
100
AcDbLine
 10
69.0259590977
 20
68.3642571566
 30
0.0
 11
54.9022484225
 21
68.3642571566
 31
0.0
  0
LINE
  5
1EA
100
AcDbEntity
  8
DEFAULT
370
         0
  6
CONTINUOUS
 62
         7
100
AcDbLine
 10
56.4022484356
 20
81.8642572088
 30
0.0
 11
56.4022484356
 21
62.3642568065
 31
0.0
  0
TEXT
  5
1EB
100
AcDbEntity
  8
DEFAULT
370
         0
  6
CONTINUOUS
 62
         7
100
AcDbText
 10
55.6522484356
 20
70.0347117859
 30
0.0
 40
3.0
  1
7,5
 50
90.0
  7
seiso_ttf
 11
52.6522484356
 21
70.0347117859
 31
0.0
100
AcDbText
 73
         3
  0
ENDBLK
  5
1EC
100
AcDbEntity
  8
DEFAULT
370
         0
  6
CONTINUOUS
 62
         7
100
AcDbBlockEnd
  0
ENDSEC
  0
SECTION
  2
ENTITIES
  0
INSERT
  5
57
100
AcDbEntity
  8
DEFAULT
370
         0
 62
         0
 48
0.0
100
AcDbBlockReference
  2
SE0
 10
0.0
 20
0.0
 30
0.0
  0
INSERT
  5
59
100
AcDbEntity
  8
DEFAULT
370
         0
 62
         0
 48
0.0
100
AcDbBlockReference
  2
SE1
 10
0.0
 20
0.0
 30
0.0
  0
INSERT
  5
5B
100
AcDbEntity
  8
DEFAULT
370
         0
 62
         0
 48
0.0
100
AcDbBlockReference
  2
SE2
 10
0.0
 20
0.0
 30
0.0
  0
INSERT
  5
5D
100
AcDbEntity
  8
DEFAULT
370
         0
 62
         0
 48
0.0
100
AcDbBlockReference
  2
SE3
 10
0.0
 20
0.0
 30
0.0
  0
INSERT
  5
5F
100
AcDbEntity
  8
DEFAULT
370
         0
 62
         0
 48
0.0
100
AcDbBlockReference
  2
SE4
 10
0.0
 20
0.0
 30
0.0
  0
LINE
  5
60
100
AcDbEntity
  8
DEFAULT
370
         0
  6
CONTINUOUS
 62
         7
100
AcDbLine
 10
55.2951875837
 20
77.0630065931
 30
0.0
 11
57.5022699141
 21
74.6720007352
 31
0.0
  0
TEXT
  5
62
100
AcDbEntity
  8
DEFAULT
370
         0
  6
CONTINUOUS
 62
         7
100
AcDbText
 10
118.2751638223
 20
3.990850734
 30
0.0
 40
10.0
  1
41.800
  7
seiso_ttfI
 11
118.2751638223
 21
13.990850734
 31
0.0
100
AcDbText
 73
         3
  0
INSERT
  5
66
102
{ACAD_XDICTIONARY
360
67
102
}
100
AcDbEntity
  8
0
370
         0
 62
         0
 48
0.0
100
AcDbBlockReference
  2
SE6
 10
0.0
 20
0.0
 30
0.0
  0
INSERT
  5
6A
100
AcDbEntity
  8
0
370
         0
 62
         0
 48
0.0
100
AcDbBlockReference
  2
SE5
 10
0.0
 20
0.0
 30
0.0
  0
INSERT
  5
71
100
AcDbEntity
  8
0
370
         0
 62
         0
 48
0.0
100
AcDbBlockReference
  2
SE7
 10
0.0
 20
0.0
 30
0.0
  0
INSERT
  5
7B
102
{ACAD_XDICTIONARY
360
7C
102
}
100
AcDbEntity
  8
0
370
         0
 62
         0
 48
0.0
100
AcDbBlockReference
  2
SE14
 10
0.0
 20
0.0
 30
0.0
  0
INSERT
  5
7F
100
AcDbEntity
  8
0
370
         0
 62
         0
 48
0.0
100
AcDbBlockReference
  2
SE12
 10
0.0
 20
0.0
 30
0.0
  0
INSERT
  5
83
100
AcDbEntity
  8
DEFAULT
370
         0
 62
         0
 48
0.0
100
AcDbBlockReference
  2
SE15
 10
0.0
 20
0.0
 30
0.0
  0
INSERT
  5
87
100
AcDbEntity
  8
DEFAULT
370
         0
 62
         0
 48
0.0
100
AcDbBlockReference
  2
SE16
 10
0.0
 20
0.0
 30
0.0
  0
INSERT
  5
8B
100
AcDbEntity
  8
DEFAULT
370
         0
 62
         0
 48
0.0
100
AcDbBlockReference
  2
SE17
 10
0.0
 20
0.0
 30
0.0
  0
INSERT
  5
8F
100
AcDbEntity
  8
DEFAULT
370
         0
 62
         0
 48
0.0
100
AcDbBlockReference
  2
SE18
 10
0.0
 20
0.0
 30
0.0
  0
INSERT
  5
93
100
AcDbEntity
  8
DEFAULT
370
         0
 62
         0
 48
0.0
100
AcDbBlockReference
  2
SE19
 10
0.0
 20
0.0
 30
0.0
  0
INSERT
  5
97
100
AcDbEntity
  8
DEFAULT
370
         0
 62
         0
 48
0.0
100
AcDbBlockReference
  2
SE20
 10
0.0
 20
0.0
 30
0.0
  0
INSERT
  5
9B
100
AcDbEntity
  8
DEFAULT
370
         0
 62
         0
 48
0.0
100
AcDbBlockReference
  2
SE21
 10
0.0
 20
0.0
 30
0.0
  0
INSERT
  5
9E
100
AcDbEntity
  8
DEFAULT
370
         0
 62
         0
 48
0.0
100
AcDbBlockReference
  2
SE22
 10
0.0
 20
0.0
 30
0.0
  0
INSERT
  5
A1
100
AcDbEntity
  8
DEFAULT
370
         0
 62
         0
 48
0.0
100
AcDbBlockReference
  2
SE23
 10
0.0
 20
0.0
 30
0.0
  0
ENDSEC
  0
SECTION
  2
OBJECTS
  0
DICTIONARY
  5
19
100
AcDbDictionary
280
         0
281
         1
  3
ACAD_GROUP
350
1A
  3
ACAD_MLINESTYLE
350
1B
  3
ACAD_LAYOUT
350
1E
  3
ACAD_PLOTSETTINGS
350
22
  3
ACAD_PLOTSTYLENAME
350
1F
  3
ACAD_WIPEOUT_VARS
350
23
  0
DICTIONARY
  5
1A
102
{ACAD_REACTORS
330
19
102
}
100
AcDbDictionary
280
         0
281
         1
  0
DICTIONARY
  5
1B
102
{ACAD_REACTORS
330
19
102
}
100
AcDbDictionary
280
         0
281
         1
  3
Standard
350
1C
  0
MLINESTYLE
  5
1C
102
{ACAD_REACTORS
330
1B
102
}
100
AcDbMlineStyle
  2
Standard
 70
         0
  3

 62
         0
 51
90.0
 52
90.0
 71
         2
 49
0.5
 62
       256
  6
ByLayer
 49
-0.5
 62
       256
  6
ByLayer
  0
ACDBDICTIONARYWDFLT
  5
1F
102
{ACAD_REACTORS
330
19
102
}
100
AcDbDictionary
281
         1
  3
Normal
350
1D
100
AcDbDictionaryWithDefault
340
1D
  0
ACDBPLACEHOLDER
  5
1D
102
{ACAD_REACTORS
330
1F
102
}
  0
LAYOUT
  5
20
102
{ACAD_REACTORS
330
1E
102
}
100
AcDbPlotSettings
  1

  2

  4

  6

 40
0.0
 41
0.0
 42
0.0
 43
0.0
 44
0.0
 45
0.0
 46
0.0
 47
0.0
 48
0.0
 49
0.0
140
0.0
141
0.0
142
1.0
143
1.0
 70
      1024
 72
         0
 73
         0
 74
         0
  7

 75
         0
147
1.0
148
0.0
149
0.0
100
AcDbLayout
  1
Model
 70
         0
 71
         0
 10
0.0
 20
0.0
 11
0.0
 21
0.0
 12
0.0
 22
0.0
 32
0.0
 14
0.0
 24
0.0
 34
0.0
 15
0.0
 25
0.0
 35
0.0
146
0.0
 13
0.0
 23
0.0
 33
0.0
 16
0.0
 26
0.0
 36
0.0
 17
0.0
 27
0.0
 37
0.0
 76
         0
330
A
331
0
345
0
346
0
  0
LAYOUT
  5
21
102
{ACAD_REACTORS
330
1E
102
}
100
AcDbPlotSettings
  1

  2

  4

  6

 40
0.0
 41
0.0
 42
0.0
 43
0.0
 44
0.0
 45
0.0
 46
0.0
 47
0.0
 48
0.0
 49
0.0
140
0.0
141
0.0
142
1.0
143
1.0
 70
         0
 72
         0
 73
         0
 74
         0
  7

 75
         0
147
1.0
148
0.0
149
0.0
100
AcDbLayout
  1
Layout1
 70
         0
 71
         0
 10
0.0
 20
0.0
 11
0.0
 21
0.0
 12
0.0
 22
0.0
 32
0.0
 14
0.0
 24
0.0
 34
0.0
 15
0.0
 25
0.0
 35
0.0
146
0.0
 13
0.0
 23
0.0
 33
0.0
 16
0.0
 26
0.0
 36
0.0
 17
0.0
 27
0.0
 37
0.0
 76
         0
330
B
331
0
345
0
346
0
  0
DICTIONARY
  5
1E
102
{ACAD_REACTORS
330
19
102
}
100
AcDbDictionary
280
         0
281
         1
  3
Layout1
350
21
  3
Model
350
20
  0
DICTIONARY
  5
22
102
{ACAD_REACTORS
330
19
102
}
100
AcDbDictionary
280
         0
281
         1
  0
WIPEOUTVARIABLES
  5
23
100
AcDbWipeoutVariables
 70
         1
  0
DICTIONARY
  5
67
100
AcDbDictionary
280
         0
281
         0
  3
ACAD_FILTER
350
68
  0
DICTIONARY
  5
68
100
AcDbDictionary
280
         0
281
         0
  3
SPATIAL
350
69
  0
SPATIAL_FILTER
  5
69
100
AcDbFilter
100
AcDbSpatialFilter
 70
         2
 10
56.539808896
 20
124.71957965
 10
139.7561570778
 20
301.1184332839
210
0.0
220
0.0
230
1.0
 11
0.0
 21
0.0
 31
0.0
 71
         1
 72
         0
 73
         0
 40
1.0
 40
0.0
 40
0.0
 40
0.0
 40
0.0
 40
1.0
 40
0.0
 40
0.0
 40
0.0
 40
0.0
 40
1.0
 40
0.0
 40
1.0
 40
0.0
 40
0.0
 40
0.0
 40
0.0
 40
1.0
 40
0.0
 40
0.0
 40
0.0
 40
0.0
 40
1.0
 40
0.0
  0
DICTIONARY
  5
7C
100
AcDbDictionary
280
         0
281
         0
  3
ACAD_FILTER
350
7D
  0
DICTIONARY
  5
7D
100
AcDbDictionary
280
         0
281
         0
  3
SPATIAL
350
7E
  0
SPATIAL_FILTER
  5
7E
100
AcDbFilter
100
AcDbSpatialFilter
 70
         2
 10
56.6952608034
 20
36.001187532
 10
125.5584883682
 20
115.1965911211
210
0.0
220
0.0
230
1.0
 11
0.0
 21
0.0
 31
0.0
 71
         1
 72
         0
 73
         0
 40
1.0
 40
0.0
 40
0.0
 40
0.0
 40
0.0
 40
1.0
 40
0.0
 40
0.0
 40
0.0
 40
0.0
 40
1.0
 40
0.0
 40
1.0
 40
0.0
 40
0.0
 40
0.0
 40
0.0
 40
1.0
 40
0.0
 40
0.0
 40
0.0
 40
0.0
 40
1.0
 40
0.0
  0
ENDSEC
  0
EOF
