  0
SECTION
  2
HEADER
  9
$ACADVER
  1
AC1012
  9
$DWGCODEPAGE
  3
ansi_1252
  9
$INSBASE
 10
0.0
 20
0.0
 30
0.0
  9
$EXTMIN
 10
0.0
 20
0.0
 30
0.0
  9
$EXTMAX
 10
210.0
 20
297.0
 30
0.0
  9
$LIMMIN
 10
0.0
 20
0.0
  9
$LIMMAX
 10
210.0
 20
297.0
  9
$ORTHOMODE
 70
     0
  9
$REGENMODE
 70
     1
  9
$FILLMODE
 70
     1
  9
$QTEXTMODE
 70
     0
  9
$MIRRTEXT
 70
     1
  9
$DRAGMODE
 70
     2
  9
$LTSCALE
 40
1.0
  9
$OSMODE
 70
    37
  9
$ATTMODE
 70
     1
  9
$TEXTSIZE
 40
0.2
  9
$TRACEWID
 40
0.05
  9
$TEXTSTYLE
  7
STANDARD
  9
$CLAYER
  8
0
  9
$CELTYPE
  6
BYLAYER
  9
$CECOLOR
 62
   256
  9
$CELTSCALE
 40
25.4
  9
$DELOBJ
 70
     1
  9
$DISPSILH
 70
     0
  9
$DIMSCALE
 40
1.0
  9
$DIMASZ
 40
0.18
  9
$DIMEXO
 40
0.0625
  9
$DIMDLI
 40
0.38
  9
$DIMRND
 40
0.0
  9
$DIMDLE
 40
0.0
  9
$DIMEXE
 40
0.18
  9
$DIMTP
 40
0.0
  9
$DIMTM
 40
0.0
  9
$DIMTXT
 40
0.18
  9
$DIMCEN
 40
0.09
  9
$DIMTSZ
 40
0.0
  9
$DIMTOL
 70
     0
  9
$DIMLIM
 70
     0
  9
$DIMTIH
 70
     1
  9
$DIMTOH
 70
     1
  9
$DIMSE1
 70
     0
  9
$DIMSE2
 70
     0
  9
$DIMTAD
 70
     0
  9
$DIMZIN
 70
     0
  9
$DIMBLK
  1

  9
$DIMASO
 70
     1
  9
$DIMSHO
 70
     1
  9
$DIMPOST
  1

  9
$DIMAPOST
  1

  9
$DIMALT
 70
     0
  9
$DIMALTD
 70
     2
  9
$DIMALTF
 40
25.4
  9
$DIMLFAC
 40
1.0
  9
$DIMTOFL
 70
     0
  9
$DIMTVP
 40
0.0
  9
$DIMTIX
 70
     0
  9
$DIMSOXD
 70
     0
  9
$DIMSAH
 70
     0
  9
$DIMBLK1
  1

  9
$DIMBLK2
  1

  9
$DIMSTYLE
  2
STANDARD
  9
$DIMCLRD
 70
     0
  9
$DIMCLRE
 70
     0
  9
$DIMCLRT
 70
     0
  9
$DIMTFAC
 40
1.0
  9
$DIMGAP
 40
0.09
  9
$DIMJUST
 70
     0
  9
$DIMSD1
 70
     0
  9
$DIMSD2
 70
     0
  9
$DIMTOLJ
 70
     1
  9
$DIMTZIN
 70
     0
  9
$DIMALTZ
 70
     0
  9
$DIMALTTZ
 70
     0
  9
$DIMFIT
 70
     3
  9
$DIMUPT
 70
     0
  9
$DIMUNIT
 70
     2
  9
$DIMDEC
 70
     4
  9
$DIMTDEC
 70
     4
  9
$DIMALTU
 70
     2
  9
$DIMALTTD
 70
     2
  9
$DIMTXSTY
  7
STANDARD
  9
$DIMAUNIT
 70
     0
  9
$LUNITS
 70
     2
  9
$LUPREC
 70
     4
  9
$SKETCHINC
 40
0.1
  9
$FILLETRAD
 40
0.5
  9
$AUNITS
 70
     0
  9
$AUPREC
 70
     0
  9
$MENU
  1
.
  9
$ELEVATION
 40
0.0
  9
$PELEVATION
 40
0.0
  9
$THICKNESS
 40
0.0
  9
$LIMCHECK
 70
     0
  9
$CHAMFERA
 40
0.5
  9
$CHAMFERB
 40
0.5
  9
$CHAMFERC
 40
1.0
  9
$CHAMFERD
 40
0.0
  9
$SKPOLY
 70
     0
  9
$TDCREATE
 40
2453762.546058229
  9
$TDUPDATE
 40
2453762.546058241
  9
$TDINDWG
 40
0.0000000116
  9
$TDUSRTIMER
 40
0.0000000116
  9
$USRTIMER
 70
     1
  9
$ANGBASE
 50
0.0
  9
$ANGDIR
 70
     0
  9
$PDMODE
 70
     0
  9
$PDSIZE
 40
0.0
  9
$PLINEWID
 40
0.0
  9
$COORDS
 70
     1
  9
$SPLFRAME
 70
     0
  9
$SPLINETYPE
 70
     6
  9
$SPLINESEGS
 70
     8
  9
$ATTDIA
 70
     0
  9
$ATTREQ
 70
     1
  9
$HANDLING
 70
     1
  9
$HANDSEED
  5
124
  9
$SURFTAB1
 70
     6
  9
$SURFTAB2
 70
     6
  9
$SURFTYPE
 70
     6
  9
$SURFU
 70
     6
  9
$SURFV
 70
     6
  9
$UCSNAME
  2

  9
$UCSORG
 10
0.0
 20
0.0
 30
0.0
  9
$UCSXDIR
 10
1.0
 20
0.0
 30
0.0
  9
$UCSYDIR
 10
0.0
 20
1.0
 30
0.0
  9
$PUCSNAME
  2

  9
$PUCSORG
 10
0.0
 20
0.0
 30
0.0
  9
$PUCSXDIR
 10
1.0
 20
0.0
 30
0.0
  9
$PUCSYDIR
 10
0.0
 20
1.0
 30
0.0
  9
$USERI1
 70
     0
  9
$USERI2
 70
     0
  9
$USERI3
 70
     0
  9
$USERI4
 70
     0
  9
$USERI5
 70
     0
  9
$USERR1
 40
0.0
  9
$USERR2
 40
0.0
  9
$USERR3
 40
0.0
  9
$USERR4
 40
0.0
  9
$USERR5
 40
0.0
  9
$WORLDVIEW
 70
     1
  9
$SHADEDGE
 70
     3
  9
$SHADEDIF
 70
    70
  9
$TILEMODE
 70
     1
  9
$MAXACTVP
 70
    64
  9
$PINSBASE
 10
0.0
 20
0.0
 30
0.0
  9
$PLIMCHECK
 70
     0
  9
$PEXTMIN
 10
0.0
 20
0.0
 30
0.0
  9
$PEXTMAX
 10
210.0
 20
297.0
 30
0.0
  9
$PLIMMIN
 10
0.0
 20
0.0
  9
$PLIMMAX
 10
12.0
 20
9.0
  9
$UNITMODE
 70
     0
  9
$VISRETAIN
 70
     1
  9
$PLINEGEN
 70
     0
  9
$PSLTSCALE
 70
     1
  9
$TREEDEPTH
 70
  3020
  9
$PICKSTYLE
 70
     1
  9
$CMLSTYLE
  2
STANDARD
  9
$CMLJUST
 70
     0
  9
$CMLSCALE
 40
1.0
  9
$SAVEIMAGES
 70
     1
  0
ENDSEC
  0
SECTION
  2
CLASSES
  0
CLASS
  1
ACDBDICTIONARYWDFLT
  2
AcDbDictionaryWithDefault
  3
ObjectDBX Classes
 90
        0
280
     0
281
     0
  0
CLASS
  1
TABLESTYLE
  2
AcDbTableStyle
  3
ObjectDBX Classes
 90
     2047
280
     0
281
     0
  0
CLASS
  1
DICTIONARYVAR
  2
AcDbDictionaryVar
  3
ObjectDBX Classes
 90
        0
280
     0
281
     0
  0
CLASS
  1
XRECORD
  2
AcDbXrecord
  3
AutoCAD 2000
 90
    32768
280
     0
281
     0
  0
CLASS
  1
LWPOLYLINE
  2
AcDbPolyline
  3
AutoCAD 2000
 90
    32768
280
     0
281
     1
  0
CLASS
  1
HATCH
  2
AcDbHatch
  3
AutoCAD 2000
 90
    32768
280
     0
281
     1
  0
CLASS
  1
ACDBPLACEHOLDER
  2
AcDbPlaceHolder
  3
ObjectDBX Classes
 90
        0
280
     0
281
     0
  0
CLASS
  1
LAYOUT
  2
AcDbLayout
  3
ObjectDBX Classes
 90
        0
280
     0
281
     0
  0
ENDSEC
  0
SECTION
  2
TABLES
  0
TABLE
  2
VPORT
  5
8
330
0
100
AcDbSymbolTable
 70
     2
  0
VPORT
  5
29
102
{ACAD_XDICTIONARY
360
122
102
}
330
8
100
AcDbSymbolTableRecord
100
AcDbViewportTableRecord
  2
*ACTIVE
 70
     0
 10
0.0
 20
0.0
 11
1.0
 21
1.0
 12
10.4299065421
 22
4.5
 13
0.0
 23
0.0
 14
0.5
 24
0.5
 15
0.5
 25
0.5
 16
0.0
 26
0.0
 36
1.0
 17
0.0
 27
0.0
 37
0.0
 40
9.0
 41
1.9729729729
 42
50.0
 43
0.0
 44
0.0
 50
0.0
 51
0.0
 71
     0
 72
   100
 73
     1
 74
     3
 75
     0
 76
     0
 77
     0
 78
     0
  0
ENDTAB
  0
TABLE
  2
LTYPE
  5
5
330
0
100
AcDbSymbolTable
 70
     3
  0
LTYPE
  5
14
330
5
100
AcDbSymbolTableRecord
100
AcDbLinetypeTableRecord
  2
BYBLOCK
 70
     0
  3

 72
    65
 73
     0
 40
0.0
  0
LTYPE
  5
15
330
5
100
AcDbSymbolTableRecord
100
AcDbLinetypeTableRecord
  2
BYLAYER
 70
     0
  3

 72
    65
 73
     0
 40
0.0
  0
LTYPE
  5
16
330
5
100
AcDbSymbolTableRecord
100
AcDbLinetypeTableRecord
  2
CONTINUOUS
 70
     0
  3
Solid line
 72
    65
 73
     0
 40
0.0
  0
LTYPE
  5
35
330
5
100
AcDbSymbolTableRecord
100
AcDbLinetypeTableRecord
  2
HIDDEN2
 70
     0
  3
_ _ _ _ _ _ _ _ _ _ _ _ _ _ _ _ _ _ _ _ _ _ _ _
 72
    65
 73
     2
 40
0.1875
 49
0.125
 74
     4
 75
     0
340
0
 46
0.0
 50
0.0
 44
0.0
 45
0.0
 49
-0.0625
 74
     4
 75
     0
340
0
 46
0.0
 50
0.0
 44
0.0
 45
0.0
  0
LTYPE
  5
6F
330
5
100
AcDbSymbolTableRecord
100
AcDbLinetypeTableRecord
  2
CENTER2
 70
     0
  3
___ _ ___ _ ___ _ ___ _ ___ _ ___ _ ___ _ ___ _
 72
    65
 73
     4
 40
1.125
 49
0.75
 74
     4
 75
     0
340
0
 46
0.0
 50
0.0
 44
0.0
 45
0.0
 49
-0.125
 74
     4
 75
     0
340
0
 46
0.0
 50
0.0
 44
0.0
 45
0.0
 49
0.125
 74
     4
 75
     0
340
0
 46
0.0
 50
0.0
 44
0.0
 45
0.0
 49
-0.125
 74
     4
 75
     0
340
0
 46
0.0
 50
0.0
 44
0.0
 45
0.0
  0
ENDTAB
  0
TABLE
  2
LAYER
  5
2
330
0
100
AcDbSymbolTable
 70
     6
  0
LAYER
  5
10
330
2
100
AcDbSymbolTableRecord
100
AcDbLayerTableRecord
  2
0
 70
     0
 62
     7
  6
CONTINUOUS
  0
LAYER
  5
30
330
2
100
AcDbSymbolTableRecord
100
AcDbLayerTableRecord
  2
DEFAULT
 70
     0
 62
     7
  6
CONTINUOUS
  0
LAYER
  5
33
330
2
100
AcDbSymbolTableRecord
100
AcDbLayerTableRecord
  2
MEGA_002172
 70
     0
 62
     7
  6
CONTINUOUS
  0
LAYER
  5
4D
330
2
100
AcDbSymbolTableRecord
100
AcDbLayerTableRecord
  2
MEGA_002174
 70
     0
 62
     7
  6
CONTINUOUS
  0
LAYER
  5
62
330
2
100
AcDbSymbolTableRecord
100
AcDbLayerTableRecord
  2
MEGA_002176
 70
     0
 62
     7
  6
CONTINUOUS
  0
LAYER
  5
6E
330
2
100
AcDbSymbolTableRecord
100
AcDbLayerTableRecord
  2
STANDARD
 70
     0
 62
     7
  6
CONTINUOUS
  0
ENDTAB
  0
TABLE
  2
STYLE
  5
3
330
0
100
AcDbSymbolTable
 70
     3
  0
STYLE
  5
11
330
3
100
AcDbSymbolTableRecord
100
AcDbTextStyleTableRecord
  2
STANDARD
 70
     0
 40
0.0
 41
1.0
 50
0.0
 71
     0
 42
0.2
  3
txt
  4

  0
STYLE
  5
2E
330
3
100
AcDbSymbolTableRecord
100
AcDbTextStyleTableRecord
  2
SEACAD_SEISO_TTF
 70
     0
 40
0.2
 41
1.0
 50
0.0
 71
     0
 42
0.2
  3
seiso.ttf
  4

  0
STYLE
  5
C9
330
3
100
AcDbSymbolTableRecord
100
AcDbTextStyleTableRecord
  2
SEACAD_SEMECI1_TTF
 70
     0
 40
0.2
 41
1.0
 50
0.0
 71
     0
 42
0.2
  3
semeci1.ttf
  4

  0
ENDTAB
  0
TABLE
  2
VIEW
  5
6
330
0
100
AcDbSymbolTable
 70
     0
  0
ENDTAB
  0
TABLE
  2
UCS
  5
7
330
0
100
AcDbSymbolTable
 70
     0
  0
ENDTAB
  0
TABLE
  2
APPID
  5
9
330
0
100
AcDbSymbolTable
 70
     1
  0
APPID
  5
12
330
9
100
AcDbSymbolTableRecord
100
AcDbRegAppTableRecord
  2
ACAD
 70
     0
  0
ENDTAB
  0
TABLE
  2
DIMSTYLE
  5
A
330
0
100
AcDbSymbolTable
 70
     1
  0
DIMSTYLE
105
27
330
A
100
AcDbSymbolTableRecord
100
AcDbDimStyleTableRecord
  2
STANDARD
 70
     0
  3

  4

  5

  6

  7

 40
1.0
 41
0.18
 42
0.0625
 43
0.38
 44
0.18
 45
0.0
 46
0.0
 47
0.0
 48
0.0
140
0.18
141
0.09
142
0.0
143
25.4
144
1.0
145
0.0
146
1.0
147
0.09
 71
     0
 72
     0
 73
     1
 74
     1
 75
     0
 76
     0
 77
     0
 78
     0
170
     0
171
     2
172
     0
173
     0
174
     0
175
     0
176
     0
177
     0
178
     0
270
     2
271
     4
272
     4
273
     2
274
     2
340
11
275
     0
280
     0
281
     0
282
     0
283
     1
284
     0
285
     0
286
     0
287
     3
288
     0
  0
ENDTAB
  0
TABLE
  2
BLOCK_RECORD
  5
1
330
0
100
AcDbSymbolTable
 70
     8
  0
BLOCK_RECORD
  5
1F
330
1
100
AcDbSymbolTableRecord
100
AcDbBlockTableRecord
  2
*MODEL_SPACE
  0
BLOCK_RECORD
  5
1B
330
1
100
AcDbSymbolTableRecord
100
AcDbBlockTableRecord
  2
*PAPER_SPACE
  0
BLOCK_RECORD
  5
31
330
1
100
AcDbSymbolTableRecord
100
AcDbBlockTableRecord
  2
SE
  0
BLOCK_RECORD
  5
74
330
1
100
AcDbSymbolTableRecord
100
AcDbBlockTableRecord
  2
SE1
  0
BLOCK_RECORD
  5
C2
330
1
100
AcDbSymbolTableRecord
100
AcDbBlockTableRecord
  2
SE2
  0
BLOCK_RECORD
  5
CD
330
1
100
AcDbSymbolTableRecord
100
AcDbBlockTableRecord
  2
SE3
  0
BLOCK_RECORD
  5
D7
330
1
100
AcDbSymbolTableRecord
100
AcDbBlockTableRecord
  2
SE4
  0
BLOCK_RECORD
  5
E1
330
1
100
AcDbSymbolTableRecord
100
AcDbBlockTableRecord
  2
SE5
  0
BLOCK_RECORD
  5
EB
330
1
100
AcDbSymbolTableRecord
100
AcDbBlockTableRecord
  2
SE6
  0
ENDTAB
  0
ENDSEC
  0
SECTION
  2
BLOCKS
  0
BLOCK
  5
20
330
1F
100
AcDbEntity
  8
0
100
AcDbBlockBegin
  2
*MODEL_SPACE
 70
     0
 71
     0
 10
0.0
 20
0.0
 30
0.0
  3
*MODEL_SPACE
  1

  0
ENDBLK
  5
21
330
1F
100
AcDbEntity
  8
0
100
AcDbBlockEnd
  0
BLOCK
  5
1C
330
1B
100
AcDbEntity
 67
     1
  8
0
100
AcDbBlockBegin
  2
*PAPER_SPACE
 70
     0
 71
     0
 10
0.0
 20
0.0
 30
0.0
  3
*PAPER_SPACE
  1

  0
ENDBLK
  5
1D
330
1B
100
AcDbEntity
 67
     1
  8
0
100
AcDbBlockEnd
  0
BLOCK
  5
72
330
31
100
AcDbEntity
  8
0
100
AcDbBlockBegin
  2
SE
 70
     0
 71
     0
 10
0.0
 20
0.0
 30
0.0
  3
SE
  1

  0
ARC
  5
34
330
31
100
AcDbEntity
  8
MEGA_002172
  6
CONTINUOUS
 62
     7
 48
25.4
100
AcDbCircle
 10
82.2946553655
 20
183.8654496981
 30
0.0
 40
4.025002662100008
100
AcDbArc
 50
0.0
 51
29.5919120103
  0
ARC
  5
36
330
31
100
AcDbEntity
  8
MEGA_002172
  6
HIDDEN2
 62
     7
 48
25.4
100
AcDbCircle
 10
82.2946553655
 20
183.8654496981
 30
0.0
 40
4.025002662100008
100
AcDbArc
 50
29.5919120103
 51
60.6814350675
  0
ARC
  5
37
330
31
100
AcDbEntity
  8
MEGA_002172
  6
CONTINUOUS
 62
     7
 48
25.4
100
AcDbCircle
 10
82.2946553655
 20
183.8654496981
 30
0.0
 40
4.025002662100008
100
AcDbArc
 50
60.6814350675
 51
119.3973826715
  0
ARC
  5
38
330
31
100
AcDbEntity
  8
MEGA_002172
  6
HIDDEN2
 62
     7
 48
25.4
100
AcDbCircle
 10
82.2946553655
 20
183.8654496981
 30
0.0
 40
4.025002662100008
100
AcDbArc
 50
119.3973826715
 51
150.6890280149
  0
ARC
  5
39
330
31
100
AcDbEntity
  8
MEGA_002172
  6
CONTINUOUS
 62
     7
 48
25.4
100
AcDbCircle
 10
82.2946553655
 20
183.8654496981
 30
0.0
 40
4.025002662100008
100
AcDbArc
 50
150.6890280149
 51
209.4144177955
  0
ARC
  5
3A
330
31
100
AcDbEntity
  8
MEGA_002172
  6
HIDDEN2
 62
     7
 48
25.4
100
AcDbCircle
 10
82.2946553655
 20
183.8654496981
 30
0.0
 40
4.025002662100008
100
AcDbArc
 50
209.4144177955
 51
240.4080869641
  0
ARC
  5
3B
330
31
100
AcDbEntity
  8
MEGA_002172
  6
CONTINUOUS
 62
     7
 48
25.4
100
AcDbCircle
 10
82.2946553655
 20
183.8654496981
 30
0.0
 40
4.025002662100008
100
AcDbArc
 50
240.4080869641
 51
299.5919120103
  0
ARC
  5
3C
330
31
100
AcDbEntity
  8
MEGA_002172
  6
HIDDEN2
 62
     7
 48
25.4
100
AcDbCircle
 10
82.2946553655
 20
183.8654496981
 30
0.0
 40
4.025002662100008
100
AcDbArc
 50
299.5919120103
 51
330.5958445239
  0
ARC
  5
3D
330
31
100
AcDbEntity
  8
MEGA_002172
  6
CONTINUOUS
 62
     7
 48
25.4
100
AcDbCircle
 10
82.2946553655
 20
183.8654496981
 30
0.0
 40
4.025002662100008
100
AcDbArc
 50
330.5958445239
 51
360.0
  0
ARC
  5
3E
330
31
100
AcDbEntity
  8
MEGA_002172
  6
CONTINUOUS
 62
     7
 48
25.4
100
AcDbCircle
 10
82.2946553655
 20
183.8654504306
 30
0.0
 40
4.075001929600006
100
AcDbArc
 50
0.0
 51
30.7079466886
  0
ARC
  5
3F
330
31
100
AcDbEntity
  8
MEGA_002172
  6
HIDDEN2
 62
     7
 48
25.4
100
AcDbCircle
 10
82.2946553655
 20
183.8654504306
 30
0.0
 40
4.075001929600006
100
AcDbArc
 50
30.7079466886
 51
59.4629913339
  0
ARC
  5
40
330
31
100
AcDbEntity
  8
MEGA_002172
  6
CONTINUOUS
 62
     7
 48
25.4
100
AcDbCircle
 10
82.2946553655
 20
183.8654504306
 30
0.0
 40
4.075001929600006
100
AcDbArc
 50
59.4629913339
 51
120.5720358482
  0
ARC
  5
41
330
31
100
AcDbEntity
  8
MEGA_002172
  6
HIDDEN2
 62
     7
 48
25.4
100
AcDbCircle
 10
82.2946553655
 20
183.8654504306
 30
0.0
 40
4.075001929600006
100
AcDbArc
 50
120.5720358482
 51
149.2160032527
  0
ARC
  5
42
330
31
100
AcDbEntity
  8
MEGA_002172
  6
CONTINUOUS
 62
     7
 48
25.4
100
AcDbCircle
 10
82.2946553655
 20
183.8654504306
 30
0.0
 40
4.075001929600006
100
AcDbArc
 50
149.2160032527
 51
210.6594827294
  0
ARC
  5
43
330
31
100
AcDbEntity
  8
MEGA_002172
  6
HIDDEN2
 62
     7
 48
25.4
100
AcDbCircle
 10
82.2946553655
 20
183.8654504306
 30
0.0
 40
4.075001929600006
100
AcDbArc
 50
210.6594827294
 51
239.1927668086
  0
ARC
  5
44
330
31
100
AcDbEntity
  8
MEGA_002172
  6
CONTINUOUS
 62
     7
 48
25.4
100
AcDbCircle
 10
82.2946553655
 20
183.8654504306
 30
0.0
 40
4.075001929600006
100
AcDbArc
 50
239.1927668086
 51
300.8072325077
  0
ARC
  5
45
330
31
100
AcDbEntity
  8
MEGA_002172
  6
HIDDEN2
 62
     7
 48
25.4
100
AcDbCircle
 10
82.2946553655
 20
183.8654504306
 30
0.0
 40
4.075001929600006
100
AcDbArc
 50
300.8072325077
 51
329.2367865193
  0
ARC
  5
46
330
31
100
AcDbEntity
  8
MEGA_002172
  6
CONTINUOUS
 62
     7
 48
25.4
100
AcDbCircle
 10
82.2946553655
 20
183.8654504306
 30
0.0
 40
4.075001929600006
100
AcDbArc
 50
329.2367865193
 51
360.0
  0
CIRCLE
  5
47
330
31
100
AcDbEntity
  8
MEGA_002172
  6
CONTINUOUS
 62
     7
 48
25.4
100
AcDbCircle
 10
82.2946553655
 20
183.8654504306
 30
0.0
 40
6.600001929599983
  0
CIRCLE
  5
48
330
31
100
AcDbEntity
  8
MEGA_002172
  6
CONTINUOUS
 62
     7
 48
25.4
100
AcDbCircle
 10
82.2946553655
 20
183.8654509538
 30
0.0
 40
6.700002662100033
  0
ARC
  5
49
330
31
100
AcDbEntity
  8
MEGA_002172
  6
CONTINUOUS
 62
     7
 48
25.4
100
AcDbCircle
 10
82.2946553655
 20
189.3654496981
 30
0.0
 40
13.5
100
AcDbArc
 50
0.0
 51
180.0
  0
LINE
  5
4A
330
31
100
AcDbEntity
  8
MEGA_002172
  6
CONTINUOUS
 62
     7
 48
25.4
100
AcDbLine
 10
68.7946553655
 20
189.3654496981
 30
0.0
 11
68.7946553655
 21
178.3654496981
 31
0.0
  0
LINE
  5
4B
330
31
100
AcDbEntity
  8
MEGA_002172
  6
CONTINUOUS
 62
     7
 48
25.4
100
AcDbLine
 10
95.7946553655
 20
178.3654496981
 30
0.0
 11
95.7946553655
 21
189.3654496981
 31
0.0
  0
ARC
  5
4C
330
31
100
AcDbEntity
  8
MEGA_002172
  6
CONTINUOUS
 62
     7
 48
25.4
100
AcDbCircle
 10
82.2946553655
 20
178.3654496981
 30
0.0
 40
13.5
100
AcDbArc
 50
180.0
 51
360.0
  0
LINE
  5
4E
330
31
100
AcDbEntity
  8
MEGA_002174
  6
CONTINUOUS
 62
     7
 48
25.4
100
AcDbLine
 10
84.2311470177
 20
180.3654506126
 30
0.0
 11
85.7946553446
 21
180.3654506033
 31
0.0
  0
ARC
  5
4F
330
31
100
AcDbEntity
  8
MEGA_002174
  6
CONTINUOUS
 62
     7
 48
25.4
100
AcDbCircle
 10
82.2946553655
 20
183.8654509904
 30
0.0
 40
3.5
100
AcDbArc
 50
261.7867889564
 51
269.9999996581
  0
ARC
  5
50
330
31
100
AcDbEntity
  8
MEGA_002174
  6
CONTINUOUS
 62
     7
 48
25.4
100
AcDbCircle
 10
82.2946553655
 20
183.8654509904
 30
0.0
 40
3.5
100
AcDbArc
 50
89.9999996581
 51
98.2132103599
  0
ARC
  5
51
330
31
100
AcDbEntity
  8
MEGA_002174
  6
CONTINUOUS
 62
     7
 48
25.4
100
AcDbCircle
 10
82.2946553655
 20
183.8654509904
 30
0.0
 40
3.5
100
AcDbArc
 50
269.9999996581
 51
278.2132103599
  0
LINE
  5
52
330
31
100
AcDbEntity
  8
MEGA_002174
  6
CONTINUOUS
 62
     7
 48
25.4
100
AcDbLine
 10
81.7946553801
 20
186.3149407885
 30
0.0
 11
81.7946553862
 21
187.3295526086
 31
0.0
  0
LINE
  5
53
330
31
100
AcDbEntity
  8
MEGA_002174
  6
CONTINUOUS
 62
     7
 48
25.4
100
AcDbLine
 10
81.7946553449
 20
180.4013493783
 30
0.0
 11
81.7946553509
 21
181.415961303
 31
0.0
  0
LINE
  5
54
330
31
100
AcDbEntity
  8
MEGA_002174
  6
CONTINUOUS
 62
     7
 48
25.4
100
AcDbLine
 10
81.7946553801
 20
186.3149407885
 30
0.0
 11
81.7946553509
 21
181.415961303
 31
0.0
  0
ARC
  5
55
330
31
100
AcDbEntity
  8
MEGA_002174
  6
CONTINUOUS
 62
     7
 48
25.4
100
AcDbCircle
 10
82.2946553655
 20
183.8654510428
 30
0.0
 40
2.5
100
AcDbArc
 50
101.5369586909
 51
258.4630406253
  0
LINE
  5
56
330
31
100
AcDbEntity
  8
MEGA_002174
  6
CONTINUOUS
 62
     7
 48
25.4
100
AcDbLine
 10
82.7946553509
 20
181.415961297
 30
0.0
 11
82.7946553801
 21
186.3149407826
 31
0.0
  0
ARC
  5
57
330
31
100
AcDbEntity
  8
MEGA_002174
  6
CONTINUOUS
 62
     7
 48
25.4
100
AcDbCircle
 10
82.2946553655
 20
183.8654510428
 30
0.0
 40
2.5
100
AcDbArc
 50
281.5369586909
 51
78.4630406253
  0
LINE
  5
58
330
31
100
AcDbEntity
  8
MEGA_002174
  6
CONTINUOUS
 62
     7
 48
25.4
100
AcDbLine
 10
78.7946553864
 20
187.3654509355
 30
0.0
 11
78.7946553446
 21
180.3654509355
 31
0.0
  0
LINE
  5
59
330
31
100
AcDbEntity
  8
MEGA_002174
  6
CONTINUOUS
 62
     7
 48
25.4
100
AcDbLine
 10
85.7946553446
 20
180.3654508937
 30
0.0
 11
82.2946553446
 21
180.3654509904
 31
0.0
  0
LINE
  5
5A
330
31
100
AcDbEntity
  8
MEGA_002174
  6
CONTINUOUS
 62
     7
 48
25.4
100
AcDbLine
 10
85.7946553864
 20
187.3654508937
 30
0.0
 11
85.7946553446
 21
180.3654508937
 31
0.0
  0
LINE
  5
5B
330
31
100
AcDbEntity
  8
MEGA_002174
  6
CONTINUOUS
 62
     7
 48
25.4
100
AcDbLine
 10
78.7946553864
 20
187.3654509355
 30
0.0
 11
82.2946553864
 21
187.3654509904
 31
0.0
  0
LINE
  5
5C
330
31
100
AcDbEntity
  8
MEGA_002174
  6
CONTINUOUS
 62
     7
 48
25.4
100
AcDbLine
 10
82.7946553509
 20
181.415961297
 30
0.0
 11
82.7946553449
 21
180.4013493723
 31
0.0
  0
LINE
  5
5D
330
31
100
AcDbEntity
  8
MEGA_002174
  6
CONTINUOUS
 62
     7
 48
25.4
100
AcDbLine
 10
82.7946553862
 20
187.3295526026
 30
0.0
 11
82.7946553801
 21
186.3149407826
 31
0.0
  0
LINE
  5
5E
330
31
100
AcDbEntity
  8
MEGA_002174
  6
CONTINUOUS
 62
     7
 48
25.4
100
AcDbLine
 10
82.2946553864
 20
187.3654509904
 30
0.0
 11
85.7946553864
 21
187.3654508937
 31
0.0
  0
ARC
  5
5F
330
31
100
AcDbEntity
  8
MEGA_002174
  6
CONTINUOUS
 62
     7
 48
25.4
100
AcDbCircle
 10
82.2946553655
 20
183.8654509904
 30
0.0
 40
3.5
100
AcDbArc
 50
81.7867889564
 51
89.9999996581
  0
LINE
  5
60
330
31
100
AcDbEntity
  8
MEGA_002174
  6
CONTINUOUS
 62
     7
 48
25.4
100
AcDbLine
 10
78.7946553446
 20
180.3654506451
 30
0.0
 11
80.3581636715
 21
180.3654506357
 31
0.0
  0
LINE
  5
61
330
31
100
AcDbEntity
  8
MEGA_002174
  6
CONTINUOUS
 62
     7
 48
25.4
100
AcDbLine
 10
82.2946553446
 20
180.3654509904
 30
0.0
 11
78.7946553446
 21
180.3654509355
 31
0.0
  0
ARC
  5
63
330
31
100
AcDbEntity
  8
MEGA_002176
  6
HIDDEN2
 62
     7
 48
25.4
100
AcDbCircle
 10
82.2946553655
 20
183.8654495411
 30
0.0
 40
6.599999999999994
100
AcDbArc
 50
179.9999994872
 51
360.0
  0
ARC
  5
64
330
31
100
AcDbEntity
  8
MEGA_002176
  6
HIDDEN2
 62
     7
 48
25.4
100
AcDbCircle
 10
82.2946553655
 20
183.8654496981
 30
0.0
 40
6.599999999999994
100
AcDbArc
 50
179.9999994872
 51
360.0
  0
LINE
  5
65
330
31
100
AcDbEntity
  8
MEGA_002176
  6
HIDDEN2
 62
     7
 48
25.4
100
AcDbLine
 10
80.0670904692
 20
187.3654495872
 30
0.0
 11
84.5222203245
 21
187.3654495473
 31
0.0
  0
LINE
  5
66
330
31
100
AcDbEntity
  8
MEGA_002176
  6
HIDDEN2
 62
     7
 48
25.4
100
AcDbLine
 10
78.7946553855
 20
186.0930145262
 30
0.0
 11
80.0670904692
 21
187.3654495872
 31
0.0
  0
LINE
  5
67
330
31
100
AcDbEntity
  8
MEGA_002176
  6
HIDDEN2
 62
     7
 48
25.4
100
AcDbLine
 10
84.5222203245
 20
187.3654495473
 30
0.0
 11
85.7946553855
 21
186.0930144636
 31
0.0
  0
LINE
  5
68
330
31
100
AcDbEntity
  8
MEGA_002176
  6
HIDDEN2
 62
     7
 48
25.4
100
AcDbLine
 10
80.0670904066
 20
180.365449718
 30
0.0
 11
84.5222202618
 21
180.3654496781
 31
0.0
  0
LINE
  5
69
330
31
100
AcDbEntity
  8
MEGA_002176
  6
HIDDEN2
 62
     7
 48
25.4
100
AcDbLine
 10
80.0670904692
 20
187.365449718
 30
0.0
 11
78.7946553855
 21
186.093014657
 31
0.0
  0
LINE
  5
6A
330
31
100
AcDbEntity
  8
MEGA_002176
  6
HIDDEN2
 62
     7
 48
25.4
100
AcDbLine
 10
78.7946553456
 20
181.6378848018
 30
0.0
 11
80.0670904066
 21
180.365449718
 31
0.0
  0
LINE
  5
6B
330
31
100
AcDbEntity
  8
MEGA_002176
  6
HIDDEN2
 62
     7
 48
25.4
100
AcDbLine
 10
84.5222203245
 20
187.3654496781
 30
0.0
 11
80.0670904692
 21
187.365449718
 31
0.0
  0
LINE
  5
6C
330
31
100
AcDbEntity
  8
MEGA_002176
  6
HIDDEN2
 62
     7
 48
25.4
100
AcDbLine
 10
85.7946553855
 20
186.0930145944
 30
0.0
 11
84.5222203245
 21
187.3654496781
 31
0.0
  0
LINE
  5
6D
330
31
100
AcDbEntity
  8
MEGA_002176
  6
HIDDEN2
 62
     7
 48
25.4
100
AcDbLine
 10
84.5222202618
 20
180.3654496781
 30
0.0
 11
85.7946553456
 21
181.6378847391
 31
0.0
  0
LINE
  5
70
330
31
100
AcDbEntity
  8
STANDARD
  6
CENTER2
 62
     7
 48
25.4
100
AcDbLine
 10
82.2946553655
 20
202.8654496981
 30
0.0
 11
82.2946553655
 21
164.8654496981
 31
0.0
  0
LINE
  5
71
330
31
100
AcDbEntity
  8
STANDARD
  6
CENTER2
 62
     7
 48
25.4
100
AcDbLine
 10
68.7946553655
 20
183.8654496981
 30
0.0
 11
95.7946553655
 21
183.8654496981
 31
0.0
  0
ENDBLK
  5
73
330
31
100
AcDbEntity
  8
0
100
AcDbBlockEnd
  0
BLOCK
  5
C0
330
74
100
AcDbEntity
  8
0
100
AcDbBlockBegin
  2
SE1
 70
     0
 71
     0
 10
0.0
 20
0.0
 30
0.0
  3
SE1
  1

  0
LINE
  5
76
330
74
100
AcDbEntity
  8
MEGA_002172
  6
CONTINUOUS
 62
     7
 48
25.4
100
AcDbLine
 10
148.9785342722
 20
171.1370627309
 30
0.0
 11
148.9785342722
 21
196.5938391768
 31
0.0
  0
LINE
  5
77
330
74
100
AcDbEntity
  8
MEGA_002172
  6
CONTINUOUS
 62
     7
 48
25.4
100
AcDbLine
 10
146.9785342722
 20
189.3654496981
 30
0.0
 11
146.9785342722
 21
178.3654496981
 31
0.0
  0
LINE
  5
78
330
74
100
AcDbEntity
  8
MEGA_002172
  6
CONTINUOUS
 62
     7
 48
25.4
100
AcDbLine
 10
125.9785342722
 20
175.5654496981
 30
0.0
 11
132.9785342722
 21
175.5654496981
 31
0.0
  0
LINE
  5
79
330
74
100
AcDbEntity
  8
MEGA_002172
  6
CONTINUOUS
 62
     7
 48
25.4
100
AcDbLine
 10
138.4779414795
 20
200.5654496981
 30
0.0
 11
125.9785342722
 21
200.5654496981
 31
0.0
  0
LINE
  5
7A
330
74
100
AcDbEntity
  8
MEGA_002172
  6
CONTINUOUS
 62
     7
 48
25.4
100
AcDbLine
 10
138.50202252
 20
198.5602774608
 30
0.0
 11
138.4780099874
 21
200.5533176642
 31
0.0
  0
LINE
  5
7B
330
74
100
AcDbEntity
  8
MEGA_002172
  6
CONTINUOUS
 62
     7
 48
25.4
100
AcDbLine
 10
141.8778638184
 20
192.2654496981
 30
0.0
 11
138.5785342722
 21
192.2654496981
 31
0.0
  0
LINE
  5
7C
330
74
100
AcDbEntity
  8
MEGA_002172
  6
CONTINUOUS
 62
     7
 48
25.4
100
AcDbLine
 10
147.8642762357
 20
202.8654496981
 30
0.0
 11
146.9785342722
 21
202.8654496981
 31
0.0
  0
ARC
  5
7D
330
74
100
AcDbEntity
  8
MEGA_002172
  6
CONTINUOUS
 62
     7
 48
25.4
100
AcDbCircle
 10
133.978577158
 20
171.1370664545
 30
0.0
 40
14.99995711420002
100
AcDbArc
 50
347.1277609979
 51
0.0005778953
  0
ARC
  5
7E
330
74
100
AcDbEntity
  8
MEGA_002172
  6
CONTINUOUS
 62
     7
 48
25.4
100
AcDbCircle
 10
78.4178638184
 20
183.8654496981
 30
0.0
 40
72.00000000000003
100
AcDbArc
 50
12.9032086729
 51
15.2946895189
  0
LINE
  5
7F
330
74
100
AcDbEntity
  8
MEGA_002172
  6
CONTINUOUS
 62
     7
 48
25.4
100
AcDbLine
 10
146.9785342722
 20
164.8654496981
 30
0.0
 11
147.8642762357
 21
164.8654496981
 31
0.0
  0
LINE
  5
80
330
74
100
AcDbEntity
  8
MEGA_002172
  6
CONTINUOUS
 62
     7
 48
25.4
100
AcDbLine
 10
124.9785342722
 20
196.9210209695
 30
0.0
 11
121.9785342722
 21
196.9210209695
 31
0.0
  0
LINE
  5
81
330
74
100
AcDbEntity
  8
MEGA_002172
  6
CONTINUOUS
 62
     7
 48
25.4
100
AcDbLine
 10
124.9785342722
 20
176.0654496981
 30
0.0
 11
125.9785342722
 21
176.0654496981
 31
0.0
  0
LINE
  5
82
330
74
100
AcDbEntity
  8
MEGA_002172
  6
CONTINUOUS
 62
     7
 48
25.4
100
AcDbLine
 10
125.9785342722
 20
200.0654496981
 30
0.0
 11
124.9785342722
 21
200.0654496981
 31
0.0
  0
LINE
  5
83
330
74
100
AcDbEntity
  8
MEGA_002172
  6
CONTINUOUS
 62
     7
 48
25.4
100
AcDbLine
 10
138.5785342722
 20
192.2654496981
 30
0.0
 11
138.5785342722
 21
191.5957524779
 31
0.0
  0
SPLINE
  5
84
330
74
100
AcDbEntity
  8
MEGA_002172
  6
CONTINUOUS
 62
     7
 48
25.4
100
AcDbSpline
210
0.0
220
0.0
230
1.0
 70
     8
 71
     3
 72
    18
 73
    14
 74
     0
 42
0.0000000001
 43
0.0000000001
 40
0.0
 40
0.0
 40
0.0
 40
0.0
 40
0.2497913726095016
 40
0.2497913726095016
 40
0.3746870589142526
 40
0.3746870589142526
 40
0.4995827452190036
 40
0.4995827452190036
 40
0.7493741178285056
 40
0.7493741178285056
 40
0.9991654904380078
 40
0.9991654904380078
 40
1.0
 40
1.0
 40
1.0
 40
1.0
 10
141.8778638183624
 20
187.582679427811
 30
0.0
 10
141.8937318485451
 20
189.2734823736312
 30
0.0
 10
141.9075959002105
 20
190.9200616255403
 30
0.0
 10
141.9263626155107
 20
193.2887426408326
 30
0.0
 10
141.9320691790839
 20
194.0358721500313
 30
0.0
 10
141.942589356054
 20
195.4480335192222
 30
0.0
 10
141.9474455253124
 20
196.119435016673
 30
0.0
 10
141.9603069393953
 20
197.9320970581806
 30
0.0
 10
141.9668744959924
 20
198.9066354494496
 30
0.0
 10
141.9756106288005
 20
200.2172242894868
 30
0.0
 10
141.9778491308044
 20
200.5632010136113
 30
0.0
 10
141.9778637939059
 20
200.5654459537581
 30
0.0
 10
141.9778638181214
 20
200.5654496240124
 30
0.0
 10
141.9778638177297
 20
200.5654494904614
 30
0.0
  0
LINE
  5
85
330
74
100
AcDbEntity
  8
MEGA_002172
  6
CONTINUOUS
 62
     7
 48
25.4
100
AcDbLine
 10
141.8778638184
 20
187.5826794278
 30
0.0
 11
141.8778638184
 21
192.2654496981
 31
0.0
  0
LINE
  5
86
330
74
100
AcDbEntity
  8
MEGA_002172
  6
CONTINUOUS
 62
     7
 48
25.4
100
AcDbLine
 10
138.5089192909
 20
197.5893298752
 30
0.0
 11
138.5019602082
 21
198.5654490921
 31
0.0
  0
LINE
  5
87
330
74
100
AcDbEntity
  8
MEGA_002172
  6
CONTINUOUS
 62
     7
 48
25.4
100
AcDbLine
 10
141.9777176493
 20
200.5533176642
 30
0.0
 11
141.8778638184
 21
192.2654496981
 31
0.0
  0
SPLINE
  5
88
330
74
100
AcDbEntity
  8
MEGA_002172
  6
CONTINUOUS
 62
     7
 48
25.4
100
AcDbSpline
210
0.0
220
0.0
230
1.0
 70
     8
 71
     3
 72
    14
 73
    10
 74
     0
 42
0.0000000001
 43
0.0000000001
 40
0.0
 40
0.0
 40
0.0
 40
0.0
 40
0.2493726903817574
 40
0.2493726903817574
 40
0.4995817935878383
 40
0.4995817935878383
 40
0.7497908967939194
 40
0.7497908967939194
 40
1.0
 40
1.0
 40
1.0
 40
1.0
 10
138.4778638189958
 20
200.5654494902139
 30
0.0
 10
138.4778639447502
 20
200.5654082699764
 30
0.0
 10
138.4800540725421
 20
200.226833272102
 30
0.0
 10
138.488766764543
 20
198.9194286591568
 30
0.0
 10
138.4952262099713
 20
197.96002728644
 30
0.0
 10
138.5125072725912
 20
195.5234373155656
 30
0.0
 10
138.5230359163765
 20
194.08860800218
 30
0.0
 10
138.5478532276162
 20
190.954204752835
 30
0.0
 10
138.5619922625455
 20
189.2738580442426
 30
0.0
 10
138.5778638183624
 20
187.582679427811
 30
0.0
  0
LINE
  5
89
330
74
100
AcDbEntity
  8
MEGA_002172
  6
CONTINUOUS
 62
     7
 48
25.4
100
AcDbLine
 10
138.5778638184
 20
187.5826794278
 30
0.0
 11
138.5778638184
 21
191.5957524779
 31
0.0
  0
LINE
  5
8A
330
74
100
AcDbEntity
  8
MEGA_002172
  6
CONTINUOUS
 62
     7
 48
25.4
100
AcDbLine
 10
138.5778638184
 20
191.5957524779
 30
0.0
 11
138.5785342722
 21
191.5957524779
 31
0.0
  0
LINE
  5
8B
330
74
100
AcDbEntity
  8
MEGA_002172
  6
CONTINUOUS
 62
     7
 48
25.4
100
AcDbLine
 10
138.5778638184
 20
187.5826794278
 30
0.0
 11
141.8778638184
 21
187.5826794278
 31
0.0
  0
SPLINE
  5
8C
330
74
100
AcDbEntity
  8
MEGA_002172
  6
CONTINUOUS
 62
     7
 48
25.4
100
AcDbSpline
210
0.0
220
0.0
230
1.0
 70
     8
 71
     3
 72
    11
 73
     7
 74
     0
 42
0.0000000001
 43
0.0000000001
 40
0.0
 40
0.0
 40
0.0
 40
0.0
 40
0.1545239554747056
 40
0.1545239554747056
 40
0.1545239554747056
 40
1.0
 40
1.0
 40
1.0
 40
1.0
 10
138.5182891388344
 20
196.6822936678883
 30
0.0
 10
138.5213761462473
 20
196.4202963932191
 30
0.0
 10
138.524460897414
 20
196.1582990919537
 30
0.0
 10
138.5275431603241
 20
195.8963017614249
 30
0.0
 10
138.5444077261437
 20
194.4627864014177
 30
0.0
 10
138.5612012857719
 20
193.0292702004894
 30
0.0
 10
138.5778638183624
 20
191.5957524779047
 30
0.0
  0
LINE
  5
8D
330
74
100
AcDbEntity
  8
MEGA_002172
  6
CONTINUOUS
 62
     7
 48
25.4
100
AcDbLine
 10
132.9785342722
 20
175.5654496981
 30
0.0
 11
146.9785342722
 21
171.0654496981
 31
0.0
  0
ELLIPSE
  5
8E
330
74
100
AcDbEntity
  8
MEGA_002172
  6
CONTINUOUS
 62
     7
 48
25.4
100
AcDbEllipse
 10
94.0896453824
 20
188.0654496983
 30
0.0
 11
180.7900946163155
 21
-2.701124656267839
 31
0.0
210
0.0
220
0.0
230
1.0
 40
0.0675073942
 41
4.930197020527729
 42
5.010282600560759
  0
LINE
  5
8F
330
74
100
AcDbEntity
  8
MEGA_002172
  6
CONTINUOUS
 62
     7
 48
25.4
100
AcDbLine
 10
125.9785342722
 20
198.0208502425
 30
0.0
 11
125.9785342722
 21
198.6181744647
 31
0.0
  0
LINE
  5
90
330
74
100
AcDbEntity
  8
MEGA_002172
  6
CONTINUOUS
 62
     7
 48
25.4
100
AcDbLine
 10
124.9785342722
 20
178.1100491537
 30
0.0
 11
125.9785342722
 21
178.1100491537
 31
0.0
  0
LINE
  5
91
330
74
100
AcDbEntity
  8
MEGA_002172
  6
CONTINUOUS
 62
     7
 48
25.4
100
AcDbLine
 10
125.9785342722
 20
177.5127249315
 30
0.0
 11
125.9785342722
 21
178.1100491537
 31
0.0
  0
LINE
  5
92
330
74
100
AcDbEntity
  8
MEGA_002172
  6
CONTINUOUS
 62
     7
 48
25.4
100
AcDbLine
 10
125.9785342722
 20
177.5127249315
 30
0.0
 11
135.3470435413
 21
177.5127249315
 31
0.0
  0
LINE
  5
93
330
74
100
AcDbEntity
  8
MEGA_002172
  6
CONTINUOUS
 62
     7
 48
25.4
100
AcDbLine
 10
124.9785342722
 20
178.1100491537
 30
0.0
 11
124.9785342722
 21
191.1654496981
 31
0.0
  0
LINE
  5
94
330
74
100
AcDbEntity
  8
MEGA_002172
  6
CONTINUOUS
 62
     7
 48
25.4
100
AcDbLine
 10
125.9785342722
 20
198.0208502425
 30
0.0
 11
125.9785342722
 21
192.5381769708
 31
0.0
  0
LINE
  5
95
330
74
100
AcDbEntity
  8
MEGA_002172
  6
CONTINUOUS
 62
     7
 48
25.4
100
AcDbLine
 10
135.3470435413
 20
198.6181744647
 30
0.0
 11
125.9785342722
 21
198.6181744647
 31
0.0
  0
LINE
  5
96
330
74
100
AcDbEntity
  8
MEGA_002172
  6
CONTINUOUS
 62
     7
 48
25.4
100
AcDbLine
 10
121.9785342722
 20
196.6351638123
 30
0.0
 11
121.9785342722
 21
192.5381769708
 31
0.0
  0
LINE
  5
97
330
74
100
AcDbEntity
  8
MEGA_002172
  6
CONTINUOUS
 62
     7
 48
25.4
100
AcDbLine
 10
125.9785342722
 20
200.5654496981
 30
0.0
 11
125.9785342722
 21
198.6181744647
 31
0.0
  0
LINE
  5
98
330
74
100
AcDbEntity
  8
MEGA_002172
  6
CONTINUOUS
 62
     7
 48
25.4
100
AcDbLine
 10
125.9785342722
 20
177.5127249315
 30
0.0
 11
125.9785342722
 21
175.5654496981
 31
0.0
  0
LINE
  5
99
330
74
100
AcDbEntity
  8
MEGA_002172
  6
CONTINUOUS
 62
     7
 48
25.4
100
AcDbLine
 10
146.9785342722
 20
164.8654496981
 30
0.0
 11
146.9785342722
 21
178.3654496981
 31
0.0
  0
ARC
  5
9A
330
74
100
AcDbEntity
  8
MEGA_002172
  6
CONTINUOUS
 62
     7
 48
25.4
100
AcDbCircle
 10
81.3003663159
 20
183.8654496981
 30
0.0
 40
66.40914185499999
100
AcDbArc
 50
355.2493264512
 51
4.7506735488
  0
ARC
  5
9B
330
74
100
AcDbEntity
  8
MEGA_002172
  6
CONTINUOUS
 62
     7
 48
25.4
100
AcDbCircle
 10
207.1840799324
 20
194.4212746611
 30
0.0
 40
59.91640806780001
100
AcDbArc
 50
171.898188231
 51
184.8404486899
  0
ARC
  5
9C
330
74
100
AcDbEntity
  8
MEGA_002172
  6
CONTINUOUS
 62
     7
 48
25.4
100
AcDbCircle
 10
207.1840799324
 20
173.3096247351
 30
0.0
 40
59.91640806780001
100
AcDbArc
 50
175.1595513101
 51
188.101811769
  0
LINE
  5
9D
330
74
100
AcDbEntity
  8
MEGA_002172
  6
CONTINUOUS
 62
     7
 48
25.4
100
AcDbLine
 10
146.9785342722
 20
202.8654496981
 30
0.0
 11
146.9785342722
 21
189.3654496981
 31
0.0
  0
LINE
  5
9E
330
74
100
AcDbEntity
  8
MEGA_002172
  6
CONTINUOUS
 62
     7
 48
25.4
100
AcDbLine
 10
135.3470435413
 20
198.6181744647
 30
0.0
 11
134.9785342722
 21
188.0654496981
 31
0.0
  0
LINE
  5
9F
330
74
100
AcDbEntity
  8
MEGA_002172
  6
CONTINUOUS
 62
     7
 48
25.4
100
AcDbLine
 10
134.9785342722
 20
188.0654496981
 30
0.0
 11
135.3470435413
 21
177.5127249315
 31
0.0
  0
LINE
  5
A0
330
74
100
AcDbEntity
  8
MEGA_002172
  6
CONTINUOUS
 62
     7
 48
25.4
100
AcDbLine
 10
124.9785342722
 20
178.1100491537
 30
0.0
 11
124.9785342722
 21
176.0654496981
 31
0.0
  0
LINE
  5
A1
330
74
100
AcDbEntity
  8
MEGA_002172
  6
CONTINUOUS
 62
     7
 48
25.4
100
AcDbLine
 10
125.9785342722
 20
192.5381769708
 30
0.0
 11
125.9785342722
 21
191.1654496981
 31
0.0
  0
LINE
  5
A2
330
74
100
AcDbEntity
  8
MEGA_002172
  6
CONTINUOUS
 62
     7
 48
25.4
100
AcDbLine
 10
125.9785342722
 20
191.1654496981
 30
0.0
 11
121.9785342722
 21
191.1654496981
 31
0.0
  0
LINE
  5
A3
330
74
100
AcDbEntity
  8
MEGA_002172
  6
CONTINUOUS
 62
     7
 48
25.4
100
AcDbLine
 10
121.9785342722
 20
191.1654496981
 30
0.0
 11
121.9785342722
 21
192.5381769708
 31
0.0
  0
LINE
  5
A4
330
74
100
AcDbEntity
  8
MEGA_002172
  6
CONTINUOUS
 62
     7
 48
25.4
100
AcDbLine
 10
121.9785342722
 20
196.9210209695
 30
0.0
 11
121.9785342722
 21
196.6351638123
 31
0.0
  0
ARC
  5
A5
330
74
100
AcDbEntity
  8
MEGA_002172
  6
CONTINUOUS
 62
     7
 48
25.4
100
AcDbCircle
 10
371.3989978875
 20
199.5415599842
 30
0.0
 40
232.898260859
100
AcDbArc
 50
180.4802777633
 51
180.7034316504
  0
LINE
  5
A6
330
74
100
AcDbEntity
  8
MEGA_002172
  6
CONTINUOUS
 62
     7
 48
25.4
100
AcDbLine
 10
124.9785342722
 20
200.0654496981
 30
0.0
 11
124.9785342722
 21
196.6351638123
 31
0.0
  0
LINE
  5
A7
330
74
100
AcDbEntity
  8
MEGA_002172
  6
CONTINUOUS
 62
     7
 48
25.4
100
AcDbLine
 10
146.9785342722
 20
200.5654496981
 30
0.0
 11
141.9777861572
 21
200.5654496981
 31
0.0
  0
ARC
  5
A8
330
74
100
AcDbEntity
  8
MEGA_002172
  6
CONTINUOUS
 62
     7
 48
25.4
100
AcDbCircle
 10
78.4178638184
 20
183.8654496981
 30
0.0
 40
72.00000000000003
100
AcDbArc
 50
344.705311042
 51
347.1029454341
  0
LINE
  5
A9
330
74
100
AcDbEntity
  8
MEGA_002174
  6
CONTINUOUS
 62
     7
 48
25.4
100
AcDbLine
 10
149.6785344534
 20
180.4013493783
 30
0.0
 11
149.6785344553
 21
180.3654509904
 31
0.0
  0
LINE
  5
AA
330
74
100
AcDbEntity
  8
MEGA_002174
  6
CONTINUOUS
 62
     7
 48
25.4
100
AcDbLine
 10
149.6785340891
 20
187.3654509904
 30
0.0
 11
149.6785340909
 21
187.3295526086
 31
0.0
  0
ARC
  5
AB
330
74
100
AcDbEntity
  8
MEGA_002174
  6
CONTINUOUS
 62
     7
 48
25.4
100
AcDbCircle
 10
-48.9131277109
 20
-9.4022289746
 30
0.0
 40
279.538981221
100
AcDbArc
 50
44.4384518663
 51
44.730442243
  0
ARC
  5
AC
330
74
100
AcDbEntity
  8
MEGA_002174
  6
CONTINUOUS
 62
     7
 48
25.4
100
AcDbCircle
 10
-48.914197573
 20
377.134144701
 30
0.0
 40
279.5404549778
100
AcDbArc
 50
315.2695645225
 51
315.5615533597
  0
LINE
  5
AD
330
74
100
AcDbEntity
  8
MEGA_002174
  6
CONTINUOUS
 62
     7
 48
25.4
100
AcDbLine
 10
150.678534144
 20
186.3149407885
 30
0.0
 11
150.6785344004
 21
181.415961303
 31
0.0
  0
LINE
  5
AE
330
74
100
AcDbEntity
  8
MEGA_002176
  6
CONTINUOUS
 62
     7
 48
25.4
100
AcDbLine
 10
121.9785335281
 20
198.0874254533
 30
0.0
 11
121.9785335891
 21
196.9210209695
 31
0.0
  0
LINE
  5
AF
330
74
100
AcDbEntity
  8
MEGA_002176
  6
CONTINUOUS
 62
     7
 48
25.4
100
AcDbLine
 10
121.9785338902
 20
191.1654496981
 30
0.0
 11
121.9785342722
 21
183.8654496002
 31
0.0
  0
LINE
  5
B0
330
74
100
AcDbEntity
  8
MEGA_002176
  6
HIDDEN2
 62
     7
 48
25.4
100
AcDbLine
 10
124.9785338902
 20
191.1654496981
 30
0.0
 11
124.9785339478
 21
190.0654497339
 31
0.0
  0
LINE
  5
B1
330
74
100
AcDbEntity
  8
MEGA_002176
  6
CONTINUOUS
 62
     7
 48
25.4
100
AcDbLine
 10
123.4785335281
 20
198.0874255318
 30
0.0
 11
121.9785335281
 21
198.0874254533
 31
0.0
  0
LINE
  5
B2
330
74
100
AcDbEntity
  8
MEGA_002176
  6
CONTINUOUS
 62
     7
 48
25.4
100
AcDbLine
 10
124.9785334246
 20
200.0654496981
 30
0.0
 11
121.9785334246
 21
200.0654495411
 31
0.0
  0
LINE
  5
B3
330
74
100
AcDbEntity
  8
MEGA_002176
  6
HIDDEN2
 62
     7
 48
25.4
100
AcDbLine
 10
124.9785340655
 20
187.8154497572
 30
0.0
 11
124.9785339478
 21
190.0654497339
 31
0.0
  0
LINE
  5
B4
330
74
100
AcDbEntity
  8
MEGA_002176
  6
CONTINUOUS
 62
     7
 48
25.4
100
AcDbLine
 10
123.4785339478
 20
190.0654496787
 30
0.0
 11
124.9785339478
 21
190.0654497339
 31
0.0
  0
LINE
  5
B5
330
74
100
AcDbEntity
  8
MEGA_002176
  6
CONTINUOUS
 62
     7
 48
25.4
100
AcDbLine
 10
121.9785346175
 20
177.2654495411
 30
0.0
 11
124.9785346175
 21
177.2654496981
 31
0.0
  0
LINE
  5
B6
330
74
100
AcDbEntity
  8
MEGA_002176
  6
CONTINUOUS
 62
     7
 48
25.4
100
AcDbLine
 10
124.9785340655
 20
187.8154497572
 30
0.0
 11
123.4785339478
 21
190.0654496787
 31
0.0
  0
ELLIPSE
  5
B7
330
74
100
AcDbEntity
  8
MEGA_002176
  6
CONTINUOUS
 62
     7
 48
25.4
100
AcDbEllipse
 10
127.2890458291
 20
188.0654498189
 30
0.0
 11
-7.208927898999999E-7
 21
12.00000000002712
 31
0.0
210
0.0
220
0.0
230
1.0
 40
0.5773502692
 41
0.3400069416402138
 42
0.5823642244424294
  0
LINE
  5
B8
330
74
100
AcDbEntity
  8
MEGA_002176
  6
CONTINUOUS
 62
     7
 48
25.4
100
AcDbLine
 10
121.9785335281
 20
198.0874253351
 30
0.0
 11
121.9785334246
 21
200.0654495411
 31
0.0
  0
LINE
  5
B9
330
74
100
AcDbEntity
  8
MEGA_002176
  6
CONTINUOUS
 62
     7
 48
25.4
100
AcDbLine
 10
121.9785346175
 20
177.2654495411
 30
0.0
 11
121.9785342722
 21
183.865449482
 31
0.0
  0
LINE
  5
BA
330
74
100
AcDbEntity
  8
MEGA_002176
  6
CONTINUOUS
 62
     7
 48
25.4
100
AcDbLine
 10
124.9785334605
 20
199.3784778152
 30
0.0
 11
124.9785334246
 21
200.0654496981
 31
0.0
  0
LINE
  5
BB
330
74
100
AcDbEntity
  8
MEGA_002176
  6
HIDDEN2
 62
     7
 48
25.4
100
AcDbLine
 10
124.9785340655
 20
187.8154497572
 30
0.0
 11
124.9785342722
 21
183.8654497572
 31
0.0
  0
LINE
  5
BC
330
74
100
AcDbEntity
  8
MEGA_002176
  6
HIDDEN2
 62
     7
 48
25.4
100
AcDbLine
 10
124.9785346175
 20
177.2654496981
 30
0.0
 11
124.9785345733
 21
178.1100491537
 31
0.0
  0
LINE
  5
BD
330
74
100
AcDbEntity
  8
STANDARD
  6
CONTINUOUS
 62
     7
 48
25.4
100
AcDbLine
 10
149.6785340909
 20
187.3295526086
 30
0.0
 11
148.9785342722
 21
187.3295526086
 31
0.0
  0
LINE
  5
BE
330
74
100
AcDbEntity
  8
STANDARD
  6
CONTINUOUS
 62
     7
 48
25.4
100
AcDbLine
 10
149.6785344553
 20
180.3654509904
 30
0.0
 11
148.9785342722
 21
180.3654509904
 31
0.0
  0
LINE
  5
BF
330
74
100
AcDbEntity
  8
STANDARD
  6
CENTER2
 62
     7
 48
25.4
100
AcDbLine
 10
150.6785342722
 20
183.8654510458
 30
0.0
 11
121.9785342722
 21
183.8654496002
 31
0.0
  0
ENDBLK
  5
C1
330
74
100
AcDbEntity
  8
0
100
AcDbBlockEnd
  0
BLOCK
  5
CB
330
C2
100
AcDbEntity
  8
0
100
AcDbBlockBegin
  2
SE2
 70
     0
 71
     0
 10
0.0
 20
0.0
 30
0.0
  3
SE2
  1

  0
POLYLINE
  5
C4
330
C2
100
AcDbEntity
  8
DEFAULT
  6
CONTINUOUS
 62
     7
 48
25.4
100
AcDb2dPolyline
 66
     1
 10
0.0
 20
0.0
 30
0.0
 70
     1
  0
VERTEX
  5
F6
330
C4
100
AcDbEntity
  8
DEFAULT
  6
CONTINUOUS
 62
     7
100
AcDbVertex
100
AcDb2dVertex
 10
113.0243527159
 20
197.565449672
 30
0.0
  0
VERTEX
  5
F7
330
C4
100
AcDbEntity
  8
DEFAULT
  6
CONTINUOUS
 62
     7
100
AcDbVertex
100
AcDb2dVertex
 10
113.5243527203
 20
200.5654496981
 30
0.0
  0
VERTEX
  5
F8
330
C4
100
AcDbEntity
  8
DEFAULT
  6
CONTINUOUS
 62
     7
100
AcDbVertex
100
AcDb2dVertex
 10
114.0243527246
 20
197.565449672
 30
0.0
  0
VERTEX
  5
F9
330
C4
100
AcDbEntity
  8
DEFAULT
  6
CONTINUOUS
 62
     7
100
AcDbVertex
100
AcDb2dVertex
 10
113.0243527159
 20
197.565449672
 30
0.0
  0
SEQEND
  5
F5
330
C4
100
AcDbEntity
  8
DEFAULT
  6
CONTINUOUS
 62
     7
 48
25.4
  0
LINE
  5
C5
330
C2
100
AcDbEntity
  8
DEFAULT
  6
CONTINUOUS
 62
     7
 48
25.4
100
AcDbLine
 10
129.4785342722
 20
175.5654496981
 30
0.0
 11
112.0243527072
 21
175.5654496981
 31
0.0
  0
LINE
  5
C6
330
C2
100
AcDbEntity
  8
DEFAULT
  6
CONTINUOUS
 62
     7
 48
25.4
100
AcDbLine
 10
125.9785342722
 20
200.5654496981
 30
0.0
 11
112.0243527072
 21
200.5654496981
 31
0.0
  0
LINE
  5
C7
330
C2
100
AcDbEntity
  8
DEFAULT
  6
CONTINUOUS
 62
     7
 48
25.4
100
AcDbLine
 10
113.5243527203
 20
175.5654496981
 30
0.0
 11
113.5243527203
 21
200.5654500706
 31
0.0
  0
TEXT
  5
C8
330
C2
100
AcDbEntity
  8
DEFAULT
  6
CONTINUOUS
 62
     7
 48
25.4
100
AcDbText
 10
112.7743527203
 20
188.1130282885
 30
0.0
 40
3.0
  1
25
 50
90.0
  7
SEACAD_SEISO_TTF
 11
109.7743527203
 21
188.1130282885
 31
0.0
100
AcDbText
 73
     3
  0
TEXT
  5
CA
330
C2
100
AcDbEntity
  8
DEFAULT
  6
CONTINUOUS
 62
     7
 48
25.4
100
AcDbText
 10
112.7743527203
 20
184.4724169348
 30
0.0
 40
3.0
  1
O
 50
90.0
  7
SEACAD_SEMECI1_TTF
 11
109.7743527203
 21
184.4724169348
 31
0.0
100
AcDbText
 73
     3
  0
ENDBLK
  5
CC
330
C2
100
AcDbEntity
  8
0
100
AcDbBlockEnd
  0
BLOCK
  5
D5
330
CD
100
AcDbEntity
  8
0
100
AcDbBlockBegin
  2
SE3
 70
     0
 71
     0
 10
0.0
 20
0.0
 30
0.0
  3
SE3
  1

  0
POLYLINE
  5
CF
330
CD
100
AcDbEntity
  8
DEFAULT
  6
CONTINUOUS
 62
     7
 48
25.4
100
AcDb2dPolyline
 66
     1
 10
0.0
 20
0.0
 30
0.0
 70
     1
  0
VERTEX
  5
FB
330
CF
100
AcDbEntity
  8
DEFAULT
  6
CONTINUOUS
 62
     7
100
AcDbVertex
100
AcDb2dVertex
 10
124.9785342983
 20
154.9744664762
 30
0.0
  0
VERTEX
  5
FC
330
CF
100
AcDbEntity
  8
DEFAULT
  6
CONTINUOUS
 62
     7
100
AcDbVertex
100
AcDb2dVertex
 10
121.9785342722
 20
155.4744664806
 30
0.0
  0
VERTEX
  5
FD
330
CF
100
AcDbEntity
  8
DEFAULT
  6
CONTINUOUS
 62
     7
100
AcDbVertex
100
AcDb2dVertex
 10
124.9785342983
 20
155.9744664849
 30
0.0
  0
VERTEX
  5
FE
330
CF
100
AcDbEntity
  8
DEFAULT
  6
CONTINUOUS
 62
     7
100
AcDbVertex
100
AcDb2dVertex
 10
124.9785342983
 20
154.9744664762
 30
0.0
  0
SEQEND
  5
FA
330
CF
100
AcDbEntity
  8
DEFAULT
  6
CONTINUOUS
 62
     7
 48
25.4
  0
POLYLINE
  5
D0
330
CD
100
AcDbEntity
  8
DEFAULT
  6
CONTINUOUS
 62
     7
 48
25.4
100
AcDb2dPolyline
 66
     1
 10
0.0
 20
0.0
 30
0.0
 70
     1
  0
VERTEX
  5
100
330
D0
100
AcDbEntity
  8
DEFAULT
  6
CONTINUOUS
 62
     7
100
AcDbVertex
100
AcDb2dVertex
 10
143.9785342461
 20
154.9744664762
 30
0.0
  0
VERTEX
  5
101
330
D0
100
AcDbEntity
  8
DEFAULT
  6
CONTINUOUS
 62
     7
100
AcDbVertex
100
AcDb2dVertex
 10
146.9785342722
 20
155.4744664806
 30
0.0
  0
VERTEX
  5
102
330
D0
100
AcDbEntity
  8
DEFAULT
  6
CONTINUOUS
 62
     7
100
AcDbVertex
100
AcDb2dVertex
 10
143.9785342461
 20
155.9744664849
 30
0.0
  0
VERTEX
  5
103
330
D0
100
AcDbEntity
  8
DEFAULT
  6
CONTINUOUS
 62
     7
100
AcDbVertex
100
AcDb2dVertex
 10
143.9785342461
 20
154.9744664762
 30
0.0
  0
SEQEND
  5
FF
330
D0
100
AcDbEntity
  8
DEFAULT
  6
CONTINUOUS
 62
     7
 48
25.4
  0
LINE
  5
D1
330
CD
100
AcDbEntity
  8
DEFAULT
  6
CONTINUOUS
 62
     7
 48
25.4
100
AcDbLine
 10
121.9785342722
 20
183.8654496002
 30
0.0
 11
121.9785342722
 21
153.9744664675
 31
0.0
  0
LINE
  5
D2
330
CD
100
AcDbEntity
  8
DEFAULT
  6
CONTINUOUS
 62
     7
 48
25.4
100
AcDbLine
 10
146.9785342722
 20
178.3654496981
 30
0.0
 11
146.9785342722
 21
153.9744664675
 31
0.0
  0
LINE
  5
D3
330
CD
100
AcDbEntity
  8
DEFAULT
  6
CONTINUOUS
 62
     7
 48
25.4
100
AcDbLine
 10
121.9785342722
 20
155.4744664806
 30
0.0
 11
146.9785346447
 21
155.4744664806
 31
0.0
  0
TEXT
  5
D4
330
CD
100
AcDbEntity
  8
DEFAULT
  6
CONTINUOUS
 62
     7
 48
25.4
100
AcDbText
 10
132.7058071857
 20
156.2244664806
 30
0.0
 40
3.0
  1
25
  7
SEACAD_SEISO_TTF
 11
132.7058071857
 21
159.2244664806
 31
0.0
100
AcDbText
 73
     3
  0
ENDBLK
  5
D6
330
CD
100
AcDbEntity
  8
0
100
AcDbBlockEnd
  0
BLOCK
  5
DF
330
D7
100
AcDbEntity
  8
0
100
AcDbBlockBegin
  2
SE4
 70
     0
 71
     0
 10
0.0
 20
0.0
 30
0.0
  3
SE4
  1

  0
POLYLINE
  5
D9
330
D7
100
AcDbEntity
  8
DEFAULT
  6
CONTINUOUS
 62
     7
 48
25.4
100
AcDb2dPolyline
 66
     1
 10
0.0
 20
0.0
 30
0.0
 70
     1
  0
VERTEX
  5
105
330
D9
100
AcDbEntity
  8
DEFAULT
  6
CONTINUOUS
 62
     7
100
AcDbVertex
100
AcDb2dVertex
 10
124.9785342983
 20
147.8418896977
 30
0.0
  0
VERTEX
  5
106
330
D9
100
AcDbEntity
  8
DEFAULT
  6
CONTINUOUS
 62
     7
100
AcDbVertex
100
AcDb2dVertex
 10
121.9785342722
 20
148.341889702
 30
0.0
  0
VERTEX
  5
107
330
D9
100
AcDbEntity
  8
DEFAULT
  6
CONTINUOUS
 62
     7
100
AcDbVertex
100
AcDb2dVertex
 10
124.9785342983
 20
148.8418897064
 30
0.0
  0
VERTEX
  5
108
330
D9
100
AcDbEntity
  8
DEFAULT
  6
CONTINUOUS
 62
     7
100
AcDbVertex
100
AcDb2dVertex
 10
124.9785342983
 20
147.8418896977
 30
0.0
  0
SEQEND
  5
104
330
D9
100
AcDbEntity
  8
DEFAULT
  6
CONTINUOUS
 62
     7
 48
25.4
  0
POLYLINE
  5
DA
330
D7
100
AcDbEntity
  8
DEFAULT
  6
CONTINUOUS
 62
     7
 48
25.4
100
AcDb2dPolyline
 66
     1
 10
0.0
 20
0.0
 30
0.0
 70
     1
  0
VERTEX
  5
10A
330
DA
100
AcDbEntity
  8
DEFAULT
  6
CONTINUOUS
 62
     7
100
AcDbVertex
100
AcDb2dVertex
 10
145.9785342461
 20
147.8418896977
 30
0.0
  0
VERTEX
  5
10B
330
DA
100
AcDbEntity
  8
DEFAULT
  6
CONTINUOUS
 62
     7
100
AcDbVertex
100
AcDb2dVertex
 10
148.9785342722
 20
148.341889702
 30
0.0
  0
VERTEX
  5
10C
330
DA
100
AcDbEntity
  8
DEFAULT
  6
CONTINUOUS
 62
     7
100
AcDbVertex
100
AcDb2dVertex
 10
145.9785342461
 20
148.8418897064
 30
0.0
  0
VERTEX
  5
10D
330
DA
100
AcDbEntity
  8
DEFAULT
  6
CONTINUOUS
 62
     7
100
AcDbVertex
100
AcDb2dVertex
 10
145.9785342461
 20
147.8418896977
 30
0.0
  0
SEQEND
  5
109
330
DA
100
AcDbEntity
  8
DEFAULT
  6
CONTINUOUS
 62
     7
 48
25.4
  0
LINE
  5
DB
330
D7
100
AcDbEntity
  8
DEFAULT
  6
CONTINUOUS
 62
     7
 48
25.4
100
AcDbLine
 10
121.9785342722
 20
183.8654496002
 30
0.0
 11
121.9785342722
 21
146.841889689
 31
0.0
  0
LINE
  5
DC
330
D7
100
AcDbEntity
  8
DEFAULT
  6
CONTINUOUS
 62
     7
 48
25.4
100
AcDbLine
 10
148.9785342722
 20
171.1370627309
 30
0.0
 11
148.9785342722
 21
146.841889689
 31
0.0
  0
LINE
  5
DD
330
D7
100
AcDbEntity
  8
DEFAULT
  6
CONTINUOUS
 62
     7
 48
25.4
100
AcDbLine
 10
121.9785342722
 20
148.341889702
 30
0.0
 11
148.9785349725
 21
148.341889702
 31
0.0
  0
TEXT
  5
DE
330
D7
100
AcDbEntity
  8
DEFAULT
  6
CONTINUOUS
 62
     7
 48
25.4
100
AcDbText
 10
133.6035346224
 20
149.091889702
 30
0.0
 40
3.0
  1
27
  7
SEACAD_SEISO_TTF
 11
133.6035346224
 21
152.091889702
 31
0.0
100
AcDbText
 73
     3
  0
ENDBLK
  5
E0
330
D7
100
AcDbEntity
  8
0
100
AcDbBlockEnd
  0
BLOCK
  5
E9
330
E1
100
AcDbEntity
  8
0
100
AcDbBlockBegin
  2
SE5
 70
     0
 71
     0
 10
0.0
 20
0.0
 30
0.0
  3
SE5
  1

  0
POLYLINE
  5
E3
330
E1
100
AcDbEntity
  8
DEFAULT
  6
CONTINUOUS
 62
     7
 48
25.4
100
AcDb2dPolyline
 66
     1
 10
0.0
 20
0.0
 30
0.0
 70
     1
  0
VERTEX
  5
10F
330
E3
100
AcDbEntity
  8
DEFAULT
  6
CONTINUOUS
 62
     7
100
AcDbVertex
100
AcDb2dVertex
 10
60.5026413137
 20
199.865449672
 30
0.0
  0
VERTEX
  5
110
330
E3
100
AcDbEntity
  8
DEFAULT
  6
CONTINUOUS
 62
     7
100
AcDbVertex
100
AcDb2dVertex
 10
61.002641318
 20
202.8654496981
 30
0.0
  0
VERTEX
  5
111
330
E3
100
AcDbEntity
  8
DEFAULT
  6
CONTINUOUS
 62
     7
100
AcDbVertex
100
AcDb2dVertex
 10
61.5026413224
 20
199.865449672
 30
0.0
  0
VERTEX
  5
112
330
E3
100
AcDbEntity
  8
DEFAULT
  6
CONTINUOUS
 62
     7
100
AcDbVertex
100
AcDb2dVertex
 10
60.5026413137
 20
199.865449672
 30
0.0
  0
SEQEND
  5
10E
330
E3
100
AcDbEntity
  8
DEFAULT
  6
CONTINUOUS
 62
     7
 48
25.4
  0
POLYLINE
  5
E4
330
E1
100
AcDbEntity
  8
DEFAULT
  6
CONTINUOUS
 62
     7
 48
25.4
100
AcDb2dPolyline
 66
     1
 10
0.0
 20
0.0
 30
0.0
 70
     1
  0
VERTEX
  5
114
330
E4
100
AcDbEntity
  8
DEFAULT
  6
CONTINUOUS
 62
     7
100
AcDbVertex
100
AcDb2dVertex
 10
60.5026413137
 20
167.8654497242
 30
0.0
  0
VERTEX
  5
115
330
E4
100
AcDbEntity
  8
DEFAULT
  6
CONTINUOUS
 62
     7
100
AcDbVertex
100
AcDb2dVertex
 10
61.002641318
 20
164.8654496981
 30
0.0
  0
VERTEX
  5
116
330
E4
100
AcDbEntity
  8
DEFAULT
  6
CONTINUOUS
 62
     7
100
AcDbVertex
100
AcDb2dVertex
 10
61.5026413224
 20
167.8654497242
 30
0.0
  0
VERTEX
  5
117
330
E4
100
AcDbEntity
  8
DEFAULT
  6
CONTINUOUS
 62
     7
100
AcDbVertex
100
AcDb2dVertex
 10
60.5026413137
 20
167.8654497242
 30
0.0
  0
SEQEND
  5
113
330
E4
100
AcDbEntity
  8
DEFAULT
  6
CONTINUOUS
 62
     7
 48
25.4
  0
LINE
  5
E5
330
E1
100
AcDbEntity
  8
DEFAULT
  6
CONTINUOUS
 62
     7
 48
25.4
100
AcDbLine
 10
82.2946553655
 20
202.8654496981
 30
0.0
 11
59.502641305
 21
202.8654496981
 31
0.0
  0
LINE
  5
E6
330
E1
100
AcDbEntity
  8
DEFAULT
  6
CONTINUOUS
 62
     7
 48
25.4
100
AcDbLine
 10
82.2946553655
 20
164.8654496981
 30
0.0
 11
59.502641305
 21
164.8654496981
 31
0.0
  0
LINE
  5
E7
330
E1
100
AcDbEntity
  8
DEFAULT
  6
CONTINUOUS
 62
     7
 48
25.4
100
AcDbLine
 10
61.002641318
 20
202.8654496981
 30
0.0
 11
61.002641318
 21
164.86545092
 31
0.0
  0
TEXT
  5
E8
330
E1
100
AcDbEntity
  8
DEFAULT
  6
CONTINUOUS
 62
     7
 48
25.4
100
AcDbText
 10
60.252641318
 20
182.1268139454
 30
0.0
 40
3.0
  1
38
 50
90.0
  7
SEACAD_SEISO_TTF
 11
57.252641318
 21
182.1268139454
 31
0.0
100
AcDbText
 73
     3
  0
ENDBLK
  5
EA
330
E1
100
AcDbEntity
  8
0
100
AcDbBlockEnd
  0
BLOCK
  5
F3
330
EB
100
AcDbEntity
  8
0
100
AcDbBlockBegin
  2
SE6
 70
     0
 71
     0
 10
0.0
 20
0.0
 30
0.0
  3
SE6
  1

  0
POLYLINE
  5
ED
330
EB
100
AcDbEntity
  8
DEFAULT
  6
CONTINUOUS
 62
     7
 48
25.4
100
AcDb2dPolyline
 66
     1
 10
0.0
 20
0.0
 30
0.0
 70
     1
  0
VERTEX
  5
119
330
ED
100
AcDbEntity
  8
DEFAULT
  6
CONTINUOUS
 62
     7
100
AcDbVertex
100
AcDb2dVertex
 10
71.7946553916
 20
148.0580274134
 30
0.0
  0
VERTEX
  5
11A
330
ED
100
AcDbEntity
  8
DEFAULT
  6
CONTINUOUS
 62
     7
100
AcDbVertex
100
AcDb2dVertex
 10
68.7946553655
 20
148.5580274178
 30
0.0
  0
VERTEX
  5
11B
330
ED
100
AcDbEntity
  8
DEFAULT
  6
CONTINUOUS
 62
     7
100
AcDbVertex
100
AcDb2dVertex
 10
71.7946553916
 20
149.0580274221
 30
0.0
  0
VERTEX
  5
11C
330
ED
100
AcDbEntity
  8
DEFAULT
  6
CONTINUOUS
 62
     7
100
AcDbVertex
100
AcDb2dVertex
 10
71.7946553916
 20
148.0580274134
 30
0.0
  0
SEQEND
  5
118
330
ED
100
AcDbEntity
  8
DEFAULT
  6
CONTINUOUS
 62
     7
 48
25.4
  0
POLYLINE
  5
EE
330
EB
100
AcDbEntity
  8
DEFAULT
  6
CONTINUOUS
 62
     7
 48
25.4
100
AcDb2dPolyline
 66
     1
 10
0.0
 20
0.0
 30
0.0
 70
     1
  0
VERTEX
  5
11E
330
EE
100
AcDbEntity
  8
DEFAULT
  6
CONTINUOUS
 62
     7
100
AcDbVertex
100
AcDb2dVertex
 10
92.7946553395
 20
148.0580274134
 30
0.0
  0
VERTEX
  5
11F
330
EE
100
AcDbEntity
  8
DEFAULT
  6
CONTINUOUS
 62
     7
100
AcDbVertex
100
AcDb2dVertex
 10
95.7946553655
 20
148.5580274178
 30
0.0
  0
VERTEX
  5
120
330
EE
100
AcDbEntity
  8
DEFAULT
  6
CONTINUOUS
 62
     7
100
AcDbVertex
100
AcDb2dVertex
 10
92.7946553395
 20
149.0580274221
 30
0.0
  0
VERTEX
  5
121
330
EE
100
AcDbEntity
  8
DEFAULT
  6
CONTINUOUS
 62
     7
100
AcDbVertex
100
AcDb2dVertex
 10
92.7946553395
 20
148.0580274134
 30
0.0
  0
SEQEND
  5
11D
330
EE
100
AcDbEntity
  8
DEFAULT
  6
CONTINUOUS
 62
     7
 48
25.4
  0
LINE
  5
EF
330
EB
100
AcDbEntity
  8
DEFAULT
  6
CONTINUOUS
 62
     7
 48
25.4
100
AcDbLine
 10
68.7946553655
 20
183.8654496981
 30
0.0
 11
68.7946553655
 21
147.0580274047
 31
0.0
  0
LINE
  5
F0
330
EB
100
AcDbEntity
  8
DEFAULT
  6
CONTINUOUS
 62
     7
 48
25.4
100
AcDbLine
 10
95.7946553655
 20
183.8654496981
 30
0.0
 11
95.7946553655
 21
147.0580274047
 31
0.0
  0
LINE
  5
F1
330
EB
100
AcDbEntity
  8
DEFAULT
  6
CONTINUOUS
 62
     7
 48
25.4
100
AcDbLine
 10
68.7946553655
 20
148.5580274178
 30
0.0
 11
95.7946560659
 21
148.5580274178
 31
0.0
  0
TEXT
  5
F2
330
EB
100
AcDbEntity
  8
DEFAULT
  6
CONTINUOUS
 62
     7
 48
25.4
100
AcDbText
 10
80.4196557157
 20
149.3080274178
 30
0.0
 40
3.0
  1
27
  7
SEACAD_SEISO_TTF
 11
80.4196557157
 21
152.3080274178
 31
0.0
100
AcDbText
 73
     3
  0
ENDBLK
  5
F4
330
EB
100
AcDbEntity
  8
0
100
AcDbBlockEnd
  0
ENDSEC
  0
SECTION
  2
ENTITIES
  0
TEXT
  5
2F
330
1F
100
AcDbEntity
  8
DEFAULT
  6
CONTINUOUS
 62
     7
 48
25.4
100
AcDbText
 10
102.9581613078
 20
110.7538150371
 30
0.0
 40
5.0
  1
41.000
  7
SEACAD_SEISO_TTF
 11
102.9581613078
 21
115.7538150371
 31
0.0
100
AcDbText
 73
     3
  0
INSERT
  5
32
330
1F
100
AcDbEntity
  8
0
100
AcDbBlockReference
  2
SE
 10
0.0
 20
0.0
 30
0.0
  0
INSERT
  5
75
330
1F
100
AcDbEntity
  8
0
100
AcDbBlockReference
  2
SE1
 10
0.0
 20
0.0
 30
0.0
  0
INSERT
  5
C3
330
1F
100
AcDbEntity
  8
0
100
AcDbBlockReference
  2
SE2
 10
0.0
 20
0.0
 30
0.0
  0
INSERT
  5
CE
330
1F
100
AcDbEntity
  8
0
100
AcDbBlockReference
  2
SE3
 10
0.0
 20
0.0
 30
0.0
  0
INSERT
  5
D8
330
1F
100
AcDbEntity
  8
0
100
AcDbBlockReference
  2
SE4
 10
0.0
 20
0.0
 30
0.0
  0
INSERT
  5
E2
330
1F
100
AcDbEntity
  8
0
100
AcDbBlockReference
  2
SE5
 10
0.0
 20
0.0
 30
0.0
  0
INSERT
  5
EC
330
1F
100
AcDbEntity
  8
0
100
AcDbBlockReference
  2
SE6
 10
0.0
 20
0.0
 30
0.0
  0
ENDSEC
  0
SECTION
  2
OBJECTS
  0
DICTIONARY
  5
C
330
0
100
AcDbDictionary
  3
ACAD_GROUP
350
D
  3
ACAD_LAYOUT
350
1A
  3
ACAD_MLINESTYLE
350
17
  3
ACAD_PLOTSETTINGS
350
19
  3
ACAD_TABLESTYLE
350
2A
  3
ACDBVARIABLEDICTIONARY
350
2C
1001
ACAD
1000
TREAT_AS_HARD
1070
     0
  0
DICTIONARY
  5
122
330
29
100
AcDbDictionary
  3
ACAD_XREC_ROUNDTRIP
360
123
  0
DICTIONARY
  5
D
102
{ACAD_REACTORS
330
C
102
}
330
C
100
AcDbDictionary
1001
ACAD
1000
TREAT_AS_HARD
1070
     0
  0
DICTIONARY
  5
1A
102
{ACAD_REACTORS
330
C
102
}
330
C
100
AcDbDictionary
1001
ACAD
1000
TREAT_AS_HARD
1070
     0
  0
DICTIONARY
  5
17
102
{ACAD_REACTORS
330
C
102
}
330
C
100
AcDbDictionary
  3
STANDARD
350
18
1001
ACAD
1000
TREAT_AS_HARD
1070
     0
  0
DICTIONARY
  5
19
102
{ACAD_REACTORS
330
C
102
}
330
C
100
AcDbDictionary
1001
ACAD
1000
TREAT_AS_HARD
1070
     0
  0
DICTIONARY
  5
2A
102
{ACAD_REACTORS
330
C
102
}
330
C
100
AcDbDictionary
  3
STANDARD
350
2B
1001
ACAD
1000
TREAT_AS_HARD
1070
     0
  0
DICTIONARY
  5
2C
102
{ACAD_REACTORS
330
C
102
}
330
C
100
AcDbDictionary
  3
CTABLESTYLE
350
2D
1001
ACAD
1000
TREAT_AS_HARD
1070
     0
  0
XRECORD
  5
123
102
{ACAD_REACTORS
330
122
102
}
330
122
100
AcDbXrecord
102
UCS
 74
     0
 71
     1
 10
0.0
 20
0.0
 30
0.0
 10
1.0
 20
0.0
 30
0.0
 10
0.0
 20
1.0
 30
0.0
146
0.0
 79
     0
102
VIEW
281
     0
  0
MLINESTYLE
  5
18
102
{ACAD_REACTORS
330
17
102
}
330
17
100
AcDbMlineStyle
  2
Standard
 70
     0
  3

 62
   256
 51
90.0
 52
90.0
 71
     2
 49
0.5
 62
   256
  6
BYLAYER
 49
-0.5
 62
   256
  6
BYLAYER
  0
TABLESTYLE
  5
2B
102
{ACAD_REACTORS
330
2A
102
}
330
2A
100
AcDbTableStyle
  3
Standard
 70
     0
 71
     0
 40
0.06
 41
0.06
280
     0
281
     0
  7
STANDARD
140
0.18
170
     2
 62
     0
 63
     7
283
     0
274
    -2
284
     1
 64
     0
275
    -2
285
     1
 65
     0
276
    -2
286
     1
 66
     0
277
    -2
287
     1
 67
     0
278
    -2
288
     1
 68
     0
279
    -2
289
     1
 69
     0
  7
STANDARD
140
0.25
170
     5
 62
     0
 63
     7
283
     0
274
    -2
284
     1
 64
     0
275
    -2
285
     1
 65
     0
276
    -2
286
     1
 66
     0
277
    -2
287
     1
 67
     0
278
    -2
288
     1
 68
     0
279
    -2
289
     1
 69
     0
  7
STANDARD
140
0.18
170
     5
 62
     0
 63
     7
283
     0
274
    -2
284
     1
 64
     0
275
    -2
285
     1
 65
     0
276
    -2
286
     1
 66
     0
277
    -2
287
     1
 67
     0
278
    -2
288
     1
 68
     0
279
    -2
289
     1
 69
     0
  0
DICTIONARYVAR
  5
2D
102
{ACAD_REACTORS
330
2C
102
}
330
2C
100
DictionaryVariables
280
     0
  1
Standard
  0
ENDSEC
  0
EOF
