  0
SECTION
  2
HEADER
  9
$ACADVER
  1
AC1024
  9
$ACADMAINTVER
 70
     6
  9
$DWGCODEPAGE
  3
ANSI_1252
  9
$INSBASE
 10
0.0
 20
0.0
 30
0.0
  9
$EXTMIN
 10
1.000000000000000E+20
 20
1.000000000000000E+20
 30
1.000000000000000E+20
  9
$EXTMAX
 10
-1.000000000000000E+20
 20
-1.000000000000000E+20
 30
-1.000000000000000E+20
  9
$LIMMIN
 10
0.0
 20
0.0
  9
$LIMMAX
 10
12.0
 20
9.0
  9
$ORTHOMODE
 70
     0
  9
$REGENMODE
 70
     1
  9
$FILLMODE
 70
     1
  9
$QTEXTMODE
 70
     0
  9
$MIRRTEXT
 70
     1
  9
$LTSCALE
 40
1.0
  9
$ATTMODE
 70
     1
  9
$TEXTSIZE
 40
0.2
  9
$TRACEWID
 40
0.05
  9
$TEXTSTYLE
  7
Standard
  9
$CLAYER
  8
0
  9
$CELTYPE
  6
ByLayer
  9
$CECOLOR
 62
   256
  9
$CELTSCALE
 40
1.0
  9
$DISPSILH
 70
     0
  9
$DIMSCALE
 40
1.0
  9
$DIMASZ
 40
0.18
  9
$DIMEXO
 40
0.0625
  9
$DIMDLI
 40
0.38
  9
$DIMRND
 40
0.0
  9
$DIMDLE
 40
0.0
  9
$DIMEXE
 40
0.18
  9
$DIMTP
 40
0.0
  9
$DIMTM
 40
0.0
  9
$DIMTXT
 40
0.18
  9
$DIMCEN
 40
0.09
  9
$DIMTSZ
 40
0.0
  9
$DIMTOL
 70
     0
  9
$DIMLIM
 70
     0
  9
$DIMTIH
 70
     1
  9
$DIMTOH
 70
     1
  9
$DIMSE1
 70
     0
  9
$DIMSE2
 70
     0
  9
$DIMTAD
 70
     0
  9
$DIMZIN
 70
     0
  9
$DIMBLK
  1

  9
$DIMASO
 70
     1
  9
$DIMSHO
 70
     1
  9
$DIMPOST
  1

  9
$DIMAPOST
  1

  9
$DIMALT
 70
     0
  9
$DIMALTD
 70
     2
  9
$DIMALTF
 40
25.4
  9
$DIMLFAC
 40
1.0
  9
$DIMTOFL
 70
     0
  9
$DIMTVP
 40
0.0
  9
$DIMTIX
 70
     0
  9
$DIMSOXD
 70
     0
  9
$DIMSAH
 70
     0
  9
$DIMBLK1
  1

  9
$DIMBLK2
  1

  9
$DIMSTYLE
  2
Standard
  9
$DIMCLRD
 70
     0
  9
$DIMCLRE
 70
     0
  9
$DIMCLRT
 70
     0
  9
$DIMTFAC
 40
1.0
  9
$DIMGAP
 40
0.09
  9
$DIMJUST
 70
     0
  9
$DIMSD1
 70
     0
  9
$DIMSD2
 70
     0
  9
$DIMTOLJ
 70
     1
  9
$DIMTZIN
 70
     0
  9
$DIMALTZ
 70
     0
  9
$DIMALTTZ
 70
     0
  9
$DIMUPT
 70
     0
  9
$DIMDEC
 70
     4
  9
$DIMTDEC
 70
     4
  9
$DIMALTU
 70
     2
  9
$DIMALTTD
 70
     2
  9
$DIMTXSTY
  7
Standard
  9
$DIMAUNIT
 70
     0
  9
$DIMADEC
 70
     0
  9
$DIMALTRND
 40
0.0
  9
$DIMAZIN
 70
     0
  9
$DIMDSEP
 70
    46
  9
$DIMATFIT
 70
     3
  9
$DIMFRAC
 70
     0
  9
$DIMLDRBLK
  1

  9
$DIMLUNIT
 70
     2
  9
$DIMLWD
 70
    -2
  9
$DIMLWE
 70
    -2
  9
$DIMTMOVE
 70
     0
  9
$DIMFXL
 40
1.0
  9
$DIMFXLON
 70
     0
  9
$DIMJOGANG
 40
0.7853981633974483
  9
$DIMTFILL
 70
     0
  9
$DIMTFILLCLR
 70
     0
  9
$DIMARCSYM
 70
     0
  9
$DIMLTYPE
  6

  9
$DIMLTEX1
  6

  9
$DIMLTEX2
  6

  9
$DIMTXTDIRECTION
 70
     0
  9
$LUNITS
 70
     2
  9
$LUPREC
 70
     4
  9
$SKETCHINC
 40
0.1
  9
$FILLETRAD
 40
0.5
  9
$AUNITS
 70
     0
  9
$AUPREC
 70
     0
  9
$MENU
  1
.
  9
$ELEVATION
 40
0.0
  9
$PELEVATION
 40
0.0
  9
$THICKNESS
 40
0.0
  9
$LIMCHECK
 70
     0
  9
$CHAMFERA
 40
0.5
  9
$CHAMFERB
 40
0.5
  9
$CHAMFERC
 40
1.0
  9
$CHAMFERD
 40
0.0
  9
$SKPOLY
 70
     0
  9
$TDCREATE
 40
2458968.62865537
  9
$TDUCREATE
 40
2458968.545322037
  9
$TDUPDATE
 40
2458968.62865559
  9
$TDUUPDATE
 40
2458968.545322257
  9
$TDINDWG
 40
0.0000000116
  9
$TDUSRTIMER
 40
0.0000000116
  9
$USRTIMER
 70
     1
  9
$ANGBASE
 50
0.0
  9
$ANGDIR
 70
     0
  9
$PDMODE
 70
     0
  9
$PDSIZE
 40
0.0
  9
$PLINEWID
 40
0.0
  9
$SPLFRAME
 70
     0
  9
$SPLINETYPE
 70
     6
  9
$SPLINESEGS
 70
     8
  9
$HANDSEED
  5
867
  9
$SURFTAB1
 70
     6
  9
$SURFTAB2
 70
     6
  9
$SURFTYPE
 70
     6
  9
$SURFU
 70
     6
  9
$SURFV
 70
     6
  9
$UCSBASE
  2

  9
$UCSNAME
  2

  9
$UCSORG
 10
0.0
 20
0.0
 30
0.0
  9
$UCSXDIR
 10
1.0
 20
0.0
 30
0.0
  9
$UCSYDIR
 10
0.0
 20
1.0
 30
0.0
  9
$UCSORTHOREF
  2

  9
$UCSORTHOVIEW
 70
     0
  9
$UCSORGTOP
 10
0.0
 20
0.0
 30
0.0
  9
$UCSORGBOTTOM
 10
0.0
 20
0.0
 30
0.0
  9
$UCSORGLEFT
 10
0.0
 20
0.0
 30
0.0
  9
$UCSORGRIGHT
 10
0.0
 20
0.0
 30
0.0
  9
$UCSORGFRONT
 10
0.0
 20
0.0
 30
0.0
  9
$UCSORGBACK
 10
0.0
 20
0.0
 30
0.0
  9
$PUCSBASE
  2

  9
$PUCSNAME
  2

  9
$PUCSORG
 10
0.0
 20
0.0
 30
0.0
  9
$PUCSXDIR
 10
1.0
 20
0.0
 30
0.0
  9
$PUCSYDIR
 10
0.0
 20
1.0
 30
0.0
  9
$PUCSORTHOREF
  2

  9
$PUCSORTHOVIEW
 70
     0
  9
$PUCSORGTOP
 10
0.0
 20
0.0
 30
0.0
  9
$PUCSORGBOTTOM
 10
0.0
 20
0.0
 30
0.0
  9
$PUCSORGLEFT
 10
0.0
 20
0.0
 30
0.0
  9
$PUCSORGRIGHT
 10
0.0
 20
0.0
 30
0.0
  9
$PUCSORGFRONT
 10
0.0
 20
0.0
 30
0.0
  9
$PUCSORGBACK
 10
0.0
 20
0.0
 30
0.0
  9
$USERI1
 70
     0
  9
$USERI2
 70
     0
  9
$USERI3
 70
     0
  9
$USERI4
 70
     0
  9
$USERI5
 70
     0
  9
$USERR1
 40
0.0
  9
$USERR2
 40
0.0
  9
$USERR3
 40
0.0
  9
$USERR4
 40
0.0
  9
$USERR5
 40
0.0
  9
$WORLDVIEW
 70
     1
  9
$SHADEDGE
 70
     3
  9
$SHADEDIF
 70
    70
  9
$TILEMODE
 70
     1
  9
$MAXACTVP
 70
    64
  9
$PINSBASE
 10
0.0
 20
0.0
 30
0.0
  9
$PLIMCHECK
 70
     0
  9
$PEXTMIN
 10
1.000000000000000E+20
 20
1.000000000000000E+20
 30
1.000000000000000E+20
  9
$PEXTMAX
 10
-1.000000000000000E+20
 20
-1.000000000000000E+20
 30
-1.000000000000000E+20
  9
$PLIMMIN
 10
0.0
 20
0.0
  9
$PLIMMAX
 10
12.0
 20
9.0
  9
$UNITMODE
 70
     0
  9
$VISRETAIN
 70
     1
  9
$PLINEGEN
 70
     0
  9
$PSLTSCALE
 70
     1
  9
$TREEDEPTH
 70
  3020
  9
$CMLSTYLE
  2
Standard
  9
$CMLJUST
 70
     0
  9
$CMLSCALE
 40
1.0
  9
$PROXYGRAPHICS
 70
     1
  9
$MEASUREMENT
 70
     0
  9
$CELWEIGHT
370
    -1
  9
$ENDCAPS
280
     0
  9
$JOINSTYLE
280
     0
  9
$LWDISPLAY
290
     1
  9
$INSUNITS
 70
     4
  9
$HYPERLINKBASE
  1

  9
$STYLESHEET
  1

  9
$XEDIT
290
     1
  9
$CEPSNTYPE
380
     0
  9
$PSTYLEMODE
290
     1
  9
$FINGERPRINTGUID
  2
{685DC46B-7DFB-47B9-8CC8-59A5B5E5192D}
  9
$VERSIONGUID
  2
{FAEB1C32-E019-11D5-929B-00C0DF256EC4}
  9
$EXTNAMES
290
     1
  9
$PSVPSCALE
 40
0.0
  9
$OLESTARTUP
290
     0
  9
$SORTENTS
280
   127
  9
$INDEXCTL
280
     0
  9
$HIDETEXT
280
     1
  9
$XCLIPFRAME
280
     2
  9
$HALOGAP
280
     0
  9
$OBSCOLOR
 70
   257
  9
$OBSLTYPE
280
     0
  9
$INTERSECTIONDISPLAY
280
     0
  9
$INTERSECTIONCOLOR
 70
   257
  9
$DIMASSOC
280
     2
  9
$PROJECTNAME
  1

  9
$CAMERADISPLAY
290
     0
  9
$LENSLENGTH
 40
50.0
  9
$CAMERAHEIGHT
 40
0.0
  9
$STEPSPERSEC
 40
2.0
  9
$STEPSIZE
 40
6.0
  9
$3DDWFPREC
 40
2.0
  9
$PSOLWIDTH
 40
0.25
  9
$PSOLHEIGHT
 40
4.0
  9
$LOFTANG1
 40
1.570796326794897
  9
$LOFTANG2
 40
1.570796326794897
  9
$LOFTMAG1
 40
0.0
  9
$LOFTMAG2
 40
0.0
  9
$LOFTPARAM
 70
     7
  9
$LOFTNORMALS
280
     1
  9
$LATITUDE
 40
37.795
  9
$LONGITUDE
 40
-122.394
  9
$NORTHDIRECTION
 40
0.0
  9
$TIMEZONE
 70
 -8000
  9
$LIGHTGLYPHDISPLAY
280
     1
  9
$TILEMODELIGHTSYNCH
280
     1
  9
$CMATERIAL
347
3C
  9
$SOLIDHIST
280
     1
  9
$SHOWHIST
280
     1
  9
$DWFFRAME
280
     2
  9
$DGNFRAME
280
     2
  9
$REALWORLDSCALE
290
     1
  9
$INTERFERECOLOR
 62
   256
  9
$CSHADOW
280
     0
  9
$SHADOWPLANELOCATION
 40
0.0
  0
ENDSEC
  0
SECTION
  2
CLASSES
  0
CLASS
  1
ACDBDICTIONARYWDFLT
  2
AcDbDictionaryWithDefault
  3
ObjectDBX Classes
 90
        0
 91
        4
280
     0
281
     0
  0
CLASS
  1
VISUALSTYLE
  2
AcDbVisualStyle
  3
ObjectDBX Classes
 90
     4095
 91
        4
280
     0
281
     0
  0
CLASS
  1
MATERIAL
  2
AcDbMaterial
  3
ObjectDBX Classes
 90
     1153
 91
        4
280
     0
281
     0
  0
CLASS
  1
SUN
  2
AcDbSun
  3
SCENEOE
 90
     1024
 91
        4
280
     0
281
     0
  0
ENDSEC
  0
SECTION
  2
TABLES
  0
TABLE
  2
VPORT
  5
8
330
0
100
AcDbSymbolTable
 70
     1
  0
VPORT
  5
29
330
8
100
AcDbSymbolTableRecord
100
AcDbViewportTableRecord
  2
*Active
 70
     0
 10
0.0
 20
0.0
 11
1.0
 21
1.0
 12
0.0
 22
0.0
 13
0.0
 23
0.0
 14
0.5
 24
0.5
 15
0.5
 25
0.5
 16
0.0
 26
0.0
 36
1.0
 17
99.99999997500582
 27
99.99999997500566
 37
0.0
 40
199.9999999500113
 41
1.000000000000002
 42
50.0
 43
0.0
 44
0.0
 50
0.0
 51
0.0
 71
     0
 72
   100
 73
     1
 74
     3
 75
     0
 76
     0
 77
     0
 78
     0
281
     0
 65
     1
110
0.0
120
0.0
130
0.0
111
1.0
121
0.0
131
0.0
112
0.0
122
1.0
132
0.0
 79
     0
146
0.0
 60
     3
 61
     5
292
     1
282
     1
141
0.0
142
0.0
 63
   250
361
3F
  0
ENDTAB
  0
TABLE
  2
LTYPE
  5
5
330
0
100
AcDbSymbolTable
 70
    11
  0
LTYPE
  5
14
330
5
100
AcDbSymbolTableRecord
100
AcDbLinetypeTableRecord
  2
ByBlock
 70
     0
  3

 72
    65
 73
     0
 40
0.0
  0
LTYPE
  5
15
330
5
100
AcDbSymbolTableRecord
100
AcDbLinetypeTableRecord
  2
ByLayer
 70
     0
  3

 72
    65
 73
     0
 40
0.0
  0
LTYPE
  5
16
330
5
100
AcDbSymbolTableRecord
100
AcDbLinetypeTableRecord
  2
Continuous
 70
     0
  3
Solid line
 72
    65
 73
     0
 40
0.0
  0
LTYPE
  5
52
330
5
100
AcDbSymbolTableRecord
100
AcDbLinetypeTableRecord
  2
AI-Linetype-1
 70
     0
  3
Adobe Illustrator Linetype No. 1
 72
    65
 73
     4
 40
8.500000234306759
 49
4.000000110262004
 74
     0
 49
-2.000000055131002
 74
     0
 49
0.5000000137827505
 74
     0
 49
-2.000000055131002
 74
     0
  0
LTYPE
  5
5B
330
5
100
AcDbSymbolTableRecord
100
AcDbLinetypeTableRecord
  2
AI-Linetype-2
 70
     0
  3
Adobe Illustrator Linetype No. 2
 72
    65
 73
     4
 40
8.500000234306759
 49
4.000000110262004
 74
     0
 49
-2.000000055131002
 74
     0
 49
0.5000000137827505
 74
     0
 49
-2.000000055131002
 74
     0
  0
LTYPE
  5
64
330
5
100
AcDbSymbolTableRecord
100
AcDbLinetypeTableRecord
  2
AI-Linetype-3
 70
     0
  3
Adobe Illustrator Linetype No. 3
 72
    65
 73
     4
 40
8.500000234306759
 49
4.000000110262004
 74
     0
 49
-2.000000055131002
 74
     0
 49
0.5000000137827505
 74
     0
 49
-2.000000055131002
 74
     0
  0
LTYPE
  5
72
330
5
100
AcDbSymbolTableRecord
100
AcDbLinetypeTableRecord
  2
AI-Linetype-4
 70
     0
  3
Adobe Illustrator Linetype No. 4
 72
    65
 73
     4
 40
8.500000234306759
 49
4.000000110262004
 74
     0
 49
-2.000000055131002
 74
     0
 49
0.5000000137827505
 74
     0
 49
-2.000000055131002
 74
     0
  0
LTYPE
  5
788
330
5
100
AcDbSymbolTableRecord
100
AcDbLinetypeTableRecord
  2
AI-Linetype-5
 70
     0
  3
Adobe Illustrator Linetype No. 5
 72
    65
 73
     4
 40
8.500000234306759
 49
4.000000110262004
 74
     0
 49
-2.000000055131002
 74
     0
 49
0.5000000137827505
 74
     0
 49
-2.000000055131002
 74
     0
  0
LTYPE
  5
791
330
5
100
AcDbSymbolTableRecord
100
AcDbLinetypeTableRecord
  2
AI-Linetype-6
 70
     0
  3
Adobe Illustrator Linetype No. 6
 72
    65
 73
     4
 40
8.500000234306759
 49
4.000000110262004
 74
     0
 49
-2.000000055131002
 74
     0
 49
0.5000000137827505
 74
     0
 49
-2.000000055131002
 74
     0
  0
LTYPE
  5
79A
330
5
100
AcDbSymbolTableRecord
100
AcDbLinetypeTableRecord
  2
AI-Linetype-7
 70
     0
  3
Adobe Illustrator Linetype No. 7
 72
    65
 73
     4
 40
8.500000234306759
 49
4.000000110262004
 74
     0
 49
-2.000000055131002
 74
     0
 49
0.5000000137827505
 74
     0
 49
-2.000000055131002
 74
     0
  0
LTYPE
  5
7C2
330
5
100
AcDbSymbolTableRecord
100
AcDbLinetypeTableRecord
  2
AI-Linetype-8
 70
     0
  3
Adobe Illustrator Linetype No. 8
 72
    65
 73
     4
 40
8.500000234306759
 49
4.000000110262004
 74
     0
 49
-2.000000055131002
 74
     0
 49
0.5000000137827505
 74
     0
 49
-2.000000055131002
 74
     0
  0
LTYPE
  5
83A
330
5
100
AcDbSymbolTableRecord
100
AcDbLinetypeTableRecord
  2
AI-Linetype-9
 70
     0
  3
Adobe Illustrator Linetype No. 9
 72
    65
 73
     4
 40
8.500000234306759
 49
4.000000110262004
 74
     0
 49
-2.000000055131002
 74
     0
 49
0.5000000137827505
 74
     0
 49
-2.000000055131002
 74
     0
  0
LTYPE
  5
863
330
5
100
AcDbSymbolTableRecord
100
AcDbLinetypeTableRecord
  2
AI-Linetype-10
 70
     0
  3
Adobe Illustrator Linetype No. 10
 72
    65
 73
     4
 40
8.500000234306759
 49
4.000000110262004
 74
     0
 49
-2.000000055131002
 74
     0
 49
0.5000000137827505
 74
     0
 49
-2.000000055131002
 74
     0
  0
ENDTAB
  0
TABLE
  2
LAYER
  5
2
330
0
100
AcDbSymbolTable
 70
     7
  0
LAYER
  5
10
330
2
100
AcDbSymbolTableRecord
100
AcDbLayerTableRecord
  2
0
 70
     0
 62
     7
  6
Continuous
370
    -3
390
F
347
3E
  0
LAYER
  5
40
330
2
100
AcDbSymbolTableRecord
100
AcDbLayerTableRecord
  2
1
 70
     0
 62
     7
  6
Continuous
370
    -3
390
F
347
3E
  0
LAYER
  5
79
330
2
100
AcDbSymbolTableRecord
100
AcDbLayerTableRecord
  2
49
 70
     0
 62
     7
  6
Continuous
370
    -3
390
F
347
3E
  0
LAYER
  5
759
330
2
100
AcDbSymbolTableRecord
100
AcDbLayerTableRecord
  2
5
 70
     0
 62
     7
  6
Continuous
370
    -3
390
F
347
3E
  0
LAYER
  5
75A
330
2
100
AcDbSymbolTableRecord
100
AcDbLayerTableRecord
  2
6
 70
     0
 62
     7
  6
Continuous
370
    -3
390
F
347
3E
  0
LAYER
  5
75B
330
2
100
AcDbSymbolTableRecord
100
AcDbLayerTableRecord
  2
4
 70
     0
 62
     7
  6
Continuous
370
    -3
390
F
347
3E
  0
LAYER
  5
75C
330
2
100
AcDbSymbolTableRecord
100
AcDbLayerTableRecord
  2
3
 70
     0
 62
     7
  6
Continuous
370
    -3
390
F
347
3E
  0
ENDTAB
  0
TABLE
  2
STYLE
  5
3
330
0
100
AcDbSymbolTable
 70
     1
  0
STYLE
  5
11
330
3
100
AcDbSymbolTableRecord
100
AcDbTextStyleTableRecord
  2
Standard
 70
     0
 40
0.0
 41
1.0
 50
0.0
 71
     0
 42
0.2
  3
txt
  4

  0
ENDTAB
  0
TABLE
  2
VIEW
  5
6
330
0
100
AcDbSymbolTable
 70
     0
  0
ENDTAB
  0
TABLE
  2
UCS
  5
7
330
0
100
AcDbSymbolTable
 70
     0
  0
ENDTAB
  0
TABLE
  2
APPID
  5
9
330
0
100
AcDbSymbolTable
 70
     1
  0
APPID
  5
12
330
9
100
AcDbSymbolTableRecord
100
AcDbRegAppTableRecord
  2
ACAD
 70
     0
  0
ENDTAB
  0
TABLE
  2
DIMSTYLE
  5
A
330
0
100
AcDbSymbolTable
 70
     1
100
AcDbDimStyleTable
  0
DIMSTYLE
105
27
330
A
100
AcDbSymbolTableRecord
100
AcDbDimStyleTableRecord
  2
Standard
 70
     0
178
     0
340
11
  0
ENDTAB
  0
TABLE
  2
BLOCK_RECORD
  5
1
330
0
100
AcDbSymbolTable
 70
   264
  0
BLOCK_RECORD
  5
1F
330
1
100
AcDbSymbolTableRecord
100
AcDbBlockTableRecord
  2
*Model_Space
340
22
 70
     0
280
     1
281
     0
  0
BLOCK_RECORD
  5
1B
330
1
100
AcDbSymbolTableRecord
100
AcDbBlockTableRecord
  2
*Paper_Space
340
1E
 70
     0
280
     1
281
     0
  0
BLOCK_RECORD
  5
23
330
1
100
AcDbSymbolTableRecord
100
AcDbBlockTableRecord
  2
*Paper_Space0
340
26
 70
     0
280
     1
281
     0
  0
BLOCK_RECORD
  5
41
330
1
100
AcDbSymbolTableRecord
100
AcDbBlockTableRecord
  2
block 2
340
0
102
{BLKREFS
331
42
102
}
 70
     0
280
     1
281
     0
  0
BLOCK_RECORD
  5
46
330
1
100
AcDbSymbolTableRecord
100
AcDbBlockTableRecord
  2
block 3
340
0
102
{BLKREFS
331
47
102
}
 70
     0
280
     1
281
     0
  0
BLOCK_RECORD
  5
4B
330
1
100
AcDbSymbolTableRecord
100
AcDbBlockTableRecord
  2
block 4
340
0
102
{BLKREFS
331
4C
102
}
 70
     0
280
     1
281
     0
  0
BLOCK_RECORD
  5
54
330
1
100
AcDbSymbolTableRecord
100
AcDbBlockTableRecord
  2
block 5
340
0
102
{BLKREFS
331
55
102
}
 70
     0
280
     1
281
     0
  0
BLOCK_RECORD
  5
5D
330
1
100
AcDbSymbolTableRecord
100
AcDbBlockTableRecord
  2
block 6
340
0
102
{BLKREFS
331
5E
102
}
 70
     0
280
     1
281
     0
  0
BLOCK_RECORD
  5
66
330
1
100
AcDbSymbolTableRecord
100
AcDbBlockTableRecord
  2
block 7
340
0
102
{BLKREFS
331
67
102
}
 70
     0
280
     1
281
     0
  0
BLOCK_RECORD
  5
6B
330
1
100
AcDbSymbolTableRecord
100
AcDbBlockTableRecord
  2
block 8
340
0
102
{BLKREFS
331
6C
102
}
 70
     0
280
     1
281
     0
  0
BLOCK_RECORD
  5
74
330
1
100
AcDbSymbolTableRecord
100
AcDbBlockTableRecord
  2
block 9
340
0
102
{BLKREFS
331
75
102
}
 70
     0
280
     1
281
     0
  0
BLOCK_RECORD
  5
7A
330
1
100
AcDbSymbolTableRecord
100
AcDbBlockTableRecord
  2
block 10
340
0
102
{BLKREFS
331
7B
102
}
 70
     0
280
     1
281
     0
  0
BLOCK_RECORD
  5
82
330
1
100
AcDbSymbolTableRecord
100
AcDbBlockTableRecord
  2
block 11
340
0
102
{BLKREFS
331
83
102
}
 70
     0
280
     1
281
     0
  0
BLOCK_RECORD
  5
8A
330
1
100
AcDbSymbolTableRecord
100
AcDbBlockTableRecord
  2
block 12
340
0
102
{BLKREFS
331
8B
102
}
 70
     0
280
     1
281
     0
  0
BLOCK_RECORD
  5
92
330
1
100
AcDbSymbolTableRecord
100
AcDbBlockTableRecord
  2
block 13
340
0
102
{BLKREFS
331
93
102
}
 70
     0
280
     1
281
     0
  0
BLOCK_RECORD
  5
9A
330
1
100
AcDbSymbolTableRecord
100
AcDbBlockTableRecord
  2
block 14
340
0
102
{BLKREFS
331
9B
102
}
 70
     0
280
     1
281
     0
  0
BLOCK_RECORD
  5
A2
330
1
100
AcDbSymbolTableRecord
100
AcDbBlockTableRecord
  2
block 15
340
0
102
{BLKREFS
331
A3
102
}
 70
     0
280
     1
281
     0
  0
BLOCK_RECORD
  5
AA
330
1
100
AcDbSymbolTableRecord
100
AcDbBlockTableRecord
  2
block 16
340
0
102
{BLKREFS
331
AB
102
}
 70
     0
280
     1
281
     0
  0
BLOCK_RECORD
  5
B2
330
1
100
AcDbSymbolTableRecord
100
AcDbBlockTableRecord
  2
block 17
340
0
102
{BLKREFS
331
B3
102
}
 70
     0
280
     1
281
     0
  0
BLOCK_RECORD
  5
BA
330
1
100
AcDbSymbolTableRecord
100
AcDbBlockTableRecord
  2
block 18
340
0
102
{BLKREFS
331
BB
102
}
 70
     0
280
     1
281
     0
  0
BLOCK_RECORD
  5
C2
330
1
100
AcDbSymbolTableRecord
100
AcDbBlockTableRecord
  2
block 19
340
0
102
{BLKREFS
331
C3
102
}
 70
     0
280
     1
281
     0
  0
BLOCK_RECORD
  5
CA
330
1
100
AcDbSymbolTableRecord
100
AcDbBlockTableRecord
  2
block 20
340
0
102
{BLKREFS
331
CB
102
}
 70
     0
280
     1
281
     0
  0
BLOCK_RECORD
  5
D2
330
1
100
AcDbSymbolTableRecord
100
AcDbBlockTableRecord
  2
block 21
340
0
102
{BLKREFS
331
D3
102
}
 70
     0
280
     1
281
     0
  0
BLOCK_RECORD
  5
DA
330
1
100
AcDbSymbolTableRecord
100
AcDbBlockTableRecord
  2
block 22
340
0
102
{BLKREFS
331
DB
102
}
 70
     0
280
     1
281
     0
  0
BLOCK_RECORD
  5
E2
330
1
100
AcDbSymbolTableRecord
100
AcDbBlockTableRecord
  2
block 23
340
0
102
{BLKREFS
331
E3
102
}
 70
     0
280
     1
281
     0
  0
BLOCK_RECORD
  5
EA
330
1
100
AcDbSymbolTableRecord
100
AcDbBlockTableRecord
  2
block 24
340
0
102
{BLKREFS
331
EB
102
}
 70
     0
280
     1
281
     0
  0
BLOCK_RECORD
  5
F2
330
1
100
AcDbSymbolTableRecord
100
AcDbBlockTableRecord
  2
block 25
340
0
102
{BLKREFS
331
F3
102
}
 70
     0
280
     1
281
     0
  0
BLOCK_RECORD
  5
FA
330
1
100
AcDbSymbolTableRecord
100
AcDbBlockTableRecord
  2
block 26
340
0
102
{BLKREFS
331
FB
102
}
 70
     0
280
     1
281
     0
  0
BLOCK_RECORD
  5
102
330
1
100
AcDbSymbolTableRecord
100
AcDbBlockTableRecord
  2
block 27
340
0
102
{BLKREFS
331
103
102
}
 70
     0
280
     1
281
     0
  0
BLOCK_RECORD
  5
10A
330
1
100
AcDbSymbolTableRecord
100
AcDbBlockTableRecord
  2
block 28
340
0
102
{BLKREFS
331
10B
102
}
 70
     0
280
     1
281
     0
  0
BLOCK_RECORD
  5
112
330
1
100
AcDbSymbolTableRecord
100
AcDbBlockTableRecord
  2
block 29
340
0
102
{BLKREFS
331
113
102
}
 70
     0
280
     1
281
     0
  0
BLOCK_RECORD
  5
11A
330
1
100
AcDbSymbolTableRecord
100
AcDbBlockTableRecord
  2
block 30
340
0
102
{BLKREFS
331
11B
102
}
 70
     0
280
     1
281
     0
  0
BLOCK_RECORD
  5
122
330
1
100
AcDbSymbolTableRecord
100
AcDbBlockTableRecord
  2
block 31
340
0
102
{BLKREFS
331
123
102
}
 70
     0
280
     1
281
     0
  0
BLOCK_RECORD
  5
12A
330
1
100
AcDbSymbolTableRecord
100
AcDbBlockTableRecord
  2
block 32
340
0
102
{BLKREFS
331
12B
102
}
 70
     0
280
     1
281
     0
  0
BLOCK_RECORD
  5
132
330
1
100
AcDbSymbolTableRecord
100
AcDbBlockTableRecord
  2
block 33
340
0
102
{BLKREFS
331
133
102
}
 70
     0
280
     1
281
     0
  0
BLOCK_RECORD
  5
137
330
1
100
AcDbSymbolTableRecord
100
AcDbBlockTableRecord
  2
block 34
340
0
102
{BLKREFS
331
138
102
}
 70
     0
280
     1
281
     0
  0
BLOCK_RECORD
  5
13F
330
1
100
AcDbSymbolTableRecord
100
AcDbBlockTableRecord
  2
block 35
340
0
102
{BLKREFS
331
140
102
}
 70
     0
280
     1
281
     0
  0
BLOCK_RECORD
  5
147
330
1
100
AcDbSymbolTableRecord
100
AcDbBlockTableRecord
  2
block 36
340
0
102
{BLKREFS
331
148
102
}
 70
     0
280
     1
281
     0
  0
BLOCK_RECORD
  5
14F
330
1
100
AcDbSymbolTableRecord
100
AcDbBlockTableRecord
  2
block 37
340
0
102
{BLKREFS
331
150
102
}
 70
     0
280
     1
281
     0
  0
BLOCK_RECORD
  5
157
330
1
100
AcDbSymbolTableRecord
100
AcDbBlockTableRecord
  2
block 38
340
0
102
{BLKREFS
331
158
102
}
 70
     0
280
     1
281
     0
  0
BLOCK_RECORD
  5
15F
330
1
100
AcDbSymbolTableRecord
100
AcDbBlockTableRecord
  2
block 39
340
0
102
{BLKREFS
331
160
102
}
 70
     0
280
     1
281
     0
  0
BLOCK_RECORD
  5
167
330
1
100
AcDbSymbolTableRecord
100
AcDbBlockTableRecord
  2
block 40
340
0
102
{BLKREFS
331
168
102
}
 70
     0
280
     1
281
     0
  0
BLOCK_RECORD
  5
16F
330
1
100
AcDbSymbolTableRecord
100
AcDbBlockTableRecord
  2
block 41
340
0
102
{BLKREFS
331
170
102
}
 70
     0
280
     1
281
     0
  0
BLOCK_RECORD
  5
177
330
1
100
AcDbSymbolTableRecord
100
AcDbBlockTableRecord
  2
block 42
340
0
102
{BLKREFS
331
178
102
}
 70
     0
280
     1
281
     0
  0
BLOCK_RECORD
  5
17F
330
1
100
AcDbSymbolTableRecord
100
AcDbBlockTableRecord
  2
block 43
340
0
102
{BLKREFS
331
180
102
}
 70
     0
280
     1
281
     0
  0
BLOCK_RECORD
  5
187
330
1
100
AcDbSymbolTableRecord
100
AcDbBlockTableRecord
  2
block 44
340
0
102
{BLKREFS
331
188
102
}
 70
     0
280
     1
281
     0
  0
BLOCK_RECORD
  5
18F
330
1
100
AcDbSymbolTableRecord
100
AcDbBlockTableRecord
  2
block 45
340
0
102
{BLKREFS
331
190
102
}
 70
     0
280
     1
281
     0
  0
BLOCK_RECORD
  5
197
330
1
100
AcDbSymbolTableRecord
100
AcDbBlockTableRecord
  2
block 46
340
0
102
{BLKREFS
331
198
102
}
 70
     0
280
     1
281
     0
  0
BLOCK_RECORD
  5
19F
330
1
100
AcDbSymbolTableRecord
100
AcDbBlockTableRecord
  2
block 47
340
0
102
{BLKREFS
331
1A0
102
}
 70
     0
280
     1
281
     0
  0
BLOCK_RECORD
  5
1A7
330
1
100
AcDbSymbolTableRecord
100
AcDbBlockTableRecord
  2
block 48
340
0
102
{BLKREFS
331
1A8
102
}
 70
     0
280
     1
281
     0
  0
BLOCK_RECORD
  5
1AF
330
1
100
AcDbSymbolTableRecord
100
AcDbBlockTableRecord
  2
block 49
340
0
102
{BLKREFS
331
1B0
102
}
 70
     0
280
     1
281
     0
  0
BLOCK_RECORD
  5
1B7
330
1
100
AcDbSymbolTableRecord
100
AcDbBlockTableRecord
  2
block 50
340
0
102
{BLKREFS
331
1B8
102
}
 70
     0
280
     1
281
     0
  0
BLOCK_RECORD
  5
1BF
330
1
100
AcDbSymbolTableRecord
100
AcDbBlockTableRecord
  2
block 51
340
0
102
{BLKREFS
331
1C0
102
}
 70
     0
280
     1
281
     0
  0
BLOCK_RECORD
  5
1C7
330
1
100
AcDbSymbolTableRecord
100
AcDbBlockTableRecord
  2
block 52
340
0
102
{BLKREFS
331
1C8
102
}
 70
     0
280
     1
281
     0
  0
BLOCK_RECORD
  5
1CF
330
1
100
AcDbSymbolTableRecord
100
AcDbBlockTableRecord
  2
block 53
340
0
102
{BLKREFS
331
1D0
102
}
 70
     0
280
     1
281
     0
  0
BLOCK_RECORD
  5
1D7
330
1
100
AcDbSymbolTableRecord
100
AcDbBlockTableRecord
  2
block 54
340
0
102
{BLKREFS
331
1D8
102
}
 70
     0
280
     1
281
     0
  0
BLOCK_RECORD
  5
1DF
330
1
100
AcDbSymbolTableRecord
100
AcDbBlockTableRecord
  2
block 55
340
0
102
{BLKREFS
331
1E0
102
}
 70
     0
280
     1
281
     0
  0
BLOCK_RECORD
  5
1E7
330
1
100
AcDbSymbolTableRecord
100
AcDbBlockTableRecord
  2
block 56
340
0
102
{BLKREFS
331
1E8
102
}
 70
     0
280
     1
281
     0
  0
BLOCK_RECORD
  5
1EF
330
1
100
AcDbSymbolTableRecord
100
AcDbBlockTableRecord
  2
block 57
340
0
102
{BLKREFS
331
1F0
102
}
 70
     0
280
     1
281
     0
  0
BLOCK_RECORD
  5
1F4
330
1
100
AcDbSymbolTableRecord
100
AcDbBlockTableRecord
  2
block 58
340
0
102
{BLKREFS
331
1F5
102
}
 70
     0
280
     1
281
     0
  0
BLOCK_RECORD
  5
1FC
330
1
100
AcDbSymbolTableRecord
100
AcDbBlockTableRecord
  2
block 59
340
0
102
{BLKREFS
331
1FD
102
}
 70
     0
280
     1
281
     0
  0
BLOCK_RECORD
  5
204
330
1
100
AcDbSymbolTableRecord
100
AcDbBlockTableRecord
  2
block 60
340
0
102
{BLKREFS
331
205
102
}
 70
     0
280
     1
281
     0
  0
BLOCK_RECORD
  5
20C
330
1
100
AcDbSymbolTableRecord
100
AcDbBlockTableRecord
  2
block 61
340
0
102
{BLKREFS
331
20D
102
}
 70
     0
280
     1
281
     0
  0
BLOCK_RECORD
  5
214
330
1
100
AcDbSymbolTableRecord
100
AcDbBlockTableRecord
  2
block 62
340
0
102
{BLKREFS
331
215
102
}
 70
     0
280
     1
281
     0
  0
BLOCK_RECORD
  5
21C
330
1
100
AcDbSymbolTableRecord
100
AcDbBlockTableRecord
  2
block 63
340
0
102
{BLKREFS
331
21D
102
}
 70
     0
280
     1
281
     0
  0
BLOCK_RECORD
  5
224
330
1
100
AcDbSymbolTableRecord
100
AcDbBlockTableRecord
  2
block 64
340
0
102
{BLKREFS
331
225
102
}
 70
     0
280
     1
281
     0
  0
BLOCK_RECORD
  5
22C
330
1
100
AcDbSymbolTableRecord
100
AcDbBlockTableRecord
  2
block 65
340
0
102
{BLKREFS
331
22D
102
}
 70
     0
280
     1
281
     0
  0
BLOCK_RECORD
  5
234
330
1
100
AcDbSymbolTableRecord
100
AcDbBlockTableRecord
  2
block 66
340
0
102
{BLKREFS
331
235
102
}
 70
     0
280
     1
281
     0
  0
BLOCK_RECORD
  5
23C
330
1
100
AcDbSymbolTableRecord
100
AcDbBlockTableRecord
  2
block 67
340
0
102
{BLKREFS
331
23D
102
}
 70
     0
280
     1
281
     0
  0
BLOCK_RECORD
  5
244
330
1
100
AcDbSymbolTableRecord
100
AcDbBlockTableRecord
  2
block 68
340
0
102
{BLKREFS
331
245
102
}
 70
     0
280
     1
281
     0
  0
BLOCK_RECORD
  5
24C
330
1
100
AcDbSymbolTableRecord
100
AcDbBlockTableRecord
  2
block 69
340
0
102
{BLKREFS
331
24D
102
}
 70
     0
280
     1
281
     0
  0
BLOCK_RECORD
  5
254
330
1
100
AcDbSymbolTableRecord
100
AcDbBlockTableRecord
  2
block 70
340
0
102
{BLKREFS
331
255
102
}
 70
     0
280
     1
281
     0
  0
BLOCK_RECORD
  5
25C
330
1
100
AcDbSymbolTableRecord
100
AcDbBlockTableRecord
  2
block 71
340
0
102
{BLKREFS
331
25D
102
}
 70
     0
280
     1
281
     0
  0
BLOCK_RECORD
  5
264
330
1
100
AcDbSymbolTableRecord
100
AcDbBlockTableRecord
  2
block 72
340
0
102
{BLKREFS
331
265
102
}
 70
     0
280
     1
281
     0
  0
BLOCK_RECORD
  5
26C
330
1
100
AcDbSymbolTableRecord
100
AcDbBlockTableRecord
  2
block 73
340
0
102
{BLKREFS
331
26D
102
}
 70
     0
280
     1
281
     0
  0
BLOCK_RECORD
  5
274
330
1
100
AcDbSymbolTableRecord
100
AcDbBlockTableRecord
  2
block 74
340
0
102
{BLKREFS
331
275
102
}
 70
     0
280
     1
281
     0
  0
BLOCK_RECORD
  5
27C
330
1
100
AcDbSymbolTableRecord
100
AcDbBlockTableRecord
  2
block 75
340
0
102
{BLKREFS
331
27D
102
}
 70
     0
280
     1
281
     0
  0
BLOCK_RECORD
  5
284
330
1
100
AcDbSymbolTableRecord
100
AcDbBlockTableRecord
  2
block 76
340
0
102
{BLKREFS
331
285
102
}
 70
     0
280
     1
281
     0
  0
BLOCK_RECORD
  5
28C
330
1
100
AcDbSymbolTableRecord
100
AcDbBlockTableRecord
  2
block 77
340
0
102
{BLKREFS
331
28D
102
}
 70
     0
280
     1
281
     0
  0
BLOCK_RECORD
  5
294
330
1
100
AcDbSymbolTableRecord
100
AcDbBlockTableRecord
  2
block 78
340
0
102
{BLKREFS
331
295
102
}
 70
     0
280
     1
281
     0
  0
BLOCK_RECORD
  5
29C
330
1
100
AcDbSymbolTableRecord
100
AcDbBlockTableRecord
  2
block 79
340
0
102
{BLKREFS
331
29D
102
}
 70
     0
280
     1
281
     0
  0
BLOCK_RECORD
  5
2A4
330
1
100
AcDbSymbolTableRecord
100
AcDbBlockTableRecord
  2
block 80
340
0
102
{BLKREFS
331
2A5
102
}
 70
     0
280
     1
281
     0
  0
BLOCK_RECORD
  5
2AC
330
1
100
AcDbSymbolTableRecord
100
AcDbBlockTableRecord
  2
block 81
340
0
102
{BLKREFS
331
2AD
102
}
 70
     0
280
     1
281
     0
  0
BLOCK_RECORD
  5
2B1
330
1
100
AcDbSymbolTableRecord
100
AcDbBlockTableRecord
  2
block 82
340
0
102
{BLKREFS
331
2B2
102
}
 70
     0
280
     1
281
     0
  0
BLOCK_RECORD
  5
2B6
330
1
100
AcDbSymbolTableRecord
100
AcDbBlockTableRecord
  2
block 83
340
0
102
{BLKREFS
331
2B7
102
}
 70
     0
280
     1
281
     0
  0
BLOCK_RECORD
  5
2BE
330
1
100
AcDbSymbolTableRecord
100
AcDbBlockTableRecord
  2
block 84
340
0
102
{BLKREFS
331
2BF
102
}
 70
     0
280
     1
281
     0
  0
BLOCK_RECORD
  5
2C6
330
1
100
AcDbSymbolTableRecord
100
AcDbBlockTableRecord
  2
block 85
340
0
102
{BLKREFS
331
2C7
102
}
 70
     0
280
     1
281
     0
  0
BLOCK_RECORD
  5
2CE
330
1
100
AcDbSymbolTableRecord
100
AcDbBlockTableRecord
  2
block 86
340
0
102
{BLKREFS
331
2CF
102
}
 70
     0
280
     1
281
     0
  0
BLOCK_RECORD
  5
2D6
330
1
100
AcDbSymbolTableRecord
100
AcDbBlockTableRecord
  2
block 87
340
0
102
{BLKREFS
331
2D7
102
}
 70
     0
280
     1
281
     0
  0
BLOCK_RECORD
  5
2DE
330
1
100
AcDbSymbolTableRecord
100
AcDbBlockTableRecord
  2
block 88
340
0
102
{BLKREFS
331
2DF
102
}
 70
     0
280
     1
281
     0
  0
BLOCK_RECORD
  5
2E6
330
1
100
AcDbSymbolTableRecord
100
AcDbBlockTableRecord
  2
block 89
340
0
102
{BLKREFS
331
2E7
102
}
 70
     0
280
     1
281
     0
  0
BLOCK_RECORD
  5
2EE
330
1
100
AcDbSymbolTableRecord
100
AcDbBlockTableRecord
  2
block 90
340
0
102
{BLKREFS
331
2EF
102
}
 70
     0
280
     1
281
     0
  0
BLOCK_RECORD
  5
2F6
330
1
100
AcDbSymbolTableRecord
100
AcDbBlockTableRecord
  2
block 91
340
0
102
{BLKREFS
331
2F7
102
}
 70
     0
280
     1
281
     0
  0
BLOCK_RECORD
  5
2FE
330
1
100
AcDbSymbolTableRecord
100
AcDbBlockTableRecord
  2
block 92
340
0
102
{BLKREFS
331
2FF
102
}
 70
     0
280
     1
281
     0
  0
BLOCK_RECORD
  5
306
330
1
100
AcDbSymbolTableRecord
100
AcDbBlockTableRecord
  2
block 93
340
0
102
{BLKREFS
331
307
102
}
 70
     0
280
     1
281
     0
  0
BLOCK_RECORD
  5
30E
330
1
100
AcDbSymbolTableRecord
100
AcDbBlockTableRecord
  2
block 94
340
0
102
{BLKREFS
331
30F
102
}
 70
     0
280
     1
281
     0
  0
BLOCK_RECORD
  5
316
330
1
100
AcDbSymbolTableRecord
100
AcDbBlockTableRecord
  2
block 95
340
0
102
{BLKREFS
331
317
102
}
 70
     0
280
     1
281
     0
  0
BLOCK_RECORD
  5
31E
330
1
100
AcDbSymbolTableRecord
100
AcDbBlockTableRecord
  2
block 96
340
0
102
{BLKREFS
331
31F
102
}
 70
     0
280
     1
281
     0
  0
BLOCK_RECORD
  5
326
330
1
100
AcDbSymbolTableRecord
100
AcDbBlockTableRecord
  2
block 97
340
0
102
{BLKREFS
331
327
102
}
 70
     0
280
     1
281
     0
  0
BLOCK_RECORD
  5
32E
330
1
100
AcDbSymbolTableRecord
100
AcDbBlockTableRecord
  2
block 98
340
0
102
{BLKREFS
331
32F
102
}
 70
     0
280
     1
281
     0
  0
BLOCK_RECORD
  5
336
330
1
100
AcDbSymbolTableRecord
100
AcDbBlockTableRecord
  2
block 99
340
0
102
{BLKREFS
331
337
102
}
 70
     0
280
     1
281
     0
  0
BLOCK_RECORD
  5
33E
330
1
100
AcDbSymbolTableRecord
100
AcDbBlockTableRecord
  2
block 100
340
0
102
{BLKREFS
331
33F
102
}
 70
     0
280
     1
281
     0
  0
BLOCK_RECORD
  5
346
330
1
100
AcDbSymbolTableRecord
100
AcDbBlockTableRecord
  2
block 101
340
0
102
{BLKREFS
331
347
102
}
 70
     0
280
     1
281
     0
  0
BLOCK_RECORD
  5
34E
330
1
100
AcDbSymbolTableRecord
100
AcDbBlockTableRecord
  2
block 102
340
0
102
{BLKREFS
331
34F
102
}
 70
     0
280
     1
281
     0
  0
BLOCK_RECORD
  5
356
330
1
100
AcDbSymbolTableRecord
100
AcDbBlockTableRecord
  2
block 103
340
0
102
{BLKREFS
331
357
102
}
 70
     0
280
     1
281
     0
  0
BLOCK_RECORD
  5
35E
330
1
100
AcDbSymbolTableRecord
100
AcDbBlockTableRecord
  2
block 104
340
0
102
{BLKREFS
331
35F
102
}
 70
     0
280
     1
281
     0
  0
BLOCK_RECORD
  5
366
330
1
100
AcDbSymbolTableRecord
100
AcDbBlockTableRecord
  2
block 105
340
0
102
{BLKREFS
331
367
102
}
 70
     0
280
     1
281
     0
  0
BLOCK_RECORD
  5
36E
330
1
100
AcDbSymbolTableRecord
100
AcDbBlockTableRecord
  2
block 106
340
0
102
{BLKREFS
331
36F
102
}
 70
     0
280
     1
281
     0
  0
BLOCK_RECORD
  5
376
330
1
100
AcDbSymbolTableRecord
100
AcDbBlockTableRecord
  2
block 107
340
0
102
{BLKREFS
331
377
102
}
 70
     0
280
     1
281
     0
  0
BLOCK_RECORD
  5
37E
330
1
100
AcDbSymbolTableRecord
100
AcDbBlockTableRecord
  2
block 108
340
0
102
{BLKREFS
331
37F
102
}
 70
     0
280
     1
281
     0
  0
BLOCK_RECORD
  5
383
330
1
100
AcDbSymbolTableRecord
100
AcDbBlockTableRecord
  2
block 109
340
0
102
{BLKREFS
331
384
102
}
 70
     0
280
     1
281
     0
  0
BLOCK_RECORD
  5
38B
330
1
100
AcDbSymbolTableRecord
100
AcDbBlockTableRecord
  2
block 110
340
0
102
{BLKREFS
331
38C
102
}
 70
     0
280
     1
281
     0
  0
BLOCK_RECORD
  5
395
330
1
100
AcDbSymbolTableRecord
100
AcDbBlockTableRecord
  2
block 111
340
0
102
{BLKREFS
331
396
102
}
 70
     0
280
     1
281
     0
  0
BLOCK_RECORD
  5
39D
330
1
100
AcDbSymbolTableRecord
100
AcDbBlockTableRecord
  2
block 112
340
0
102
{BLKREFS
331
39E
102
}
 70
     0
280
     1
281
     0
  0
BLOCK_RECORD
  5
3A5
330
1
100
AcDbSymbolTableRecord
100
AcDbBlockTableRecord
  2
block 113
340
0
102
{BLKREFS
331
3A6
102
}
 70
     0
280
     1
281
     0
  0
BLOCK_RECORD
  5
3AD
330
1
100
AcDbSymbolTableRecord
100
AcDbBlockTableRecord
  2
block 114
340
0
102
{BLKREFS
331
3AE
102
}
 70
     0
280
     1
281
     0
  0
BLOCK_RECORD
  5
3B5
330
1
100
AcDbSymbolTableRecord
100
AcDbBlockTableRecord
  2
block 115
340
0
102
{BLKREFS
331
3B6
102
}
 70
     0
280
     1
281
     0
  0
BLOCK_RECORD
  5
3BD
330
1
100
AcDbSymbolTableRecord
100
AcDbBlockTableRecord
  2
block 116
340
0
102
{BLKREFS
331
3BE
102
}
 70
     0
280
     1
281
     0
  0
BLOCK_RECORD
  5
3C5
330
1
100
AcDbSymbolTableRecord
100
AcDbBlockTableRecord
  2
block 117
340
0
102
{BLKREFS
331
3C6
102
}
 70
     0
280
     1
281
     0
  0
BLOCK_RECORD
  5
3CD
330
1
100
AcDbSymbolTableRecord
100
AcDbBlockTableRecord
  2
block 118
340
0
102
{BLKREFS
331
3CE
102
}
 70
     0
280
     1
281
     0
  0
BLOCK_RECORD
  5
3D5
330
1
100
AcDbSymbolTableRecord
100
AcDbBlockTableRecord
  2
block 119
340
0
102
{BLKREFS
331
3D6
102
}
 70
     0
280
     1
281
     0
  0
BLOCK_RECORD
  5
3DF
330
1
100
AcDbSymbolTableRecord
100
AcDbBlockTableRecord
  2
block 120
340
0
102
{BLKREFS
331
3E0
102
}
 70
     0
280
     1
281
     0
  0
BLOCK_RECORD
  5
3E7
330
1
100
AcDbSymbolTableRecord
100
AcDbBlockTableRecord
  2
block 121
340
0
102
{BLKREFS
331
3E8
102
}
 70
     0
280
     1
281
     0
  0
BLOCK_RECORD
  5
3EF
330
1
100
AcDbSymbolTableRecord
100
AcDbBlockTableRecord
  2
block 122
340
0
102
{BLKREFS
331
3F0
102
}
 70
     0
280
     1
281
     0
  0
BLOCK_RECORD
  5
3F7
330
1
100
AcDbSymbolTableRecord
100
AcDbBlockTableRecord
  2
block 123
340
0
102
{BLKREFS
331
3F8
102
}
 70
     0
280
     1
281
     0
  0
BLOCK_RECORD
  5
3FF
330
1
100
AcDbSymbolTableRecord
100
AcDbBlockTableRecord
  2
block 124
340
0
102
{BLKREFS
331
400
102
}
 70
     0
280
     1
281
     0
  0
BLOCK_RECORD
  5
407
330
1
100
AcDbSymbolTableRecord
100
AcDbBlockTableRecord
  2
block 125
340
0
102
{BLKREFS
331
408
102
}
 70
     0
280
     1
281
     0
  0
BLOCK_RECORD
  5
40F
330
1
100
AcDbSymbolTableRecord
100
AcDbBlockTableRecord
  2
block 126
340
0
102
{BLKREFS
331
410
102
}
 70
     0
280
     1
281
     0
  0
BLOCK_RECORD
  5
417
330
1
100
AcDbSymbolTableRecord
100
AcDbBlockTableRecord
  2
block 127
340
0
102
{BLKREFS
331
418
102
}
 70
     0
280
     1
281
     0
  0
BLOCK_RECORD
  5
41F
330
1
100
AcDbSymbolTableRecord
100
AcDbBlockTableRecord
  2
block 128
340
0
102
{BLKREFS
331
420
102
}
 70
     0
280
     1
281
     0
  0
BLOCK_RECORD
  5
424
330
1
100
AcDbSymbolTableRecord
100
AcDbBlockTableRecord
  2
block 129
340
0
102
{BLKREFS
331
425
102
}
 70
     0
280
     1
281
     0
  0
BLOCK_RECORD
  5
42C
330
1
100
AcDbSymbolTableRecord
100
AcDbBlockTableRecord
  2
block 130
340
0
102
{BLKREFS
331
42D
102
}
 70
     0
280
     1
281
     0
  0
BLOCK_RECORD
  5
436
330
1
100
AcDbSymbolTableRecord
100
AcDbBlockTableRecord
  2
block 131
340
0
102
{BLKREFS
331
437
102
}
 70
     0
280
     1
281
     0
  0
BLOCK_RECORD
  5
43E
330
1
100
AcDbSymbolTableRecord
100
AcDbBlockTableRecord
  2
block 132
340
0
102
{BLKREFS
331
43F
102
}
 70
     0
280
     1
281
     0
  0
BLOCK_RECORD
  5
446
330
1
100
AcDbSymbolTableRecord
100
AcDbBlockTableRecord
  2
block 133
340
0
102
{BLKREFS
331
447
102
}
 70
     0
280
     1
281
     0
  0
BLOCK_RECORD
  5
44E
330
1
100
AcDbSymbolTableRecord
100
AcDbBlockTableRecord
  2
block 134
340
0
102
{BLKREFS
331
44F
102
}
 70
     0
280
     1
281
     0
  0
BLOCK_RECORD
  5
456
330
1
100
AcDbSymbolTableRecord
100
AcDbBlockTableRecord
  2
block 135
340
0
102
{BLKREFS
331
457
102
}
 70
     0
280
     1
281
     0
  0
BLOCK_RECORD
  5
45E
330
1
100
AcDbSymbolTableRecord
100
AcDbBlockTableRecord
  2
block 136
340
0
102
{BLKREFS
331
45F
102
}
 70
     0
280
     1
281
     0
  0
BLOCK_RECORD
  5
466
330
1
100
AcDbSymbolTableRecord
100
AcDbBlockTableRecord
  2
block 137
340
0
102
{BLKREFS
331
467
102
}
 70
     0
280
     1
281
     0
  0
BLOCK_RECORD
  5
46E
330
1
100
AcDbSymbolTableRecord
100
AcDbBlockTableRecord
  2
block 138
340
0
102
{BLKREFS
331
46F
102
}
 70
     0
280
     1
281
     0
  0
BLOCK_RECORD
  5
476
330
1
100
AcDbSymbolTableRecord
100
AcDbBlockTableRecord
  2
block 139
340
0
102
{BLKREFS
331
477
102
}
 70
     0
280
     1
281
     0
  0
BLOCK_RECORD
  5
480
330
1
100
AcDbSymbolTableRecord
100
AcDbBlockTableRecord
  2
block 140
340
0
102
{BLKREFS
331
481
102
}
 70
     0
280
     1
281
     0
  0
BLOCK_RECORD
  5
488
330
1
100
AcDbSymbolTableRecord
100
AcDbBlockTableRecord
  2
block 141
340
0
102
{BLKREFS
331
489
102
}
 70
     0
280
     1
281
     0
  0
BLOCK_RECORD
  5
490
330
1
100
AcDbSymbolTableRecord
100
AcDbBlockTableRecord
  2
block 142
340
0
102
{BLKREFS
331
491
102
}
 70
     0
280
     1
281
     0
  0
BLOCK_RECORD
  5
498
330
1
100
AcDbSymbolTableRecord
100
AcDbBlockTableRecord
  2
block 143
340
0
102
{BLKREFS
331
499
102
}
 70
     0
280
     1
281
     0
  0
BLOCK_RECORD
  5
4A0
330
1
100
AcDbSymbolTableRecord
100
AcDbBlockTableRecord
  2
block 144
340
0
102
{BLKREFS
331
4A1
102
}
 70
     0
280
     1
281
     0
  0
BLOCK_RECORD
  5
4A8
330
1
100
AcDbSymbolTableRecord
100
AcDbBlockTableRecord
  2
block 145
340
0
102
{BLKREFS
331
4A9
102
}
 70
     0
280
     1
281
     0
  0
BLOCK_RECORD
  5
4B0
330
1
100
AcDbSymbolTableRecord
100
AcDbBlockTableRecord
  2
block 146
340
0
102
{BLKREFS
331
4B1
102
}
 70
     0
280
     1
281
     0
  0
BLOCK_RECORD
  5
4B8
330
1
100
AcDbSymbolTableRecord
100
AcDbBlockTableRecord
  2
block 147
340
0
102
{BLKREFS
331
4B9
102
}
 70
     0
280
     1
281
     0
  0
BLOCK_RECORD
  5
4C0
330
1
100
AcDbSymbolTableRecord
100
AcDbBlockTableRecord
  2
block 148
340
0
102
{BLKREFS
331
4C1
102
}
 70
     0
280
     1
281
     0
  0
BLOCK_RECORD
  5
4C5
330
1
100
AcDbSymbolTableRecord
100
AcDbBlockTableRecord
  2
block 149
340
0
102
{BLKREFS
331
4C6
102
}
 70
     0
280
     1
281
     0
  0
BLOCK_RECORD
  5
4CD
330
1
100
AcDbSymbolTableRecord
100
AcDbBlockTableRecord
  2
block 150
340
0
102
{BLKREFS
331
4CE
102
}
 70
     0
280
     1
281
     0
  0
BLOCK_RECORD
  5
4D7
330
1
100
AcDbSymbolTableRecord
100
AcDbBlockTableRecord
  2
block 151
340
0
102
{BLKREFS
331
4D8
102
}
 70
     0
280
     1
281
     0
  0
BLOCK_RECORD
  5
4DF
330
1
100
AcDbSymbolTableRecord
100
AcDbBlockTableRecord
  2
block 152
340
0
102
{BLKREFS
331
4E0
102
}
 70
     0
280
     1
281
     0
  0
BLOCK_RECORD
  5
4E7
330
1
100
AcDbSymbolTableRecord
100
AcDbBlockTableRecord
  2
block 153
340
0
102
{BLKREFS
331
4E8
102
}
 70
     0
280
     1
281
     0
  0
BLOCK_RECORD
  5
4EF
330
1
100
AcDbSymbolTableRecord
100
AcDbBlockTableRecord
  2
block 154
340
0
102
{BLKREFS
331
4F0
102
}
 70
     0
280
     1
281
     0
  0
BLOCK_RECORD
  5
4F7
330
1
100
AcDbSymbolTableRecord
100
AcDbBlockTableRecord
  2
block 155
340
0
102
{BLKREFS
331
4F8
102
}
 70
     0
280
     1
281
     0
  0
BLOCK_RECORD
  5
4FF
330
1
100
AcDbSymbolTableRecord
100
AcDbBlockTableRecord
  2
block 156
340
0
102
{BLKREFS
331
500
102
}
 70
     0
280
     1
281
     0
  0
BLOCK_RECORD
  5
507
330
1
100
AcDbSymbolTableRecord
100
AcDbBlockTableRecord
  2
block 157
340
0
102
{BLKREFS
331
508
102
}
 70
     0
280
     1
281
     0
  0
BLOCK_RECORD
  5
50F
330
1
100
AcDbSymbolTableRecord
100
AcDbBlockTableRecord
  2
block 158
340
0
102
{BLKREFS
331
510
102
}
 70
     0
280
     1
281
     0
  0
BLOCK_RECORD
  5
517
330
1
100
AcDbSymbolTableRecord
100
AcDbBlockTableRecord
  2
block 159
340
0
102
{BLKREFS
331
518
102
}
 70
     0
280
     1
281
     0
  0
BLOCK_RECORD
  5
521
330
1
100
AcDbSymbolTableRecord
100
AcDbBlockTableRecord
  2
block 160
340
0
102
{BLKREFS
331
522
102
}
 70
     0
280
     1
281
     0
  0
BLOCK_RECORD
  5
529
330
1
100
AcDbSymbolTableRecord
100
AcDbBlockTableRecord
  2
block 161
340
0
102
{BLKREFS
331
52A
102
}
 70
     0
280
     1
281
     0
  0
BLOCK_RECORD
  5
531
330
1
100
AcDbSymbolTableRecord
100
AcDbBlockTableRecord
  2
block 162
340
0
102
{BLKREFS
331
532
102
}
 70
     0
280
     1
281
     0
  0
BLOCK_RECORD
  5
539
330
1
100
AcDbSymbolTableRecord
100
AcDbBlockTableRecord
  2
block 163
340
0
102
{BLKREFS
331
53A
102
}
 70
     0
280
     1
281
     0
  0
BLOCK_RECORD
  5
541
330
1
100
AcDbSymbolTableRecord
100
AcDbBlockTableRecord
  2
block 164
340
0
102
{BLKREFS
331
542
102
}
 70
     0
280
     1
281
     0
  0
BLOCK_RECORD
  5
549
330
1
100
AcDbSymbolTableRecord
100
AcDbBlockTableRecord
  2
block 165
340
0
102
{BLKREFS
331
54A
102
}
 70
     0
280
     1
281
     0
  0
BLOCK_RECORD
  5
551
330
1
100
AcDbSymbolTableRecord
100
AcDbBlockTableRecord
  2
block 166
340
0
102
{BLKREFS
331
552
102
}
 70
     0
280
     1
281
     0
  0
BLOCK_RECORD
  5
559
330
1
100
AcDbSymbolTableRecord
100
AcDbBlockTableRecord
  2
block 167
340
0
102
{BLKREFS
331
55A
102
}
 70
     0
280
     1
281
     0
  0
BLOCK_RECORD
  5
561
330
1
100
AcDbSymbolTableRecord
100
AcDbBlockTableRecord
  2
block 168
340
0
102
{BLKREFS
331
562
102
}
 70
     0
280
     1
281
     0
  0
BLOCK_RECORD
  5
566
330
1
100
AcDbSymbolTableRecord
100
AcDbBlockTableRecord
  2
block 169
340
0
102
{BLKREFS
331
567
102
}
 70
     0
280
     1
281
     0
  0
BLOCK_RECORD
  5
56E
330
1
100
AcDbSymbolTableRecord
100
AcDbBlockTableRecord
  2
block 170
340
0
102
{BLKREFS
331
56F
102
}
 70
     0
280
     1
281
     0
  0
BLOCK_RECORD
  5
578
330
1
100
AcDbSymbolTableRecord
100
AcDbBlockTableRecord
  2
block 171
340
0
102
{BLKREFS
331
579
102
}
 70
     0
280
     1
281
     0
  0
BLOCK_RECORD
  5
580
330
1
100
AcDbSymbolTableRecord
100
AcDbBlockTableRecord
  2
block 172
340
0
102
{BLKREFS
331
581
102
}
 70
     0
280
     1
281
     0
  0
BLOCK_RECORD
  5
588
330
1
100
AcDbSymbolTableRecord
100
AcDbBlockTableRecord
  2
block 173
340
0
102
{BLKREFS
331
589
102
}
 70
     0
280
     1
281
     0
  0
BLOCK_RECORD
  5
590
330
1
100
AcDbSymbolTableRecord
100
AcDbBlockTableRecord
  2
block 174
340
0
102
{BLKREFS
331
591
102
}
 70
     0
280
     1
281
     0
  0
BLOCK_RECORD
  5
598
330
1
100
AcDbSymbolTableRecord
100
AcDbBlockTableRecord
  2
block 175
340
0
102
{BLKREFS
331
599
102
}
 70
     0
280
     1
281
     0
  0
BLOCK_RECORD
  5
5A0
330
1
100
AcDbSymbolTableRecord
100
AcDbBlockTableRecord
  2
block 176
340
0
102
{BLKREFS
331
5A1
102
}
 70
     0
280
     1
281
     0
  0
BLOCK_RECORD
  5
5A8
330
1
100
AcDbSymbolTableRecord
100
AcDbBlockTableRecord
  2
block 177
340
0
102
{BLKREFS
331
5A9
102
}
 70
     0
280
     1
281
     0
  0
BLOCK_RECORD
  5
5B0
330
1
100
AcDbSymbolTableRecord
100
AcDbBlockTableRecord
  2
block 178
340
0
102
{BLKREFS
331
5B1
102
}
 70
     0
280
     1
281
     0
  0
BLOCK_RECORD
  5
5B8
330
1
100
AcDbSymbolTableRecord
100
AcDbBlockTableRecord
  2
block 179
340
0
102
{BLKREFS
331
5B9
102
}
 70
     0
280
     1
281
     0
  0
BLOCK_RECORD
  5
5C2
330
1
100
AcDbSymbolTableRecord
100
AcDbBlockTableRecord
  2
block 180
340
0
102
{BLKREFS
331
5C3
102
}
 70
     0
280
     1
281
     0
  0
BLOCK_RECORD
  5
5CA
330
1
100
AcDbSymbolTableRecord
100
AcDbBlockTableRecord
  2
block 181
340
0
102
{BLKREFS
331
5CB
102
}
 70
     0
280
     1
281
     0
  0
BLOCK_RECORD
  5
5D2
330
1
100
AcDbSymbolTableRecord
100
AcDbBlockTableRecord
  2
block 182
340
0
102
{BLKREFS
331
5D3
102
}
 70
     0
280
     1
281
     0
  0
BLOCK_RECORD
  5
5DA
330
1
100
AcDbSymbolTableRecord
100
AcDbBlockTableRecord
  2
block 183
340
0
102
{BLKREFS
331
5DB
102
}
 70
     0
280
     1
281
     0
  0
BLOCK_RECORD
  5
5E2
330
1
100
AcDbSymbolTableRecord
100
AcDbBlockTableRecord
  2
block 184
340
0
102
{BLKREFS
331
5E3
102
}
 70
     0
280
     1
281
     0
  0
BLOCK_RECORD
  5
5EA
330
1
100
AcDbSymbolTableRecord
100
AcDbBlockTableRecord
  2
block 185
340
0
102
{BLKREFS
331
5EB
102
}
 70
     0
280
     1
281
     0
  0
BLOCK_RECORD
  5
5F2
330
1
100
AcDbSymbolTableRecord
100
AcDbBlockTableRecord
  2
block 186
340
0
102
{BLKREFS
331
5F3
102
}
 70
     0
280
     1
281
     0
  0
BLOCK_RECORD
  5
5FA
330
1
100
AcDbSymbolTableRecord
100
AcDbBlockTableRecord
  2
block 187
340
0
102
{BLKREFS
331
5FB
102
}
 70
     0
280
     1
281
     0
  0
BLOCK_RECORD
  5
602
330
1
100
AcDbSymbolTableRecord
100
AcDbBlockTableRecord
  2
block 188
340
0
102
{BLKREFS
331
603
102
}
 70
     0
280
     1
281
     0
  0
BLOCK_RECORD
  5
607
330
1
100
AcDbSymbolTableRecord
100
AcDbBlockTableRecord
  2
block 189
340
0
102
{BLKREFS
331
608
102
}
 70
     0
280
     1
281
     0
  0
BLOCK_RECORD
  5
60F
330
1
100
AcDbSymbolTableRecord
100
AcDbBlockTableRecord
  2
block 190
340
0
102
{BLKREFS
331
610
102
}
 70
     0
280
     1
281
     0
  0
BLOCK_RECORD
  5
619
330
1
100
AcDbSymbolTableRecord
100
AcDbBlockTableRecord
  2
block 191
340
0
102
{BLKREFS
331
61A
102
}
 70
     0
280
     1
281
     0
  0
BLOCK_RECORD
  5
621
330
1
100
AcDbSymbolTableRecord
100
AcDbBlockTableRecord
  2
block 192
340
0
102
{BLKREFS
331
622
102
}
 70
     0
280
     1
281
     0
  0
BLOCK_RECORD
  5
629
330
1
100
AcDbSymbolTableRecord
100
AcDbBlockTableRecord
  2
block 193
340
0
102
{BLKREFS
331
62A
102
}
 70
     0
280
     1
281
     0
  0
BLOCK_RECORD
  5
631
330
1
100
AcDbSymbolTableRecord
100
AcDbBlockTableRecord
  2
block 194
340
0
102
{BLKREFS
331
632
102
}
 70
     0
280
     1
281
     0
  0
BLOCK_RECORD
  5
639
330
1
100
AcDbSymbolTableRecord
100
AcDbBlockTableRecord
  2
block 195
340
0
102
{BLKREFS
331
63A
102
}
 70
     0
280
     1
281
     0
  0
BLOCK_RECORD
  5
641
330
1
100
AcDbSymbolTableRecord
100
AcDbBlockTableRecord
  2
block 196
340
0
102
{BLKREFS
331
642
102
}
 70
     0
280
     1
281
     0
  0
BLOCK_RECORD
  5
649
330
1
100
AcDbSymbolTableRecord
100
AcDbBlockTableRecord
  2
block 197
340
0
102
{BLKREFS
331
64A
102
}
 70
     0
280
     1
281
     0
  0
BLOCK_RECORD
  5
651
330
1
100
AcDbSymbolTableRecord
100
AcDbBlockTableRecord
  2
block 198
340
0
102
{BLKREFS
331
652
102
}
 70
     0
280
     1
281
     0
  0
BLOCK_RECORD
  5
659
330
1
100
AcDbSymbolTableRecord
100
AcDbBlockTableRecord
  2
block 199
340
0
102
{BLKREFS
331
65A
102
}
 70
     0
280
     1
281
     0
  0
BLOCK_RECORD
  5
663
330
1
100
AcDbSymbolTableRecord
100
AcDbBlockTableRecord
  2
block 200
340
0
102
{BLKREFS
331
664
102
}
 70
     0
280
     1
281
     0
  0
BLOCK_RECORD
  5
66B
330
1
100
AcDbSymbolTableRecord
100
AcDbBlockTableRecord
  2
block 201
340
0
102
{BLKREFS
331
66C
102
}
 70
     0
280
     1
281
     0
  0
BLOCK_RECORD
  5
673
330
1
100
AcDbSymbolTableRecord
100
AcDbBlockTableRecord
  2
block 202
340
0
102
{BLKREFS
331
674
102
}
 70
     0
280
     1
281
     0
  0
BLOCK_RECORD
  5
67B
330
1
100
AcDbSymbolTableRecord
100
AcDbBlockTableRecord
  2
block 203
340
0
102
{BLKREFS
331
67C
102
}
 70
     0
280
     1
281
     0
  0
BLOCK_RECORD
  5
683
330
1
100
AcDbSymbolTableRecord
100
AcDbBlockTableRecord
  2
block 204
340
0
102
{BLKREFS
331
684
102
}
 70
     0
280
     1
281
     0
  0
BLOCK_RECORD
  5
68B
330
1
100
AcDbSymbolTableRecord
100
AcDbBlockTableRecord
  2
block 205
340
0
102
{BLKREFS
331
68C
102
}
 70
     0
280
     1
281
     0
  0
BLOCK_RECORD
  5
693
330
1
100
AcDbSymbolTableRecord
100
AcDbBlockTableRecord
  2
block 206
340
0
102
{BLKREFS
331
694
102
}
 70
     0
280
     1
281
     0
  0
BLOCK_RECORD
  5
69B
330
1
100
AcDbSymbolTableRecord
100
AcDbBlockTableRecord
  2
block 207
340
0
102
{BLKREFS
331
69C
102
}
 70
     0
280
     1
281
     0
  0
BLOCK_RECORD
  5
6A3
330
1
100
AcDbSymbolTableRecord
100
AcDbBlockTableRecord
  2
block 208
340
0
102
{BLKREFS
331
6A4
102
}
 70
     0
280
     1
281
     0
  0
BLOCK_RECORD
  5
6A8
330
1
100
AcDbSymbolTableRecord
100
AcDbBlockTableRecord
  2
block 209
340
0
102
{BLKREFS
331
6A9
102
}
 70
     0
280
     1
281
     0
  0
BLOCK_RECORD
  5
6B0
330
1
100
AcDbSymbolTableRecord
100
AcDbBlockTableRecord
  2
block 210
340
0
102
{BLKREFS
331
6B1
102
}
 70
     0
280
     1
281
     0
  0
BLOCK_RECORD
  5
6BA
330
1
100
AcDbSymbolTableRecord
100
AcDbBlockTableRecord
  2
block 211
340
0
102
{BLKREFS
331
6BB
102
}
 70
     0
280
     1
281
     0
  0
BLOCK_RECORD
  5
6C2
330
1
100
AcDbSymbolTableRecord
100
AcDbBlockTableRecord
  2
block 212
340
0
102
{BLKREFS
331
6C3
102
}
 70
     0
280
     1
281
     0
  0
BLOCK_RECORD
  5
6CA
330
1
100
AcDbSymbolTableRecord
100
AcDbBlockTableRecord
  2
block 213
340
0
102
{BLKREFS
331
6CB
102
}
 70
     0
280
     1
281
     0
  0
BLOCK_RECORD
  5
6D2
330
1
100
AcDbSymbolTableRecord
100
AcDbBlockTableRecord
  2
block 214
340
0
102
{BLKREFS
331
6D3
102
}
 70
     0
280
     1
281
     0
  0
BLOCK_RECORD
  5
6DA
330
1
100
AcDbSymbolTableRecord
100
AcDbBlockTableRecord
  2
block 215
340
0
102
{BLKREFS
331
6DB
102
}
 70
     0
280
     1
281
     0
  0
BLOCK_RECORD
  5
6E2
330
1
100
AcDbSymbolTableRecord
100
AcDbBlockTableRecord
  2
block 216
340
0
102
{BLKREFS
331
6E3
102
}
 70
     0
280
     1
281
     0
  0
BLOCK_RECORD
  5
6EA
330
1
100
AcDbSymbolTableRecord
100
AcDbBlockTableRecord
  2
block 217
340
0
102
{BLKREFS
331
6EB
102
}
 70
     0
280
     1
281
     0
  0
BLOCK_RECORD
  5
6F2
330
1
100
AcDbSymbolTableRecord
100
AcDbBlockTableRecord
  2
block 218
340
0
102
{BLKREFS
331
6F3
102
}
 70
     0
280
     1
281
     0
  0
BLOCK_RECORD
  5
6FA
330
1
100
AcDbSymbolTableRecord
100
AcDbBlockTableRecord
  2
block 219
340
0
102
{BLKREFS
331
6FB
102
}
 70
     0
280
     1
281
     0
  0
BLOCK_RECORD
  5
702
330
1
100
AcDbSymbolTableRecord
100
AcDbBlockTableRecord
  2
block 220
340
0
102
{BLKREFS
331
703
102
}
 70
     0
280
     1
281
     0
  0
BLOCK_RECORD
  5
70C
330
1
100
AcDbSymbolTableRecord
100
AcDbBlockTableRecord
  2
block 221
340
0
102
{BLKREFS
331
70D
102
}
 70
     0
280
     1
281
     0
  0
BLOCK_RECORD
  5
714
330
1
100
AcDbSymbolTableRecord
100
AcDbBlockTableRecord
  2
block 222
340
0
102
{BLKREFS
331
715
102
}
 70
     0
280
     1
281
     0
  0
BLOCK_RECORD
  5
71C
330
1
100
AcDbSymbolTableRecord
100
AcDbBlockTableRecord
  2
block 223
340
0
102
{BLKREFS
331
71D
102
}
 70
     0
280
     1
281
     0
  0
BLOCK_RECORD
  5
724
330
1
100
AcDbSymbolTableRecord
100
AcDbBlockTableRecord
  2
block 224
340
0
102
{BLKREFS
331
725
102
}
 70
     0
280
     1
281
     0
  0
BLOCK_RECORD
  5
72C
330
1
100
AcDbSymbolTableRecord
100
AcDbBlockTableRecord
  2
block 225
340
0
102
{BLKREFS
331
72D
102
}
 70
     0
280
     1
281
     0
  0
BLOCK_RECORD
  5
734
330
1
100
AcDbSymbolTableRecord
100
AcDbBlockTableRecord
  2
block 226
340
0
102
{BLKREFS
331
735
102
}
 70
     0
280
     1
281
     0
  0
BLOCK_RECORD
  5
73C
330
1
100
AcDbSymbolTableRecord
100
AcDbBlockTableRecord
  2
block 227
340
0
102
{BLKREFS
331
73D
102
}
 70
     0
280
     1
281
     0
  0
BLOCK_RECORD
  5
744
330
1
100
AcDbSymbolTableRecord
100
AcDbBlockTableRecord
  2
block 228
340
0
102
{BLKREFS
331
745
102
}
 70
     0
280
     1
281
     0
  0
BLOCK_RECORD
  5
74C
330
1
100
AcDbSymbolTableRecord
100
AcDbBlockTableRecord
  2
block 229
340
0
102
{BLKREFS
331
74D
102
}
 70
     0
280
     1
281
     0
  0
BLOCK_RECORD
  5
754
330
1
100
AcDbSymbolTableRecord
100
AcDbBlockTableRecord
  2
block 230
340
0
102
{BLKREFS
331
755
102
}
 70
     0
280
     1
281
     0
  0
BLOCK_RECORD
  5
75D
330
1
100
AcDbSymbolTableRecord
100
AcDbBlockTableRecord
  2
block 231
340
0
102
{BLKREFS
331
75E
102
}
 70
     0
280
     1
281
     0
  0
BLOCK_RECORD
  5
765
330
1
100
AcDbSymbolTableRecord
100
AcDbBlockTableRecord
  2
block 232
340
0
102
{BLKREFS
331
766
102
}
 70
     0
280
     1
281
     0
  0
BLOCK_RECORD
  5
76A
330
1
100
AcDbSymbolTableRecord
100
AcDbBlockTableRecord
  2
block 233
340
0
102
{BLKREFS
331
76B
102
}
 70
     0
280
     1
281
     0
  0
BLOCK_RECORD
  5
772
330
1
100
AcDbSymbolTableRecord
100
AcDbBlockTableRecord
  2
block 234
340
0
102
{BLKREFS
331
773
102
}
 70
     0
280
     1
281
     0
  0
BLOCK_RECORD
  5
777
330
1
100
AcDbSymbolTableRecord
100
AcDbBlockTableRecord
  2
block 235
340
0
102
{BLKREFS
331
778
102
}
 70
     0
280
     1
281
     0
  0
BLOCK_RECORD
  5
77C
330
1
100
AcDbSymbolTableRecord
100
AcDbBlockTableRecord
  2
block 236
340
0
102
{BLKREFS
331
77D
102
}
 70
     0
280
     1
281
     0
  0
BLOCK_RECORD
  5
781
330
1
100
AcDbSymbolTableRecord
100
AcDbBlockTableRecord
  2
block 237
340
0
102
{BLKREFS
331
782
102
}
 70
     0
280
     1
281
     0
  0
BLOCK_RECORD
  5
78A
330
1
100
AcDbSymbolTableRecord
100
AcDbBlockTableRecord
  2
block 238
340
0
102
{BLKREFS
331
78B
102
}
 70
     0
280
     1
281
     0
  0
BLOCK_RECORD
  5
793
330
1
100
AcDbSymbolTableRecord
100
AcDbBlockTableRecord
  2
block 239
340
0
102
{BLKREFS
331
794
102
}
 70
     0
280
     1
281
     0
  0
BLOCK_RECORD
  5
79C
330
1
100
AcDbSymbolTableRecord
100
AcDbBlockTableRecord
  2
block 240
340
0
102
{BLKREFS
331
79D
102
}
 70
     0
280
     1
281
     0
  0
BLOCK_RECORD
  5
7A1
330
1
100
AcDbSymbolTableRecord
100
AcDbBlockTableRecord
  2
block 241
340
0
102
{BLKREFS
331
7A2
102
}
 70
     0
280
     1
281
     0
  0
BLOCK_RECORD
  5
7A9
330
1
100
AcDbSymbolTableRecord
100
AcDbBlockTableRecord
  2
block 242
340
0
102
{BLKREFS
331
7AA
102
}
 70
     0
280
     1
281
     0
  0
BLOCK_RECORD
  5
7AE
330
1
100
AcDbSymbolTableRecord
100
AcDbBlockTableRecord
  2
block 243
340
0
102
{BLKREFS
331
7AF
102
}
 70
     0
280
     1
281
     0
  0
BLOCK_RECORD
  5
7B6
330
1
100
AcDbSymbolTableRecord
100
AcDbBlockTableRecord
  2
block 244
340
0
102
{BLKREFS
331
7B7
102
}
 70
     0
280
     1
281
     0
  0
BLOCK_RECORD
  5
7BB
330
1
100
AcDbSymbolTableRecord
100
AcDbBlockTableRecord
  2
block 245
340
0
102
{BLKREFS
331
7BC
102
}
 70
     0
280
     1
281
     0
  0
BLOCK_RECORD
  5
7C4
330
1
100
AcDbSymbolTableRecord
100
AcDbBlockTableRecord
  2
block 246
340
0
102
{BLKREFS
331
7C5
102
}
 70
     0
280
     1
281
     0
  0
BLOCK_RECORD
  5
7C9
330
1
100
AcDbSymbolTableRecord
100
AcDbBlockTableRecord
  2
block 247
340
0
102
{BLKREFS
331
7CA
102
}
 70
     0
280
     1
281
     0
  0
BLOCK_RECORD
  5
7D6
330
1
100
AcDbSymbolTableRecord
100
AcDbBlockTableRecord
  2
block 248
340
0
102
{BLKREFS
331
7D7
102
}
 70
     0
280
     1
281
     0
  0
BLOCK_RECORD
  5
7DE
330
1
100
AcDbSymbolTableRecord
100
AcDbBlockTableRecord
  2
block 249
340
0
102
{BLKREFS
331
7DF
102
}
 70
     0
280
     1
281
     0
  0
BLOCK_RECORD
  5
7E6
330
1
100
AcDbSymbolTableRecord
100
AcDbBlockTableRecord
  2
block 250
340
0
102
{BLKREFS
331
7E7
102
}
 70
     0
280
     1
281
     0
  0
BLOCK_RECORD
  5
7EE
330
1
100
AcDbSymbolTableRecord
100
AcDbBlockTableRecord
  2
block 251
340
0
102
{BLKREFS
331
7EF
102
}
 70
     0
280
     1
281
     0
  0
BLOCK_RECORD
  5
7FB
330
1
100
AcDbSymbolTableRecord
100
AcDbBlockTableRecord
  2
block 252
340
0
102
{BLKREFS
331
7FC
102
}
 70
     0
280
     1
281
     0
  0
BLOCK_RECORD
  5
803
330
1
100
AcDbSymbolTableRecord
100
AcDbBlockTableRecord
  2
block 253
340
0
102
{BLKREFS
331
804
102
}
 70
     0
280
     1
281
     0
  0
BLOCK_RECORD
  5
80B
330
1
100
AcDbSymbolTableRecord
100
AcDbBlockTableRecord
  2
block 254
340
0
102
{BLKREFS
331
80C
102
}
 70
     0
280
     1
281
     0
  0
BLOCK_RECORD
  5
813
330
1
100
AcDbSymbolTableRecord
100
AcDbBlockTableRecord
  2
block 255
340
0
102
{BLKREFS
331
814
102
}
 70
     0
280
     1
281
     0
  0
BLOCK_RECORD
  5
81B
330
1
100
AcDbSymbolTableRecord
100
AcDbBlockTableRecord
  2
block 256
340
0
102
{BLKREFS
331
81C
102
}
 70
     0
280
     1
281
     0
  0
BLOCK_RECORD
  5
823
330
1
100
AcDbSymbolTableRecord
100
AcDbBlockTableRecord
  2
block 257
340
0
102
{BLKREFS
331
824
102
}
 70
     0
280
     1
281
     0
  0
BLOCK_RECORD
  5
82B
330
1
100
AcDbSymbolTableRecord
100
AcDbBlockTableRecord
  2
block 258
340
0
102
{BLKREFS
331
82C
102
}
 70
     0
280
     1
281
     0
  0
BLOCK_RECORD
  5
833
330
1
100
AcDbSymbolTableRecord
100
AcDbBlockTableRecord
  2
block 259
340
0
102
{BLKREFS
331
834
102
}
 70
     0
280
     1
281
     0
  0
BLOCK_RECORD
  5
83C
330
1
100
AcDbSymbolTableRecord
100
AcDbBlockTableRecord
  2
block 260
340
0
102
{BLKREFS
331
83D
102
}
 70
     0
280
     1
281
     0
  0
BLOCK_RECORD
  5
844
330
1
100
AcDbSymbolTableRecord
100
AcDbBlockTableRecord
  2
block 261
340
0
102
{BLKREFS
331
845
102
}
 70
     0
280
     1
281
     0
  0
BLOCK_RECORD
  5
84C
330
1
100
AcDbSymbolTableRecord
100
AcDbBlockTableRecord
  2
block 262
340
0
102
{BLKREFS
331
84D
102
}
 70
     0
280
     1
281
     0
  0
BLOCK_RECORD
  5
854
330
1
100
AcDbSymbolTableRecord
100
AcDbBlockTableRecord
  2
block 263
340
0
102
{BLKREFS
331
855
102
}
 70
     0
280
     1
281
     0
  0
BLOCK_RECORD
  5
85C
330
1
100
AcDbSymbolTableRecord
100
AcDbBlockTableRecord
  2
block 264
340
0
102
{BLKREFS
331
85D
102
}
 70
     0
280
     1
281
     0
  0
ENDTAB
  0
ENDSEC
  0
SECTION
  2
BLOCKS
  0
BLOCK
  5
20
330
1F
100
AcDbEntity
  8
0
100
AcDbBlockBegin
  2
*Model_Space
 70
     0
 10
0.0
 20
0.0
 30
0.0
  3
*Model_Space
  1

  0
ENDBLK
  5
21
330
1F
100
AcDbEntity
  8
0
100
AcDbBlockEnd
  0
BLOCK
  5
1C
330
1B
100
AcDbEntity
 67
     1
  8
0
100
AcDbBlockBegin
  2
*Paper_Space
 70
     0
 10
0.0
 20
0.0
 30
0.0
  3
*Paper_Space
  1

  0
ENDBLK
  5
1D
330
1B
100
AcDbEntity
 67
     1
  8
0
100
AcDbBlockEnd
  0
BLOCK
  5
24
330
23
100
AcDbEntity
  8
0
100
AcDbBlockBegin
  2
*Paper_Space0
 70
     0
 10
0.0
 20
0.0
 30
0.0
  3
*Paper_Space0
  1

  0
ENDBLK
  5
25
330
23
100
AcDbEntity
  8
0
100
AcDbBlockEnd
  0
BLOCK
  5
43
330
41
100
AcDbEntity
  8
0
100
AcDbBlockBegin
  2
block 2
 70
     0
 10
0.0
 20
0.0
 30
0.0
  3
block 2
  1

  0
SPLINE
  5
45
330
41
100
AcDbEntity
  8
1
 62
     7
420
 16777215
370
    25
100
AcDbSpline
210
0.0
220
0.0
230
1.0
 70
     8
 71
     3
 72
    11
 73
     7
 74
     0
 42
0.0000000001
 43
0.0000000001
 12
1.0
 22
0.0
 32
0.0
 13
1.0
 23
0.0
 33
0.0
 40
0.0
 40
0.0
 40
0.0
 40
0.0
 40
1.0
 40
1.0
 40
1.0
 40
2.0
 40
2.0
 40
2.0
 40
2.0
 10
44.67646773499673
 20
53.7759879449972
 30
0.0
 10
44.67646773499673
 20
44.66328957278869
 30
0.0
 10
52.0637693627888
 20
37.27598794499695
 30
0.0
 10
61.176467734997
 20
37.27598794499695
 30
0.0
 10
70.28916610720488
 20
37.27598794499695
 30
0.0
 10
77.67646773499693
 20
44.66328957278869
 30
0.0
 10
77.67646773499693
 20
53.7759879449972
 30
0.0
  0
ENDBLK
  5
44
330
41
100
AcDbEntity
  8
0
100
AcDbBlockEnd
  0
BLOCK
  5
48
330
46
100
AcDbEntity
  8
0
100
AcDbBlockBegin
  2
block 3
 70
     0
 10
0.0
 20
0.0
 30
0.0
  3
block 3
  1

  0
SPLINE
  5
4A
330
46
100
AcDbEntity
  8
1
 62
     7
420
 16777215
370
    25
100
AcDbSpline
210
0.0
220
0.0
230
1.0
 70
     8
 71
     3
 72
    17
 73
    13
 74
     0
 42
0.0000000001
 43
0.0000000001
 12
1.0
 22
0.0
 32
0.0
 13
1.0
 23
0.0
 33
0.0
 40
0.0
 40
0.0
 40
0.0
 40
0.0
 40
1.0
 40
1.0
 40
1.0
 40
2.0
 40
2.0
 40
2.0
 40
3.0
 40
3.0
 40
3.0
 40
4.0
 40
4.0
 40
4.0
 40
4.0
 10
44.67646773499673
 20
53.7759879449972
 30
0.0
 10
44.67646773499673
 20
53.7759879449972
 30
0.0
 10
44.67646773499673
 20
90.77598794499723
 30
0.0
 10
44.67646773499673
 20
90.77598794499723
 30
0.0
 10
44.67646773499673
 20
99.88868631720511
 30
0.0
 10
52.0637693627888
 20
107.2759879449969
 30
0.0
 10
61.176467734997
 20
107.2759879449969
 30
0.0
 10
70.28916610720488
 20
107.2759879449969
 30
0.0
 10
77.67646773499693
 20
99.88868631720511
 30
0.0
 10
77.67646773499693
 20
90.77598794499723
 30
0.0
 10
77.67646773499693
 20
90.77598794499723
 30
0.0
 10
77.67646773499693
 20
53.7759879449972
 30
0.0
 10
77.67646773499693
 20
53.7759879449972
 30
0.0
  0
ENDBLK
  5
49
330
46
100
AcDbEntity
  8
0
100
AcDbBlockEnd
  0
BLOCK
  5
4D
330
4B
100
AcDbEntity
  8
0
100
AcDbBlockBegin
  2
block 4
 70
     0
 10
0.0
 20
0.0
 30
0.0
  3
block 4
  1

  0
POLYLINE
  5
4F
330
4B
100
AcDbEntity
  8
1
  6
AI-Linetype-1
 62
     1
420
 16711680
370
    25
100
AcDb2dPolyline
 66
     1
 10
0.0
 20
0.0
 30
0.0
  0
VERTEX
  5
50
330
4F
100
AcDbEntity
  8
1
  6
AI-Linetype-1
 62
     1
420
 16711680
370
    25
100
AcDbVertex
100
AcDb2dVertex
 10
61.176467734997
 20
71.7759879449972
 30
0.0
  0
VERTEX
  5
51
330
4F
100
AcDbEntity
  8
1
  6
AI-Linetype-1
 62
     1
420
 16711680
370
    25
100
AcDbVertex
100
AcDb2dVertex
 10
61.176467734997
 20
108.7759879449969
 30
0.0
  0
SEQEND
  5
53
330
4F
100
AcDbEntity
  8
1
  6
AI-Linetype-1
 62
     1
420
 16711680
370
    25
  0
ENDBLK
  5
4E
330
4B
100
AcDbEntity
  8
0
100
AcDbBlockEnd
  0
BLOCK
  5
56
330
54
100
AcDbEntity
  8
0
100
AcDbBlockBegin
  2
block 5
 70
     0
 10
0.0
 20
0.0
 30
0.0
  3
block 5
  1

  0
POLYLINE
  5
58
330
54
100
AcDbEntity
  8
1
  6
AI-Linetype-2
 62
     1
420
 16711680
370
    25
100
AcDb2dPolyline
 66
     1
 10
0.0
 20
0.0
 30
0.0
  0
VERTEX
  5
59
330
58
100
AcDbEntity
  8
1
  6
AI-Linetype-2
 62
     1
420
 16711680
370
    25
100
AcDbVertex
100
AcDb2dVertex
 10
61.176467734997
 20
35.77598794499721
 30
0.0
  0
VERTEX
  5
5A
330
58
100
AcDbEntity
  8
1
  6
AI-Linetype-2
 62
     1
420
 16711680
370
    25
100
AcDbVertex
100
AcDb2dVertex
 10
61.176467734997
 20
72.7759879449966
 30
0.0
  0
SEQEND
  5
5C
330
58
100
AcDbEntity
  8
1
  6
AI-Linetype-2
 62
     1
420
 16711680
370
    25
  0
ENDBLK
  5
57
330
54
100
AcDbEntity
  8
0
100
AcDbBlockEnd
  0
BLOCK
  5
5F
330
5D
100
AcDbEntity
  8
0
100
AcDbBlockBegin
  2
block 6
 70
     0
 10
0.0
 20
0.0
 30
0.0
  3
block 6
  1

  0
POLYLINE
  5
61
330
5D
100
AcDbEntity
  8
1
  6
AI-Linetype-3
 62
     1
420
 16711680
370
    25
100
AcDb2dPolyline
 66
     1
 10
0.0
 20
0.0
 30
0.0
  0
VERTEX
  5
62
330
61
100
AcDbEntity
  8
1
  6
AI-Linetype-3
 62
     1
420
 16711680
370
    25
100
AcDbVertex
100
AcDb2dVertex
 10
42.85659695499675
 20
72.2759879449969
 30
0.0
  0
VERTEX
  5
63
330
61
100
AcDbEntity
  8
1
  6
AI-Linetype-3
 62
     1
420
 16711680
370
    25
100
AcDbVertex
100
AcDb2dVertex
 10
79.1688362249969
 20
72.2759879449969
 30
0.0
  0
SEQEND
  5
65
330
61
100
AcDbEntity
  8
1
  6
AI-Linetype-3
 62
     1
420
 16711680
370
    25
  0
ENDBLK
  5
60
330
5D
100
AcDbEntity
  8
0
100
AcDbBlockEnd
  0
BLOCK
  5
68
330
66
100
AcDbEntity
  8
0
100
AcDbBlockBegin
  2
block 7
 70
     0
 10
0.0
 20
0.0
 30
0.0
  3
block 7
  1

  0
SPLINE
  5
6A
330
66
100
AcDbEntity
  8
1
 62
     7
420
 16777215
370
    25
100
AcDbSpline
210
0.0
220
0.0
230
1.0
 70
    11
 71
     3
 72
    20
 73
    16
 74
     0
 42
0.0000000001
 43
0.0000000001
 12
1.0
 22
0.0
 32
0.0
 13
1.0
 23
0.0
 33
0.0
 40
0.0
 40
0.0
 40
0.0
 40
0.0
 40
1.0
 40
1.0
 40
1.0
 40
2.0
 40
2.0
 40
2.0
 40
3.0
 40
3.0
 40
3.0
 40
4.0
 40
4.0
 40
4.0
 40
5.0
 40
5.0
 40
5.0
 40
5.0
 10
49.92646773499676
 20
79.27598794499714
 30
0.0
 10
49.92646773499676
 20
85.48919138059331
 30
0.0
 10
54.96326429940051
 20
90.52598794499706
 30
0.0
 10
61.176467734997
 20
90.52598794499706
 30
0.0
 10
67.38967117059316
 20
90.52598794499706
 30
0.0
 10
72.42646773499692
 20
85.48919138059331
 30
0.0
 10
72.42646773499692
 20
79.27598794499714
 30
0.0
 10
72.42646773499692
 20
73.06278450940034
 30
0.0
 10
67.38967117059316
 20
68.02598794499659
 30
0.0
 10
61.176467734997
 20
68.02598794499659
 30
0.0
 10
54.96326429940051
 20
68.02598794499659
 30
0.0
 10
49.92646773499676
 20
73.06278450940034
 30
0.0
 10
49.92646773499676
 20
79.27598794499714
 30
0.0
 10
49.92646773499676
 20
79.27598794499714
 30
0.0
 10
49.92646773499676
 20
79.27598794499714
 30
0.0
 10
49.92646773499676
 20
79.27598794499714
 30
0.0
  0
ENDBLK
  5
69
330
66
100
AcDbEntity
  8
0
100
AcDbBlockEnd
  0
BLOCK
  5
6D
330
6B
100
AcDbEntity
  8
0
100
AcDbBlockBegin
  2
block 8
 70
     0
 10
0.0
 20
0.0
 30
0.0
  3
block 8
  1

  0
POLYLINE
  5
6F
330
6B
100
AcDbEntity
  8
1
  6
AI-Linetype-4
 62
     1
420
 16711680
370
    25
100
AcDb2dPolyline
 66
     1
 10
0.0
 20
0.0
 30
0.0
  0
VERTEX
  5
70
330
6F
100
AcDbEntity
  8
1
  6
AI-Linetype-4
 62
     1
420
 16711680
370
    25
100
AcDbVertex
100
AcDb2dVertex
 10
48.42076157499693
 20
79.27598794499714
 30
0.0
  0
VERTEX
  5
71
330
6F
100
AcDbEntity
  8
1
  6
AI-Linetype-4
 62
     1
420
 16711680
370
    25
100
AcDbVertex
100
AcDb2dVertex
 10
73.93217390499699
 20
79.27598794499714
 30
0.0
  0
SEQEND
  5
73
330
6F
100
AcDbEntity
  8
1
  6
AI-Linetype-4
 62
     1
420
 16711680
370
    25
  0
ENDBLK
  5
6E
330
6B
100
AcDbEntity
  8
0
100
AcDbBlockEnd
  0
BLOCK
  5
76
330
74
100
AcDbEntity
  8
0
100
AcDbBlockBegin
  2
block 9
 70
     0
 10
0.0
 20
0.0
 30
0.0
  3
block 9
  1

  0
MTEXT
  5
78
330
74
100
AcDbEntity
  8
1
 62
     2
420
 16776960
100
AcDbMText
 10
47.62535526356567
 20
114.9714921451938
 30
0.0
 40
3.499999953157898
 41
0.0
 46
0.0
 71
     7
 72
     1
  1
\fMyriad Pro|b0|i0|c0|p34;\W0.812;RZ-Lochung
 73
     1
 44
1.0
  0
ENDBLK
  5
77
330
74
100
AcDbEntity
  8
0
100
AcDbBlockEnd
  0
BLOCK
  5
7C
330
7A
100
AcDbEntity
  8
0
100
AcDbBlockBegin
  2
block 10
 70
     0
 10
0.0
 20
0.0
 30
0.0
  3
block 10
  1

  0
POLYLINE
  5
7E
330
7A
100
AcDbEntity
  8
49
 62
     4
420
    65535
370
    25
100
AcDb2dPolyline
 66
     1
 10
0.0
 20
0.0
 30
0.0
  0
VERTEX
  5
7F
330
7E
100
AcDbEntity
  8
49
 62
     4
420
    65535
370
    25
100
AcDbVertex
100
AcDb2dVertex
 10
44.67646773499673
 20
25.27598794499717
 30
0.0
  0
VERTEX
  5
80
330
7E
100
AcDbEntity
  8
49
 62
     4
420
    65535
370
    25
100
AcDbVertex
100
AcDb2dVertex
 10
44.67646773499673
 20
53.7759879449972
 30
0.0
  0
SEQEND
  5
81
330
7E
100
AcDbEntity
  8
49
 62
     4
420
    65535
370
    25
  0
ENDBLK
  5
7D
330
7A
100
AcDbEntity
  8
0
100
AcDbBlockEnd
  0
BLOCK
  5
84
330
82
100
AcDbEntity
  8
0
100
AcDbBlockBegin
  2
block 11
 70
     0
 10
0.0
 20
0.0
 30
0.0
  3
block 11
  1

  0
POLYLINE
  5
86
330
82
100
AcDbEntity
  8
49
 62
     4
420
    65535
370
    25
100
AcDb2dPolyline
 66
     1
 10
0.0
 20
0.0
 30
0.0
  0
VERTEX
  5
87
330
86
100
AcDbEntity
  8
49
 62
     4
420
    65535
370
    25
100
AcDbVertex
100
AcDb2dVertex
 10
44.67646773499673
 20
27.27598794499659
 30
0.0
  0
VERTEX
  5
88
330
86
100
AcDbEntity
  8
49
 62
     4
420
    65535
370
    25
100
AcDbVertex
100
AcDb2dVertex
 10
48.67646773499688
 20
28.0259879449971
 30
0.0
  0
SEQEND
  5
89
330
86
100
AcDbEntity
  8
49
 62
     4
420
    65535
370
    25
  0
ENDBLK
  5
85
330
82
100
AcDbEntity
  8
0
100
AcDbBlockEnd
  0
BLOCK
  5
8C
330
8A
100
AcDbEntity
  8
0
100
AcDbBlockBegin
  2
block 12
 70
     0
 10
0.0
 20
0.0
 30
0.0
  3
block 12
  1

  0
POLYLINE
  5
8E
330
8A
100
AcDbEntity
  8
49
 62
     4
420
    65535
370
    25
100
AcDb2dPolyline
 66
     1
 10
0.0
 20
0.0
 30
0.0
  0
VERTEX
  5
8F
330
8E
100
AcDbEntity
  8
49
 62
     4
420
    65535
370
    25
100
AcDbVertex
100
AcDb2dVertex
 10
48.67646773499688
 20
28.0259879449971
 30
0.0
  0
VERTEX
  5
90
330
8E
100
AcDbEntity
  8
49
 62
     4
420
    65535
370
    25
100
AcDbVertex
100
AcDb2dVertex
 10
48.67646773499688
 20
26.52598794499673
 30
0.0
  0
SEQEND
  5
91
330
8E
100
AcDbEntity
  8
49
 62
     4
420
    65535
370
    25
  0
ENDBLK
  5
8D
330
8A
100
AcDbEntity
  8
0
100
AcDbBlockEnd
  0
BLOCK
  5
94
330
92
100
AcDbEntity
  8
0
100
AcDbBlockBegin
  2
block 13
 70
     0
 10
0.0
 20
0.0
 30
0.0
  3
block 13
  1

  0
POLYLINE
  5
96
330
92
100
AcDbEntity
  8
49
 62
     4
420
    65535
370
    25
100
AcDb2dPolyline
 66
     1
 10
0.0
 20
0.0
 30
0.0
  0
VERTEX
  5
97
330
96
100
AcDbEntity
  8
49
 62
     4
420
    65535
370
    25
100
AcDbVertex
100
AcDb2dVertex
 10
48.67646773499688
 20
26.52598794499673
 30
0.0
  0
VERTEX
  5
98
330
96
100
AcDbEntity
  8
49
 62
     4
420
    65535
370
    25
100
AcDbVertex
100
AcDb2dVertex
 10
44.67646773499673
 20
27.27598794499659
 30
0.0
  0
SEQEND
  5
99
330
96
100
AcDbEntity
  8
49
 62
     4
420
    65535
370
    25
  0
ENDBLK
  5
95
330
92
100
AcDbEntity
  8
0
100
AcDbBlockEnd
  0
BLOCK
  5
9C
330
9A
100
AcDbEntity
  8
0
100
AcDbBlockBegin
  2
block 14
 70
     0
 10
0.0
 20
0.0
 30
0.0
  3
block 14
  1

  0
POLYLINE
  5
9E
330
9A
100
AcDbEntity
  8
49
 62
     4
420
    65535
370
    25
100
AcDb2dPolyline
 66
     1
 10
0.0
 20
0.0
 30
0.0
  0
VERTEX
  5
9F
330
9E
100
AcDbEntity
  8
49
 62
     4
420
    65535
370
    25
100
AcDbVertex
100
AcDb2dVertex
 10
48.57646773499687
 20
27.27598794499659
 30
0.0
  0
VERTEX
  5
A0
330
9E
100
AcDbEntity
  8
49
 62
     4
420
    65535
370
    25
100
AcDbVertex
100
AcDb2dVertex
 10
44.77646773499674
 20
27.27598794499659
 30
0.0
  0
SEQEND
  5
A1
330
9E
100
AcDbEntity
  8
49
 62
     4
420
    65535
370
    25
  0
ENDBLK
  5
9D
330
9A
100
AcDbEntity
  8
0
100
AcDbBlockEnd
  0
BLOCK
  5
A4
330
A2
100
AcDbEntity
  8
0
100
AcDbBlockBegin
  2
block 15
 70
     0
 10
0.0
 20
0.0
 30
0.0
  3
block 15
  1

  0
POLYLINE
  5
A6
330
A2
100
AcDbEntity
  8
49
 62
     4
420
    65535
370
    25
100
AcDb2dPolyline
 66
     1
 10
0.0
 20
0.0
 30
0.0
  0
VERTEX
  5
A7
330
A6
100
AcDbEntity
  8
49
 62
     4
420
    65535
370
    25
100
AcDbVertex
100
AcDb2dVertex
 10
48.57646773499687
 20
27.07598794499723
 30
0.0
  0
VERTEX
  5
A8
330
A6
100
AcDbEntity
  8
49
 62
     4
420
    65535
370
    25
100
AcDbVertex
100
AcDb2dVertex
 10
45.84313440499675
 20
27.07598794499723
 30
0.0
  0
SEQEND
  5
A9
330
A6
100
AcDbEntity
  8
49
 62
     4
420
    65535
370
    25
  0
ENDBLK
  5
A5
330
A2
100
AcDbEntity
  8
0
100
AcDbBlockEnd
  0
BLOCK
  5
AC
330
AA
100
AcDbEntity
  8
0
100
AcDbBlockBegin
  2
block 16
 70
     0
 10
0.0
 20
0.0
 30
0.0
  3
block 16
  1

  0
POLYLINE
  5
AE
330
AA
100
AcDbEntity
  8
49
 62
     4
420
    65535
370
    25
100
AcDb2dPolyline
 66
     1
 10
0.0
 20
0.0
 30
0.0
  0
VERTEX
  5
AF
330
AE
100
AcDbEntity
  8
49
 62
     4
420
    65535
370
    25
100
AcDbVertex
100
AcDb2dVertex
 10
48.57646773499687
 20
27.4759879449966
 30
0.0
  0
VERTEX
  5
B0
330
AE
100
AcDbEntity
  8
49
 62
     4
420
    65535
370
    25
100
AcDbVertex
100
AcDb2dVertex
 10
45.84313440499675
 20
27.4759879449966
 30
0.0
  0
SEQEND
  5
B1
330
AE
100
AcDbEntity
  8
49
 62
     4
420
    65535
370
    25
  0
ENDBLK
  5
AD
330
AA
100
AcDbEntity
  8
0
100
AcDbBlockEnd
  0
BLOCK
  5
B4
330
B2
100
AcDbEntity
  8
0
100
AcDbBlockBegin
  2
block 17
 70
     0
 10
0.0
 20
0.0
 30
0.0
  3
block 17
  1

  0
POLYLINE
  5
B6
330
B2
100
AcDbEntity
  8
49
 62
     4
420
    65535
370
    25
100
AcDb2dPolyline
 66
     1
 10
0.0
 20
0.0
 30
0.0
  0
VERTEX
  5
B7
330
B6
100
AcDbEntity
  8
49
 62
     4
420
    65535
370
    25
100
AcDbVertex
100
AcDb2dVertex
 10
48.57646773499687
 20
26.87598794499722
 30
0.0
  0
VERTEX
  5
B8
330
B6
100
AcDbEntity
  8
49
 62
     4
420
    65535
370
    25
100
AcDbVertex
100
AcDb2dVertex
 10
46.90980107499676
 20
26.87598794499722
 30
0.0
  0
SEQEND
  5
B9
330
B6
100
AcDbEntity
  8
49
 62
     4
420
    65535
370
    25
  0
ENDBLK
  5
B5
330
B2
100
AcDbEntity
  8
0
100
AcDbBlockEnd
  0
BLOCK
  5
BC
330
BA
100
AcDbEntity
  8
0
100
AcDbBlockBegin
  2
block 18
 70
     0
 10
0.0
 20
0.0
 30
0.0
  3
block 18
  1

  0
POLYLINE
  5
BE
330
BA
100
AcDbEntity
  8
49
 62
     4
420
    65535
370
    25
100
AcDb2dPolyline
 66
     1
 10
0.0
 20
0.0
 30
0.0
  0
VERTEX
  5
BF
330
BE
100
AcDbEntity
  8
49
 62
     4
420
    65535
370
    25
100
AcDbVertex
100
AcDb2dVertex
 10
48.57646773499687
 20
27.67598794499661
 30
0.0
  0
VERTEX
  5
C0
330
BE
100
AcDbEntity
  8
49
 62
     4
420
    65535
370
    25
100
AcDbVertex
100
AcDb2dVertex
 10
46.90980107499676
 20
27.67598794499661
 30
0.0
  0
SEQEND
  5
C1
330
BE
100
AcDbEntity
  8
49
 62
     4
420
    65535
370
    25
  0
ENDBLK
  5
BD
330
BA
100
AcDbEntity
  8
0
100
AcDbBlockEnd
  0
BLOCK
  5
C4
330
C2
100
AcDbEntity
  8
0
100
AcDbBlockBegin
  2
block 19
 70
     0
 10
0.0
 20
0.0
 30
0.0
  3
block 19
  1

  0
POLYLINE
  5
C6
330
C2
100
AcDbEntity
  8
49
 62
     4
420
    65535
370
    25
100
AcDb2dPolyline
 66
     1
 10
0.0
 20
0.0
 30
0.0
  0
VERTEX
  5
C7
330
C6
100
AcDbEntity
  8
49
 62
     4
420
    65535
370
    25
100
AcDbVertex
100
AcDb2dVertex
 10
48.57646773499687
 20
26.67598794499721
 30
0.0
  0
VERTEX
  5
C8
330
C6
100
AcDbEntity
  8
49
 62
     4
420
    65535
370
    25
100
AcDbVertex
100
AcDb2dVertex
 10
47.97646773499685
 20
26.67598794499721
 30
0.0
  0
SEQEND
  5
C9
330
C6
100
AcDbEntity
  8
49
 62
     4
420
    65535
370
    25
  0
ENDBLK
  5
C5
330
C2
100
AcDbEntity
  8
0
100
AcDbBlockEnd
  0
BLOCK
  5
CC
330
CA
100
AcDbEntity
  8
0
100
AcDbBlockBegin
  2
block 20
 70
     0
 10
0.0
 20
0.0
 30
0.0
  3
block 20
  1

  0
POLYLINE
  5
CE
330
CA
100
AcDbEntity
  8
49
 62
     4
420
    65535
370
    25
100
AcDb2dPolyline
 66
     1
 10
0.0
 20
0.0
 30
0.0
  0
VERTEX
  5
CF
330
CE
100
AcDbEntity
  8
49
 62
     4
420
    65535
370
    25
100
AcDbVertex
100
AcDb2dVertex
 10
48.57646773499687
 20
27.87598794499661
 30
0.0
  0
VERTEX
  5
D0
330
CE
100
AcDbEntity
  8
49
 62
     4
420
    65535
370
    25
100
AcDbVertex
100
AcDb2dVertex
 10
47.97646773499685
 20
27.87598794499661
 30
0.0
  0
SEQEND
  5
D1
330
CE
100
AcDbEntity
  8
49
 62
     4
420
    65535
370
    25
  0
ENDBLK
  5
CD
330
CA
100
AcDbEntity
  8
0
100
AcDbBlockEnd
  0
BLOCK
  5
D4
330
D2
100
AcDbEntity
  8
0
100
AcDbBlockBegin
  2
block 21
 70
     0
 10
0.0
 20
0.0
 30
0.0
  3
block 21
  1

  0
POLYLINE
  5
D6
330
D2
100
AcDbEntity
  8
49
 62
     4
420
    65535
370
    25
100
AcDb2dPolyline
 66
     1
 10
0.0
 20
0.0
 30
0.0
  0
VERTEX
  5
D7
330
D6
100
AcDbEntity
  8
49
 62
     4
420
    65535
370
    25
100
AcDbVertex
100
AcDb2dVertex
 10
77.67646773499693
 20
25.27598794499717
 30
0.0
  0
VERTEX
  5
D8
330
D6
100
AcDbEntity
  8
49
 62
     4
420
    65535
370
    25
100
AcDbVertex
100
AcDb2dVertex
 10
77.67646773499693
 20
53.7759879449972
 30
0.0
  0
SEQEND
  5
D9
330
D6
100
AcDbEntity
  8
49
 62
     4
420
    65535
370
    25
  0
ENDBLK
  5
D5
330
D2
100
AcDbEntity
  8
0
100
AcDbBlockEnd
  0
BLOCK
  5
DC
330
DA
100
AcDbEntity
  8
0
100
AcDbBlockBegin
  2
block 22
 70
     0
 10
0.0
 20
0.0
 30
0.0
  3
block 22
  1

  0
POLYLINE
  5
DE
330
DA
100
AcDbEntity
  8
49
 62
     4
420
    65535
370
    25
100
AcDb2dPolyline
 66
     1
 10
0.0
 20
0.0
 30
0.0
  0
VERTEX
  5
DF
330
DE
100
AcDbEntity
  8
49
 62
     4
420
    65535
370
    25
100
AcDbVertex
100
AcDb2dVertex
 10
77.67646773499693
 20
27.27598794499659
 30
0.0
  0
VERTEX
  5
E0
330
DE
100
AcDbEntity
  8
49
 62
     4
420
    65535
370
    25
100
AcDbVertex
100
AcDb2dVertex
 10
73.67646773499679
 20
26.52598794499673
 30
0.0
  0
SEQEND
  5
E1
330
DE
100
AcDbEntity
  8
49
 62
     4
420
    65535
370
    25
  0
ENDBLK
  5
DD
330
DA
100
AcDbEntity
  8
0
100
AcDbBlockEnd
  0
BLOCK
  5
E4
330
E2
100
AcDbEntity
  8
0
100
AcDbBlockBegin
  2
block 23
 70
     0
 10
0.0
 20
0.0
 30
0.0
  3
block 23
  1

  0
POLYLINE
  5
E6
330
E2
100
AcDbEntity
  8
49
 62
     4
420
    65535
370
    25
100
AcDb2dPolyline
 66
     1
 10
0.0
 20
0.0
 30
0.0
  0
VERTEX
  5
E7
330
E6
100
AcDbEntity
  8
49
 62
     4
420
    65535
370
    25
100
AcDbVertex
100
AcDb2dVertex
 10
73.67646773499679
 20
26.52598794499673
 30
0.0
  0
VERTEX
  5
E8
330
E6
100
AcDbEntity
  8
49
 62
     4
420
    65535
370
    25
100
AcDbVertex
100
AcDb2dVertex
 10
73.67646773499679
 20
28.0259879449971
 30
0.0
  0
SEQEND
  5
E9
330
E6
100
AcDbEntity
  8
49
 62
     4
420
    65535
370
    25
  0
ENDBLK
  5
E5
330
E2
100
AcDbEntity
  8
0
100
AcDbBlockEnd
  0
BLOCK
  5
EC
330
EA
100
AcDbEntity
  8
0
100
AcDbBlockBegin
  2
block 24
 70
     0
 10
0.0
 20
0.0
 30
0.0
  3
block 24
  1

  0
POLYLINE
  5
EE
330
EA
100
AcDbEntity
  8
49
 62
     4
420
    65535
370
    25
100
AcDb2dPolyline
 66
     1
 10
0.0
 20
0.0
 30
0.0
  0
VERTEX
  5
EF
330
EE
100
AcDbEntity
  8
49
 62
     4
420
    65535
370
    25
100
AcDbVertex
100
AcDb2dVertex
 10
73.67646773499679
 20
28.0259879449971
 30
0.0
  0
VERTEX
  5
F0
330
EE
100
AcDbEntity
  8
49
 62
     4
420
    65535
370
    25
100
AcDbVertex
100
AcDb2dVertex
 10
77.67646773499693
 20
27.27598794499659
 30
0.0
  0
SEQEND
  5
F1
330
EE
100
AcDbEntity
  8
49
 62
     4
420
    65535
370
    25
  0
ENDBLK
  5
ED
330
EA
100
AcDbEntity
  8
0
100
AcDbBlockEnd
  0
BLOCK
  5
F4
330
F2
100
AcDbEntity
  8
0
100
AcDbBlockBegin
  2
block 25
 70
     0
 10
0.0
 20
0.0
 30
0.0
  3
block 25
  1

  0
POLYLINE
  5
F6
330
F2
100
AcDbEntity
  8
49
 62
     4
420
    65535
370
    25
100
AcDb2dPolyline
 66
     1
 10
0.0
 20
0.0
 30
0.0
  0
VERTEX
  5
F7
330
F6
100
AcDbEntity
  8
49
 62
     4
420
    65535
370
    25
100
AcDbVertex
100
AcDb2dVertex
 10
73.7764677349968
 20
27.27598794499659
 30
0.0
  0
VERTEX
  5
F8
330
F6
100
AcDbEntity
  8
49
 62
     4
420
    65535
370
    25
100
AcDbVertex
100
AcDb2dVertex
 10
77.57646773499694
 20
27.27598794499659
 30
0.0
  0
SEQEND
  5
F9
330
F6
100
AcDbEntity
  8
49
 62
     4
420
    65535
370
    25
  0
ENDBLK
  5
F5
330
F2
100
AcDbEntity
  8
0
100
AcDbBlockEnd
  0
BLOCK
  5
FC
330
FA
100
AcDbEntity
  8
0
100
AcDbBlockBegin
  2
block 26
 70
     0
 10
0.0
 20
0.0
 30
0.0
  3
block 26
  1

  0
POLYLINE
  5
FE
330
FA
100
AcDbEntity
  8
49
 62
     4
420
    65535
370
    25
100
AcDb2dPolyline
 66
     1
 10
0.0
 20
0.0
 30
0.0
  0
VERTEX
  5
FF
330
FE
100
AcDbEntity
  8
49
 62
     4
420
    65535
370
    25
100
AcDbVertex
100
AcDb2dVertex
 10
73.7764677349968
 20
27.4759879449966
 30
0.0
  0
VERTEX
  5
100
330
FE
100
AcDbEntity
  8
49
 62
     4
420
    65535
370
    25
100
AcDbVertex
100
AcDb2dVertex
 10
76.50980107499684
 20
27.4759879449966
 30
0.0
  0
SEQEND
  5
101
330
FE
100
AcDbEntity
  8
49
 62
     4
420
    65535
370
    25
  0
ENDBLK
  5
FD
330
FA
100
AcDbEntity
  8
0
100
AcDbBlockEnd
  0
BLOCK
  5
104
330
102
100
AcDbEntity
  8
0
100
AcDbBlockBegin
  2
block 27
 70
     0
 10
0.0
 20
0.0
 30
0.0
  3
block 27
  1

  0
POLYLINE
  5
106
330
102
100
AcDbEntity
  8
49
 62
     4
420
    65535
370
    25
100
AcDb2dPolyline
 66
     1
 10
0.0
 20
0.0
 30
0.0
  0
VERTEX
  5
107
330
106
100
AcDbEntity
  8
49
 62
     4
420
    65535
370
    25
100
AcDbVertex
100
AcDb2dVertex
 10
73.7764677349968
 20
27.07598794499723
 30
0.0
  0
VERTEX
  5
108
330
106
100
AcDbEntity
  8
49
 62
     4
420
    65535
370
    25
100
AcDbVertex
100
AcDb2dVertex
 10
76.50980107499684
 20
27.07598794499723
 30
0.0
  0
SEQEND
  5
109
330
106
100
AcDbEntity
  8
49
 62
     4
420
    65535
370
    25
  0
ENDBLK
  5
105
330
102
100
AcDbEntity
  8
0
100
AcDbBlockEnd
  0
BLOCK
  5
10C
330
10A
100
AcDbEntity
  8
0
100
AcDbBlockBegin
  2
block 28
 70
     0
 10
0.0
 20
0.0
 30
0.0
  3
block 28
  1

  0
POLYLINE
  5
10E
330
10A
100
AcDbEntity
  8
49
 62
     4
420
    65535
370
    25
100
AcDb2dPolyline
 66
     1
 10
0.0
 20
0.0
 30
0.0
  0
VERTEX
  5
10F
330
10E
100
AcDbEntity
  8
49
 62
     4
420
    65535
370
    25
100
AcDbVertex
100
AcDb2dVertex
 10
73.7764677349968
 20
27.67598794499661
 30
0.0
  0
VERTEX
  5
110
330
10E
100
AcDbEntity
  8
49
 62
     4
420
    65535
370
    25
100
AcDbVertex
100
AcDb2dVertex
 10
75.44313440499683
 20
27.67598794499661
 30
0.0
  0
SEQEND
  5
111
330
10E
100
AcDbEntity
  8
49
 62
     4
420
    65535
370
    25
  0
ENDBLK
  5
10D
330
10A
100
AcDbEntity
  8
0
100
AcDbBlockEnd
  0
BLOCK
  5
114
330
112
100
AcDbEntity
  8
0
100
AcDbBlockBegin
  2
block 29
 70
     0
 10
0.0
 20
0.0
 30
0.0
  3
block 29
  1

  0
POLYLINE
  5
116
330
112
100
AcDbEntity
  8
49
 62
     4
420
    65535
370
    25
100
AcDb2dPolyline
 66
     1
 10
0.0
 20
0.0
 30
0.0
  0
VERTEX
  5
117
330
116
100
AcDbEntity
  8
49
 62
     4
420
    65535
370
    25
100
AcDbVertex
100
AcDb2dVertex
 10
73.7764677349968
 20
26.87598794499722
 30
0.0
  0
VERTEX
  5
118
330
116
100
AcDbEntity
  8
49
 62
     4
420
    65535
370
    25
100
AcDbVertex
100
AcDb2dVertex
 10
75.44313440499683
 20
26.87598794499722
 30
0.0
  0
SEQEND
  5
119
330
116
100
AcDbEntity
  8
49
 62
     4
420
    65535
370
    25
  0
ENDBLK
  5
115
330
112
100
AcDbEntity
  8
0
100
AcDbBlockEnd
  0
BLOCK
  5
11C
330
11A
100
AcDbEntity
  8
0
100
AcDbBlockBegin
  2
block 30
 70
     0
 10
0.0
 20
0.0
 30
0.0
  3
block 30
  1

  0
POLYLINE
  5
11E
330
11A
100
AcDbEntity
  8
49
 62
     4
420
    65535
370
    25
100
AcDb2dPolyline
 66
     1
 10
0.0
 20
0.0
 30
0.0
  0
VERTEX
  5
11F
330
11E
100
AcDbEntity
  8
49
 62
     4
420
    65535
370
    25
100
AcDbVertex
100
AcDb2dVertex
 10
73.7764677349968
 20
27.87598794499661
 30
0.0
  0
VERTEX
  5
120
330
11E
100
AcDbEntity
  8
49
 62
     4
420
    65535
370
    25
100
AcDbVertex
100
AcDb2dVertex
 10
74.37646773499682
 20
27.87598794499661
 30
0.0
  0
SEQEND
  5
121
330
11E
100
AcDbEntity
  8
49
 62
     4
420
    65535
370
    25
  0
ENDBLK
  5
11D
330
11A
100
AcDbEntity
  8
0
100
AcDbBlockEnd
  0
BLOCK
  5
124
330
122
100
AcDbEntity
  8
0
100
AcDbBlockBegin
  2
block 31
 70
     0
 10
0.0
 20
0.0
 30
0.0
  3
block 31
  1

  0
POLYLINE
  5
126
330
122
100
AcDbEntity
  8
49
 62
     4
420
    65535
370
    25
100
AcDb2dPolyline
 66
     1
 10
0.0
 20
0.0
 30
0.0
  0
VERTEX
  5
127
330
126
100
AcDbEntity
  8
49
 62
     4
420
    65535
370
    25
100
AcDbVertex
100
AcDb2dVertex
 10
73.7764677349968
 20
26.67598794499721
 30
0.0
  0
VERTEX
  5
128
330
126
100
AcDbEntity
  8
49
 62
     4
420
    65535
370
    25
100
AcDbVertex
100
AcDb2dVertex
 10
74.37646773499682
 20
26.67598794499721
 30
0.0
  0
SEQEND
  5
129
330
126
100
AcDbEntity
  8
49
 62
     4
420
    65535
370
    25
  0
ENDBLK
  5
125
330
122
100
AcDbEntity
  8
0
100
AcDbBlockEnd
  0
BLOCK
  5
12C
330
12A
100
AcDbEntity
  8
0
100
AcDbBlockBegin
  2
block 32
 70
     0
 10
0.0
 20
0.0
 30
0.0
  3
block 32
  1

  0
POLYLINE
  5
12E
330
12A
100
AcDbEntity
  8
49
 62
     4
420
    65535
370
    25
100
AcDb2dPolyline
 66
     1
 10
0.0
 20
0.0
 30
0.0
  0
VERTEX
  5
12F
330
12E
100
AcDbEntity
  8
49
 62
     4
420
    65535
370
    25
100
AcDbVertex
100
AcDb2dVertex
 10
48.67646773499688
 20
27.27598794499659
 30
0.0
  0
VERTEX
  5
130
330
12E
100
AcDbEntity
  8
49
 62
     4
420
    65535
370
    25
100
AcDbVertex
100
AcDb2dVertex
 10
73.67646773499679
 20
27.27598794499659
 30
0.0
  0
SEQEND
  5
131
330
12E
100
AcDbEntity
  8
49
 62
     4
420
    65535
370
    25
  0
ENDBLK
  5
12D
330
12A
100
AcDbEntity
  8
0
100
AcDbBlockEnd
  0
BLOCK
  5
134
330
132
100
AcDbEntity
  8
0
100
AcDbBlockBegin
  2
block 33
 70
     0
 10
0.0
 20
0.0
 30
0.0
  3
block 33
  1

  0
MTEXT
  5
136
330
132
100
AcDbEntity
  8
49
 62
     2
420
 16776960
100
AcDbMText
 10
58.5744339266677
 20
28.77598901665041
 30
0.0
 40
3.499999953157898
 41
0.0
 46
0.0
 71
     7
 72
     1
  1
\fMyriad Pro|b0|i0|c0|p34;\W0.812;33
 73
     1
 44
1.0
  0
ENDBLK
  5
135
330
132
100
AcDbEntity
  8
0
100
AcDbBlockEnd
  0
BLOCK
  5
139
330
137
100
AcDbEntity
  8
0
100
AcDbBlockBegin
  2
block 34
 70
     0
 10
0.0
 20
0.0
 30
0.0
  3
block 34
  1

  0
POLYLINE
  5
13B
330
137
100
AcDbEntity
  8
49
 62
     4
420
    65535
370
    25
100
AcDb2dPolyline
 66
     1
 10
0.0
 20
0.0
 30
0.0
  0
VERTEX
  5
13C
330
13B
100
AcDbEntity
  8
49
 62
     4
420
    65535
370
    25
100
AcDbVertex
100
AcDb2dVertex
 10
89.67646773499705
 20
37.27598794499695
 30
0.0
  0
VERTEX
  5
13D
330
13B
100
AcDbEntity
  8
49
 62
     4
420
    65535
370
    25
100
AcDbVertex
100
AcDb2dVertex
 10
61.176467734997
 20
37.27598794499695
 30
0.0
  0
SEQEND
  5
13E
330
13B
100
AcDbEntity
  8
49
 62
     4
420
    65535
370
    25
  0
ENDBLK
  5
13A
330
137
100
AcDbEntity
  8
0
100
AcDbBlockEnd
  0
BLOCK
  5
141
330
13F
100
AcDbEntity
  8
0
100
AcDbBlockBegin
  2
block 35
 70
     0
 10
0.0
 20
0.0
 30
0.0
  3
block 35
  1

  0
POLYLINE
  5
143
330
13F
100
AcDbEntity
  8
49
 62
     4
420
    65535
370
    25
100
AcDb2dPolyline
 66
     1
 10
0.0
 20
0.0
 30
0.0
  0
VERTEX
  5
144
330
143
100
AcDbEntity
  8
49
 62
     4
420
    65535
370
    25
100
AcDbVertex
100
AcDb2dVertex
 10
87.67646773499698
 20
37.27598794499695
 30
0.0
  0
VERTEX
  5
145
330
143
100
AcDbEntity
  8
49
 62
     4
420
    65535
370
    25
100
AcDbVertex
100
AcDb2dVertex
 10
86.92646773499679
 20
41.27598794499708
 30
0.0
  0
SEQEND
  5
146
330
143
100
AcDbEntity
  8
49
 62
     4
420
    65535
370
    25
  0
ENDBLK
  5
142
330
13F
100
AcDbEntity
  8
0
100
AcDbBlockEnd
  0
BLOCK
  5
149
330
147
100
AcDbEntity
  8
0
100
AcDbBlockBegin
  2
block 36
 70
     0
 10
0.0
 20
0.0
 30
0.0
  3
block 36
  1

  0
POLYLINE
  5
14B
330
147
100
AcDbEntity
  8
49
 62
     4
420
    65535
370
    25
100
AcDb2dPolyline
 66
     1
 10
0.0
 20
0.0
 30
0.0
  0
VERTEX
  5
14C
330
14B
100
AcDbEntity
  8
49
 62
     4
420
    65535
370
    25
100
AcDbVertex
100
AcDb2dVertex
 10
86.92646773499679
 20
41.27598794499708
 30
0.0
  0
VERTEX
  5
14D
330
14B
100
AcDbEntity
  8
49
 62
     4
420
    65535
370
    25
100
AcDbVertex
100
AcDb2dVertex
 10
88.42646773499683
 20
41.27598794499708
 30
0.0
  0
SEQEND
  5
14E
330
14B
100
AcDbEntity
  8
49
 62
     4
420
    65535
370
    25
  0
ENDBLK
  5
14A
330
147
100
AcDbEntity
  8
0
100
AcDbBlockEnd
  0
BLOCK
  5
151
330
14F
100
AcDbEntity
  8
0
100
AcDbBlockBegin
  2
block 37
 70
     0
 10
0.0
 20
0.0
 30
0.0
  3
block 37
  1

  0
POLYLINE
  5
153
330
14F
100
AcDbEntity
  8
49
 62
     4
420
    65535
370
    25
100
AcDb2dPolyline
 66
     1
 10
0.0
 20
0.0
 30
0.0
  0
VERTEX
  5
154
330
153
100
AcDbEntity
  8
49
 62
     4
420
    65535
370
    25
100
AcDbVertex
100
AcDb2dVertex
 10
88.42646773499683
 20
41.27598794499708
 30
0.0
  0
VERTEX
  5
155
330
153
100
AcDbEntity
  8
49
 62
     4
420
    65535
370
    25
100
AcDbVertex
100
AcDb2dVertex
 10
87.67646773499698
 20
37.27598794499695
 30
0.0
  0
SEQEND
  5
156
330
153
100
AcDbEntity
  8
49
 62
     4
420
    65535
370
    25
  0
ENDBLK
  5
152
330
14F
100
AcDbEntity
  8
0
100
AcDbBlockEnd
  0
BLOCK
  5
159
330
157
100
AcDbEntity
  8
0
100
AcDbBlockBegin
  2
block 38
 70
     0
 10
0.0
 20
0.0
 30
0.0
  3
block 38
  1

  0
POLYLINE
  5
15B
330
157
100
AcDbEntity
  8
49
 62
     4
420
    65535
370
    25
100
AcDb2dPolyline
 66
     1
 10
0.0
 20
0.0
 30
0.0
  0
VERTEX
  5
15C
330
15B
100
AcDbEntity
  8
49
 62
     4
420
    65535
370
    25
100
AcDbVertex
100
AcDb2dVertex
 10
87.67646773499698
 20
41.17598794499676
 30
0.0
  0
VERTEX
  5
15D
330
15B
100
AcDbEntity
  8
49
 62
     4
420
    65535
370
    25
100
AcDbVertex
100
AcDb2dVertex
 10
87.67646773499698
 20
37.37598794499663
 30
0.0
  0
SEQEND
  5
15E
330
15B
100
AcDbEntity
  8
49
 62
     4
420
    65535
370
    25
  0
ENDBLK
  5
15A
330
157
100
AcDbEntity
  8
0
100
AcDbBlockEnd
  0
BLOCK
  5
161
330
15F
100
AcDbEntity
  8
0
100
AcDbBlockBegin
  2
block 39
 70
     0
 10
0.0
 20
0.0
 30
0.0
  3
block 39
  1

  0
POLYLINE
  5
163
330
15F
100
AcDbEntity
  8
49
 62
     4
420
    65535
370
    25
100
AcDb2dPolyline
 66
     1
 10
0.0
 20
0.0
 30
0.0
  0
VERTEX
  5
164
330
163
100
AcDbEntity
  8
49
 62
     4
420
    65535
370
    25
100
AcDbVertex
100
AcDb2dVertex
 10
87.87646773499698
 20
41.17598794499676
 30
0.0
  0
VERTEX
  5
165
330
163
100
AcDbEntity
  8
49
 62
     4
420
    65535
370
    25
100
AcDbVertex
100
AcDb2dVertex
 10
87.87646773499698
 20
38.44265461499696
 30
0.0
  0
SEQEND
  5
166
330
163
100
AcDbEntity
  8
49
 62
     4
420
    65535
370
    25
  0
ENDBLK
  5
162
330
15F
100
AcDbEntity
  8
0
100
AcDbBlockEnd
  0
BLOCK
  5
169
330
167
100
AcDbEntity
  8
0
100
AcDbBlockBegin
  2
block 40
 70
     0
 10
0.0
 20
0.0
 30
0.0
  3
block 40
  1

  0
POLYLINE
  5
16B
330
167
100
AcDbEntity
  8
49
 62
     4
420
    65535
370
    25
100
AcDb2dPolyline
 66
     1
 10
0.0
 20
0.0
 30
0.0
  0
VERTEX
  5
16C
330
16B
100
AcDbEntity
  8
49
 62
     4
420
    65535
370
    25
100
AcDbVertex
100
AcDb2dVertex
 10
87.47646773499696
 20
41.17598794499676
 30
0.0
  0
VERTEX
  5
16D
330
16B
100
AcDbEntity
  8
49
 62
     4
420
    65535
370
    25
100
AcDbVertex
100
AcDb2dVertex
 10
87.47646773499696
 20
38.44265461499696
 30
0.0
  0
SEQEND
  5
16E
330
16B
100
AcDbEntity
  8
49
 62
     4
420
    65535
370
    25
  0
ENDBLK
  5
16A
330
167
100
AcDbEntity
  8
0
100
AcDbBlockEnd
  0
BLOCK
  5
171
330
16F
100
AcDbEntity
  8
0
100
AcDbBlockBegin
  2
block 41
 70
     0
 10
0.0
 20
0.0
 30
0.0
  3
block 41
  1

  0
POLYLINE
  5
173
330
16F
100
AcDbEntity
  8
49
 62
     4
420
    65535
370
    25
100
AcDb2dPolyline
 66
     1
 10
0.0
 20
0.0
 30
0.0
  0
VERTEX
  5
174
330
173
100
AcDbEntity
  8
49
 62
     4
420
    65535
370
    25
100
AcDbVertex
100
AcDb2dVertex
 10
88.07646773499698
 20
41.17598794499676
 30
0.0
  0
VERTEX
  5
175
330
173
100
AcDbEntity
  8
49
 62
     4
420
    65535
370
    25
100
AcDbVertex
100
AcDb2dVertex
 10
88.07646773499698
 20
39.50932127499705
 30
0.0
  0
SEQEND
  5
176
330
173
100
AcDbEntity
  8
49
 62
     4
420
    65535
370
    25
  0
ENDBLK
  5
172
330
16F
100
AcDbEntity
  8
0
100
AcDbBlockEnd
  0
BLOCK
  5
179
330
177
100
AcDbEntity
  8
0
100
AcDbBlockBegin
  2
block 42
 70
     0
 10
0.0
 20
0.0
 30
0.0
  3
block 42
  1

  0
POLYLINE
  5
17B
330
177
100
AcDbEntity
  8
49
 62
     4
420
    65535
370
    25
100
AcDb2dPolyline
 66
     1
 10
0.0
 20
0.0
 30
0.0
  0
VERTEX
  5
17C
330
17B
100
AcDbEntity
  8
49
 62
     4
420
    65535
370
    25
100
AcDbVertex
100
AcDb2dVertex
 10
87.27646773499696
 20
41.17598794499676
 30
0.0
  0
VERTEX
  5
17D
330
17B
100
AcDbEntity
  8
49
 62
     4
420
    65535
370
    25
100
AcDbVertex
100
AcDb2dVertex
 10
87.27646773499696
 20
39.50932127499705
 30
0.0
  0
SEQEND
  5
17E
330
17B
100
AcDbEntity
  8
49
 62
     4
420
    65535
370
    25
  0
ENDBLK
  5
17A
330
177
100
AcDbEntity
  8
0
100
AcDbBlockEnd
  0
BLOCK
  5
181
330
17F
100
AcDbEntity
  8
0
100
AcDbBlockBegin
  2
block 43
 70
     0
 10
0.0
 20
0.0
 30
0.0
  3
block 43
  1

  0
POLYLINE
  5
183
330
17F
100
AcDbEntity
  8
49
 62
     4
420
    65535
370
    25
100
AcDb2dPolyline
 66
     1
 10
0.0
 20
0.0
 30
0.0
  0
VERTEX
  5
184
330
183
100
AcDbEntity
  8
49
 62
     4
420
    65535
370
    25
100
AcDbVertex
100
AcDb2dVertex
 10
88.276467734997
 20
41.17598794499676
 30
0.0
  0
VERTEX
  5
185
330
183
100
AcDbEntity
  8
49
 62
     4
420
    65535
370
    25
100
AcDbVertex
100
AcDb2dVertex
 10
88.276467734997
 20
40.57598794499674
 30
0.0
  0
SEQEND
  5
186
330
183
100
AcDbEntity
  8
49
 62
     4
420
    65535
370
    25
  0
ENDBLK
  5
182
330
17F
100
AcDbEntity
  8
0
100
AcDbBlockEnd
  0
BLOCK
  5
189
330
187
100
AcDbEntity
  8
0
100
AcDbBlockBegin
  2
block 44
 70
     0
 10
0.0
 20
0.0
 30
0.0
  3
block 44
  1

  0
POLYLINE
  5
18B
330
187
100
AcDbEntity
  8
49
 62
     4
420
    65535
370
    25
100
AcDb2dPolyline
 66
     1
 10
0.0
 20
0.0
 30
0.0
  0
VERTEX
  5
18C
330
18B
100
AcDbEntity
  8
49
 62
     4
420
    65535
370
    25
100
AcDbVertex
100
AcDb2dVertex
 10
87.07646773499695
 20
41.17598794499676
 30
0.0
  0
VERTEX
  5
18D
330
18B
100
AcDbEntity
  8
49
 62
     4
420
    65535
370
    25
100
AcDbVertex
100
AcDb2dVertex
 10
87.07646773499695
 20
40.57598794499674
 30
0.0
  0
SEQEND
  5
18E
330
18B
100
AcDbEntity
  8
49
 62
     4
420
    65535
370
    25
  0
ENDBLK
  5
18A
330
187
100
AcDbEntity
  8
0
100
AcDbBlockEnd
  0
BLOCK
  5
191
330
18F
100
AcDbEntity
  8
0
100
AcDbBlockBegin
  2
block 45
 70
     0
 10
0.0
 20
0.0
 30
0.0
  3
block 45
  1

  0
POLYLINE
  5
193
330
18F
100
AcDbEntity
  8
49
 62
     4
420
    65535
370
    25
100
AcDb2dPolyline
 66
     1
 10
0.0
 20
0.0
 30
0.0
  0
VERTEX
  5
194
330
193
100
AcDbEntity
  8
49
 62
     4
420
    65535
370
    25
100
AcDbVertex
100
AcDb2dVertex
 10
89.67646773499705
 20
107.2759879449969
 30
0.0
  0
VERTEX
  5
195
330
193
100
AcDbEntity
  8
49
 62
     4
420
    65535
370
    25
100
AcDbVertex
100
AcDb2dVertex
 10
61.176467734997
 20
107.2759879449969
 30
0.0
  0
SEQEND
  5
196
330
193
100
AcDbEntity
  8
49
 62
     4
420
    65535
370
    25
  0
ENDBLK
  5
192
330
18F
100
AcDbEntity
  8
0
100
AcDbBlockEnd
  0
BLOCK
  5
199
330
197
100
AcDbEntity
  8
0
100
AcDbBlockBegin
  2
block 46
 70
     0
 10
0.0
 20
0.0
 30
0.0
  3
block 46
  1

  0
POLYLINE
  5
19B
330
197
100
AcDbEntity
  8
49
 62
     4
420
    65535
370
    25
100
AcDb2dPolyline
 66
     1
 10
0.0
 20
0.0
 30
0.0
  0
VERTEX
  5
19C
330
19B
100
AcDbEntity
  8
49
 62
     4
420
    65535
370
    25
100
AcDbVertex
100
AcDb2dVertex
 10
87.67646773499698
 20
107.2759879449969
 30
0.0
  0
VERTEX
  5
19D
330
19B
100
AcDbEntity
  8
49
 62
     4
420
    65535
370
    25
100
AcDbVertex
100
AcDb2dVertex
 10
88.42646773499683
 20
103.275987944997
 30
0.0
  0
SEQEND
  5
19E
330
19B
100
AcDbEntity
  8
49
 62
     4
420
    65535
370
    25
  0
ENDBLK
  5
19A
330
197
100
AcDbEntity
  8
0
100
AcDbBlockEnd
  0
BLOCK
  5
1A1
330
19F
100
AcDbEntity
  8
0
100
AcDbBlockBegin
  2
block 47
 70
     0
 10
0.0
 20
0.0
 30
0.0
  3
block 47
  1

  0
POLYLINE
  5
1A3
330
19F
100
AcDbEntity
  8
49
 62
     4
420
    65535
370
    25
100
AcDb2dPolyline
 66
     1
 10
0.0
 20
0.0
 30
0.0
  0
VERTEX
  5
1A4
330
1A3
100
AcDbEntity
  8
49
 62
     4
420
    65535
370
    25
100
AcDbVertex
100
AcDb2dVertex
 10
88.42646773499683
 20
103.275987944997
 30
0.0
  0
VERTEX
  5
1A5
330
1A3
100
AcDbEntity
  8
49
 62
     4
420
    65535
370
    25
100
AcDbVertex
100
AcDb2dVertex
 10
86.92646773499679
 20
103.275987944997
 30
0.0
  0
SEQEND
  5
1A6
330
1A3
100
AcDbEntity
  8
49
 62
     4
420
    65535
370
    25
  0
ENDBLK
  5
1A2
330
19F
100
AcDbEntity
  8
0
100
AcDbBlockEnd
  0
BLOCK
  5
1A9
330
1A7
100
AcDbEntity
  8
0
100
AcDbBlockBegin
  2
block 48
 70
     0
 10
0.0
 20
0.0
 30
0.0
  3
block 48
  1

  0
POLYLINE
  5
1AB
330
1A7
100
AcDbEntity
  8
49
 62
     4
420
    65535
370
    25
100
AcDb2dPolyline
 66
     1
 10
0.0
 20
0.0
 30
0.0
  0
VERTEX
  5
1AC
330
1AB
100
AcDbEntity
  8
49
 62
     4
420
    65535
370
    25
100
AcDbVertex
100
AcDb2dVertex
 10
86.92646773499679
 20
103.275987944997
 30
0.0
  0
VERTEX
  5
1AD
330
1AB
100
AcDbEntity
  8
49
 62
     4
420
    65535
370
    25
100
AcDbVertex
100
AcDb2dVertex
 10
87.67646773499698
 20
107.2759879449969
 30
0.0
  0
SEQEND
  5
1AE
330
1AB
100
AcDbEntity
  8
49
 62
     4
420
    65535
370
    25
  0
ENDBLK
  5
1AA
330
1A7
100
AcDbEntity
  8
0
100
AcDbBlockEnd
  0
BLOCK
  5
1B1
330
1AF
100
AcDbEntity
  8
0
100
AcDbBlockBegin
  2
block 49
 70
     0
 10
0.0
 20
0.0
 30
0.0
  3
block 49
  1

  0
POLYLINE
  5
1B3
330
1AF
100
AcDbEntity
  8
49
 62
     4
420
    65535
370
    25
100
AcDb2dPolyline
 66
     1
 10
0.0
 20
0.0
 30
0.0
  0
VERTEX
  5
1B4
330
1B3
100
AcDbEntity
  8
49
 62
     4
420
    65535
370
    25
100
AcDbVertex
100
AcDb2dVertex
 10
87.67646773499698
 20
103.375987944997
 30
0.0
  0
VERTEX
  5
1B5
330
1B3
100
AcDbEntity
  8
49
 62
     4
420
    65535
370
    25
100
AcDbVertex
100
AcDb2dVertex
 10
87.67646773499698
 20
107.1759879449968
 30
0.0
  0
SEQEND
  5
1B6
330
1B3
100
AcDbEntity
  8
49
 62
     4
420
    65535
370
    25
  0
ENDBLK
  5
1B2
330
1AF
100
AcDbEntity
  8
0
100
AcDbBlockEnd
  0
BLOCK
  5
1B9
330
1B7
100
AcDbEntity
  8
0
100
AcDbBlockBegin
  2
block 50
 70
     0
 10
0.0
 20
0.0
 30
0.0
  3
block 50
  1

  0
POLYLINE
  5
1BB
330
1B7
100
AcDbEntity
  8
49
 62
     4
420
    65535
370
    25
100
AcDb2dPolyline
 66
     1
 10
0.0
 20
0.0
 30
0.0
  0
VERTEX
  5
1BC
330
1BB
100
AcDbEntity
  8
49
 62
     4
420
    65535
370
    25
100
AcDbVertex
100
AcDb2dVertex
 10
87.47646773499696
 20
103.375987944997
 30
0.0
  0
VERTEX
  5
1BD
330
1BB
100
AcDbEntity
  8
49
 62
     4
420
    65535
370
    25
100
AcDbVertex
100
AcDb2dVertex
 10
87.47646773499696
 20
106.1093212749968
 30
0.0
  0
SEQEND
  5
1BE
330
1BB
100
AcDbEntity
  8
49
 62
     4
420
    65535
370
    25
  0
ENDBLK
  5
1BA
330
1B7
100
AcDbEntity
  8
0
100
AcDbBlockEnd
  0
BLOCK
  5
1C1
330
1BF
100
AcDbEntity
  8
0
100
AcDbBlockBegin
  2
block 51
 70
     0
 10
0.0
 20
0.0
 30
0.0
  3
block 51
  1

  0
POLYLINE
  5
1C3
330
1BF
100
AcDbEntity
  8
49
 62
     4
420
    65535
370
    25
100
AcDb2dPolyline
 66
     1
 10
0.0
 20
0.0
 30
0.0
  0
VERTEX
  5
1C4
330
1C3
100
AcDbEntity
  8
49
 62
     4
420
    65535
370
    25
100
AcDbVertex
100
AcDb2dVertex
 10
87.87646773499698
 20
103.375987944997
 30
0.0
  0
VERTEX
  5
1C5
330
1C3
100
AcDbEntity
  8
49
 62
     4
420
    65535
370
    25
100
AcDbVertex
100
AcDb2dVertex
 10
87.87646773499698
 20
106.1093212749968
 30
0.0
  0
SEQEND
  5
1C6
330
1C3
100
AcDbEntity
  8
49
 62
     4
420
    65535
370
    25
  0
ENDBLK
  5
1C2
330
1BF
100
AcDbEntity
  8
0
100
AcDbBlockEnd
  0
BLOCK
  5
1C9
330
1C7
100
AcDbEntity
  8
0
100
AcDbBlockBegin
  2
block 52
 70
     0
 10
0.0
 20
0.0
 30
0.0
  3
block 52
  1

  0
POLYLINE
  5
1CB
330
1C7
100
AcDbEntity
  8
49
 62
     4
420
    65535
370
    25
100
AcDb2dPolyline
 66
     1
 10
0.0
 20
0.0
 30
0.0
  0
VERTEX
  5
1CC
330
1CB
100
AcDbEntity
  8
49
 62
     4
420
    65535
370
    25
100
AcDbVertex
100
AcDb2dVertex
 10
87.27646773499696
 20
103.375987944997
 30
0.0
  0
VERTEX
  5
1CD
330
1CB
100
AcDbEntity
  8
49
 62
     4
420
    65535
370
    25
100
AcDbVertex
100
AcDb2dVertex
 10
87.27646773499696
 20
105.0426546149971
 30
0.0
  0
SEQEND
  5
1CE
330
1CB
100
AcDbEntity
  8
49
 62
     4
420
    65535
370
    25
  0
ENDBLK
  5
1CA
330
1C7
100
AcDbEntity
  8
0
100
AcDbBlockEnd
  0
BLOCK
  5
1D1
330
1CF
100
AcDbEntity
  8
0
100
AcDbBlockBegin
  2
block 53
 70
     0
 10
0.0
 20
0.0
 30
0.0
  3
block 53
  1

  0
POLYLINE
  5
1D3
330
1CF
100
AcDbEntity
  8
49
 62
     4
420
    65535
370
    25
100
AcDb2dPolyline
 66
     1
 10
0.0
 20
0.0
 30
0.0
  0
VERTEX
  5
1D4
330
1D3
100
AcDbEntity
  8
49
 62
     4
420
    65535
370
    25
100
AcDbVertex
100
AcDb2dVertex
 10
88.07646773499698
 20
103.375987944997
 30
0.0
  0
VERTEX
  5
1D5
330
1D3
100
AcDbEntity
  8
49
 62
     4
420
    65535
370
    25
100
AcDbVertex
100
AcDb2dVertex
 10
88.07646773499698
 20
105.0426546149971
 30
0.0
  0
SEQEND
  5
1D6
330
1D3
100
AcDbEntity
  8
49
 62
     4
420
    65535
370
    25
  0
ENDBLK
  5
1D2
330
1CF
100
AcDbEntity
  8
0
100
AcDbBlockEnd
  0
BLOCK
  5
1D9
330
1D7
100
AcDbEntity
  8
0
100
AcDbBlockBegin
  2
block 54
 70
     0
 10
0.0
 20
0.0
 30
0.0
  3
block 54
  1

  0
POLYLINE
  5
1DB
330
1D7
100
AcDbEntity
  8
49
 62
     4
420
    65535
370
    25
100
AcDb2dPolyline
 66
     1
 10
0.0
 20
0.0
 30
0.0
  0
VERTEX
  5
1DC
330
1DB
100
AcDbEntity
  8
49
 62
     4
420
    65535
370
    25
100
AcDbVertex
100
AcDb2dVertex
 10
87.07646773499695
 20
103.375987944997
 30
0.0
  0
VERTEX
  5
1DD
330
1DB
100
AcDbEntity
  8
49
 62
     4
420
    65535
370
    25
100
AcDbVertex
100
AcDb2dVertex
 10
87.07646773499695
 20
103.9759879449971
 30
0.0
  0
SEQEND
  5
1DE
330
1DB
100
AcDbEntity
  8
49
 62
     4
420
    65535
370
    25
  0
ENDBLK
  5
1DA
330
1D7
100
AcDbEntity
  8
0
100
AcDbBlockEnd
  0
BLOCK
  5
1E1
330
1DF
100
AcDbEntity
  8
0
100
AcDbBlockBegin
  2
block 55
 70
     0
 10
0.0
 20
0.0
 30
0.0
  3
block 55
  1

  0
POLYLINE
  5
1E3
330
1DF
100
AcDbEntity
  8
49
 62
     4
420
    65535
370
    25
100
AcDb2dPolyline
 66
     1
 10
0.0
 20
0.0
 30
0.0
  0
VERTEX
  5
1E4
330
1E3
100
AcDbEntity
  8
49
 62
     4
420
    65535
370
    25
100
AcDbVertex
100
AcDb2dVertex
 10
88.276467734997
 20
103.375987944997
 30
0.0
  0
VERTEX
  5
1E5
330
1E3
100
AcDbEntity
  8
49
 62
     4
420
    65535
370
    25
100
AcDbVertex
100
AcDb2dVertex
 10
88.276467734997
 20
103.9759879449971
 30
0.0
  0
SEQEND
  5
1E6
330
1E3
100
AcDbEntity
  8
49
 62
     4
420
    65535
370
    25
  0
ENDBLK
  5
1E2
330
1DF
100
AcDbEntity
  8
0
100
AcDbBlockEnd
  0
BLOCK
  5
1E9
330
1E7
100
AcDbEntity
  8
0
100
AcDbBlockBegin
  2
block 56
 70
     0
 10
0.0
 20
0.0
 30
0.0
  3
block 56
  1

  0
POLYLINE
  5
1EB
330
1E7
100
AcDbEntity
  8
49
 62
     4
420
    65535
370
    25
100
AcDb2dPolyline
 66
     1
 10
0.0
 20
0.0
 30
0.0
  0
VERTEX
  5
1EC
330
1EB
100
AcDbEntity
  8
49
 62
     4
420
    65535
370
    25
100
AcDbVertex
100
AcDb2dVertex
 10
87.67646773499698
 20
41.27598794499708
 30
0.0
  0
VERTEX
  5
1ED
330
1EB
100
AcDbEntity
  8
49
 62
     4
420
    65535
370
    25
100
AcDbVertex
100
AcDb2dVertex
 10
87.67646773499698
 20
103.275987944997
 30
0.0
  0
SEQEND
  5
1EE
330
1EB
100
AcDbEntity
  8
49
 62
     4
420
    65535
370
    25
  0
ENDBLK
  5
1EA
330
1E7
100
AcDbEntity
  8
0
100
AcDbBlockEnd
  0
BLOCK
  5
1F1
330
1EF
100
AcDbEntity
  8
0
100
AcDbBlockBegin
  2
block 57
 70
     0
 10
0.0
 20
0.0
 30
0.0
  3
block 57
  1

  0
MTEXT
  5
1F3
330
1EF
100
AcDbEntity
  8
49
 62
     2
420
 16776960
100
AcDbMText
 10
86.17646897598735
 20
69.67395560324124
 30
0.0
 40
3.499999953157898
 41
0.0
 46
0.0
 71
     7
 72
     1
  1
\fMyriad Pro|b0|i0|c0|p34;\W0.812;70
 11
6.123233995736766E-17
 21
1.0
 31
0.0
 73
     1
 44
1.0
  0
ENDBLK
  5
1F2
330
1EF
100
AcDbEntity
  8
0
100
AcDbBlockEnd
  0
BLOCK
  5
1F6
330
1F4
100
AcDbEntity
  8
0
100
AcDbBlockBegin
  2
block 58
 70
     0
 10
0.0
 20
0.0
 30
0.0
  3
block 58
  1

  0
POLYLINE
  5
1F8
330
1F4
100
AcDbEntity
  8
49
 62
     4
420
    65535
370
    25
100
AcDb2dPolyline
 66
     1
 10
0.0
 20
0.0
 30
0.0
  0
VERTEX
  5
1F9
330
1F8
100
AcDbEntity
  8
49
 62
     4
420
    65535
370
    25
100
AcDbVertex
100
AcDb2dVertex
 10
49.92646773499676
 20
57.27598794499701
 30
0.0
  0
VERTEX
  5
1FA
330
1F8
100
AcDbEntity
  8
49
 62
     4
420
    65535
370
    25
100
AcDbVertex
100
AcDb2dVertex
 10
49.92646773499676
 20
79.27598794499714
 30
0.0
  0
SEQEND
  5
1FB
330
1F8
100
AcDbEntity
  8
49
 62
     4
420
    65535
370
    25
  0
ENDBLK
  5
1F7
330
1F4
100
AcDbEntity
  8
0
100
AcDbBlockEnd
  0
BLOCK
  5
1FE
330
1FC
100
AcDbEntity
  8
0
100
AcDbBlockBegin
  2
block 59
 70
     0
 10
0.0
 20
0.0
 30
0.0
  3
block 59
  1

  0
POLYLINE
  5
200
330
1FC
100
AcDbEntity
  8
49
 62
     4
420
    65535
370
    25
100
AcDb2dPolyline
 66
     1
 10
0.0
 20
0.0
 30
0.0
  0
VERTEX
  5
201
330
200
100
AcDbEntity
  8
49
 62
     4
420
    65535
370
    25
100
AcDbVertex
100
AcDb2dVertex
 10
49.92646773499676
 20
59.27598794499708
 30
0.0
  0
VERTEX
  5
202
330
200
100
AcDbEntity
  8
49
 62
     4
420
    65535
370
    25
100
AcDbVertex
100
AcDb2dVertex
 10
53.9264677349969
 20
60.02598794499695
 30
0.0
  0
SEQEND
  5
203
330
200
100
AcDbEntity
  8
49
 62
     4
420
    65535
370
    25
  0
ENDBLK
  5
1FF
330
1FC
100
AcDbEntity
  8
0
100
AcDbBlockEnd
  0
BLOCK
  5
206
330
204
100
AcDbEntity
  8
0
100
AcDbBlockBegin
  2
block 60
 70
     0
 10
0.0
 20
0.0
 30
0.0
  3
block 60
  1

  0
POLYLINE
  5
208
330
204
100
AcDbEntity
  8
49
 62
     4
420
    65535
370
    25
100
AcDb2dPolyline
 66
     1
 10
0.0
 20
0.0
 30
0.0
  0
VERTEX
  5
209
330
208
100
AcDbEntity
  8
49
 62
     4
420
    65535
370
    25
100
AcDbVertex
100
AcDb2dVertex
 10
53.9264677349969
 20
60.02598794499695
 30
0.0
  0
VERTEX
  5
20A
330
208
100
AcDbEntity
  8
49
 62
     4
420
    65535
370
    25
100
AcDbVertex
100
AcDb2dVertex
 10
53.9264677349969
 20
58.52598794499721
 30
0.0
  0
SEQEND
  5
20B
330
208
100
AcDbEntity
  8
49
 62
     4
420
    65535
370
    25
  0
ENDBLK
  5
207
330
204
100
AcDbEntity
  8
0
100
AcDbBlockEnd
  0
BLOCK
  5
20E
330
20C
100
AcDbEntity
  8
0
100
AcDbBlockBegin
  2
block 61
 70
     0
 10
0.0
 20
0.0
 30
0.0
  3
block 61
  1

  0
POLYLINE
  5
210
330
20C
100
AcDbEntity
  8
49
 62
     4
420
    65535
370
    25
100
AcDb2dPolyline
 66
     1
 10
0.0
 20
0.0
 30
0.0
  0
VERTEX
  5
211
330
210
100
AcDbEntity
  8
49
 62
     4
420
    65535
370
    25
100
AcDbVertex
100
AcDb2dVertex
 10
53.9264677349969
 20
58.52598794499721
 30
0.0
  0
VERTEX
  5
212
330
210
100
AcDbEntity
  8
49
 62
     4
420
    65535
370
    25
100
AcDbVertex
100
AcDb2dVertex
 10
49.92646773499676
 20
59.27598794499708
 30
0.0
  0
SEQEND
  5
213
330
210
100
AcDbEntity
  8
49
 62
     4
420
    65535
370
    25
  0
ENDBLK
  5
20F
330
20C
100
AcDbEntity
  8
0
100
AcDbBlockEnd
  0
BLOCK
  5
216
330
214
100
AcDbEntity
  8
0
100
AcDbBlockBegin
  2
block 62
 70
     0
 10
0.0
 20
0.0
 30
0.0
  3
block 62
  1

  0
POLYLINE
  5
218
330
214
100
AcDbEntity
  8
49
 62
     4
420
    65535
370
    25
100
AcDb2dPolyline
 66
     1
 10
0.0
 20
0.0
 30
0.0
  0
VERTEX
  5
219
330
218
100
AcDbEntity
  8
49
 62
     4
420
    65535
370
    25
100
AcDbVertex
100
AcDb2dVertex
 10
53.8264677349969
 20
59.27598794499708
 30
0.0
  0
VERTEX
  5
21A
330
218
100
AcDbEntity
  8
49
 62
     4
420
    65535
370
    25
100
AcDbVertex
100
AcDb2dVertex
 10
50.02646773499676
 20
59.27598794499708
 30
0.0
  0
SEQEND
  5
21B
330
218
100
AcDbEntity
  8
49
 62
     4
420
    65535
370
    25
  0
ENDBLK
  5
217
330
214
100
AcDbEntity
  8
0
100
AcDbBlockEnd
  0
BLOCK
  5
21E
330
21C
100
AcDbEntity
  8
0
100
AcDbBlockBegin
  2
block 63
 70
     0
 10
0.0
 20
0.0
 30
0.0
  3
block 63
  1

  0
POLYLINE
  5
220
330
21C
100
AcDbEntity
  8
49
 62
     4
420
    65535
370
    25
100
AcDb2dPolyline
 66
     1
 10
0.0
 20
0.0
 30
0.0
  0
VERTEX
  5
221
330
220
100
AcDbEntity
  8
49
 62
     4
420
    65535
370
    25
100
AcDbVertex
100
AcDb2dVertex
 10
53.8264677349969
 20
59.07598794499707
 30
0.0
  0
VERTEX
  5
222
330
220
100
AcDbEntity
  8
49
 62
     4
420
    65535
370
    25
100
AcDbVertex
100
AcDb2dVertex
 10
51.09313440499677
 20
59.07598794499707
 30
0.0
  0
SEQEND
  5
223
330
220
100
AcDbEntity
  8
49
 62
     4
420
    65535
370
    25
  0
ENDBLK
  5
21F
330
21C
100
AcDbEntity
  8
0
100
AcDbBlockEnd
  0
BLOCK
  5
226
330
224
100
AcDbEntity
  8
0
100
AcDbBlockBegin
  2
block 64
 70
     0
 10
0.0
 20
0.0
 30
0.0
  3
block 64
  1

  0
POLYLINE
  5
228
330
224
100
AcDbEntity
  8
49
 62
     4
420
    65535
370
    25
100
AcDb2dPolyline
 66
     1
 10
0.0
 20
0.0
 30
0.0
  0
VERTEX
  5
229
330
228
100
AcDbEntity
  8
49
 62
     4
420
    65535
370
    25
100
AcDbVertex
100
AcDb2dVertex
 10
53.8264677349969
 20
59.47598794499709
 30
0.0
  0
VERTEX
  5
22A
330
228
100
AcDbEntity
  8
49
 62
     4
420
    65535
370
    25
100
AcDbVertex
100
AcDb2dVertex
 10
51.09313440499677
 20
59.47598794499709
 30
0.0
  0
SEQEND
  5
22B
330
228
100
AcDbEntity
  8
49
 62
     4
420
    65535
370
    25
  0
ENDBLK
  5
227
330
224
100
AcDbEntity
  8
0
100
AcDbBlockEnd
  0
BLOCK
  5
22E
330
22C
100
AcDbEntity
  8
0
100
AcDbBlockBegin
  2
block 65
 70
     0
 10
0.0
 20
0.0
 30
0.0
  3
block 65
  1

  0
POLYLINE
  5
230
330
22C
100
AcDbEntity
  8
49
 62
     4
420
    65535
370
    25
100
AcDb2dPolyline
 66
     1
 10
0.0
 20
0.0
 30
0.0
  0
VERTEX
  5
231
330
230
100
AcDbEntity
  8
49
 62
     4
420
    65535
370
    25
100
AcDbVertex
100
AcDb2dVertex
 10
53.8264677349969
 20
58.87598794499706
 30
0.0
  0
VERTEX
  5
232
330
230
100
AcDbEntity
  8
49
 62
     4
420
    65535
370
    25
100
AcDbVertex
100
AcDb2dVertex
 10
52.15980107499679
 20
58.87598794499706
 30
0.0
  0
SEQEND
  5
233
330
230
100
AcDbEntity
  8
49
 62
     4
420
    65535
370
    25
  0
ENDBLK
  5
22F
330
22C
100
AcDbEntity
  8
0
100
AcDbBlockEnd
  0
BLOCK
  5
236
330
234
100
AcDbEntity
  8
0
100
AcDbBlockBegin
  2
block 66
 70
     0
 10
0.0
 20
0.0
 30
0.0
  3
block 66
  1

  0
POLYLINE
  5
238
330
234
100
AcDbEntity
  8
49
 62
     4
420
    65535
370
    25
100
AcDb2dPolyline
 66
     1
 10
0.0
 20
0.0
 30
0.0
  0
VERTEX
  5
239
330
238
100
AcDbEntity
  8
49
 62
     4
420
    65535
370
    25
100
AcDbVertex
100
AcDb2dVertex
 10
53.8264677349969
 20
59.6759879449971
 30
0.0
  0
VERTEX
  5
23A
330
238
100
AcDbEntity
  8
49
 62
     4
420
    65535
370
    25
100
AcDbVertex
100
AcDb2dVertex
 10
52.15980107499679
 20
59.6759879449971
 30
0.0
  0
SEQEND
  5
23B
330
238
100
AcDbEntity
  8
49
 62
     4
420
    65535
370
    25
  0
ENDBLK
  5
237
330
234
100
AcDbEntity
  8
0
100
AcDbBlockEnd
  0
BLOCK
  5
23E
330
23C
100
AcDbEntity
  8
0
100
AcDbBlockBegin
  2
block 67
 70
     0
 10
0.0
 20
0.0
 30
0.0
  3
block 67
  1

  0
POLYLINE
  5
240
330
23C
100
AcDbEntity
  8
49
 62
     4
420
    65535
370
    25
100
AcDb2dPolyline
 66
     1
 10
0.0
 20
0.0
 30
0.0
  0
VERTEX
  5
241
330
240
100
AcDbEntity
  8
49
 62
     4
420
    65535
370
    25
100
AcDbVertex
100
AcDb2dVertex
 10
53.8264677349969
 20
58.67598794499706
 30
0.0
  0
VERTEX
  5
242
330
240
100
AcDbEntity
  8
49
 62
     4
420
    65535
370
    25
100
AcDbVertex
100
AcDb2dVertex
 10
53.22646773499688
 20
58.67598794499706
 30
0.0
  0
SEQEND
  5
243
330
240
100
AcDbEntity
  8
49
 62
     4
420
    65535
370
    25
  0
ENDBLK
  5
23F
330
23C
100
AcDbEntity
  8
0
100
AcDbBlockEnd
  0
BLOCK
  5
246
330
244
100
AcDbEntity
  8
0
100
AcDbBlockBegin
  2
block 68
 70
     0
 10
0.0
 20
0.0
 30
0.0
  3
block 68
  1

  0
POLYLINE
  5
248
330
244
100
AcDbEntity
  8
49
 62
     4
420
    65535
370
    25
100
AcDb2dPolyline
 66
     1
 10
0.0
 20
0.0
 30
0.0
  0
VERTEX
  5
249
330
248
100
AcDbEntity
  8
49
 62
     4
420
    65535
370
    25
100
AcDbVertex
100
AcDb2dVertex
 10
53.8264677349969
 20
59.8759879449971
 30
0.0
  0
VERTEX
  5
24A
330
248
100
AcDbEntity
  8
49
 62
     4
420
    65535
370
    25
100
AcDbVertex
100
AcDb2dVertex
 10
53.22646773499688
 20
59.8759879449971
 30
0.0
  0
SEQEND
  5
24B
330
248
100
AcDbEntity
  8
49
 62
     4
420
    65535
370
    25
  0
ENDBLK
  5
247
330
244
100
AcDbEntity
  8
0
100
AcDbBlockEnd
  0
BLOCK
  5
24E
330
24C
100
AcDbEntity
  8
0
100
AcDbBlockBegin
  2
block 69
 70
     0
 10
0.0
 20
0.0
 30
0.0
  3
block 69
  1

  0
POLYLINE
  5
250
330
24C
100
AcDbEntity
  8
49
 62
     4
420
    65535
370
    25
100
AcDb2dPolyline
 66
     1
 10
0.0
 20
0.0
 30
0.0
  0
VERTEX
  5
251
330
250
100
AcDbEntity
  8
49
 62
     4
420
    65535
370
    25
100
AcDbVertex
100
AcDb2dVertex
 10
72.42646773499692
 20
57.27598794499701
 30
0.0
  0
VERTEX
  5
252
330
250
100
AcDbEntity
  8
49
 62
     4
420
    65535
370
    25
100
AcDbVertex
100
AcDb2dVertex
 10
72.42646773499692
 20
79.27598794499714
 30
0.0
  0
SEQEND
  5
253
330
250
100
AcDbEntity
  8
49
 62
     4
420
    65535
370
    25
  0
ENDBLK
  5
24F
330
24C
100
AcDbEntity
  8
0
100
AcDbBlockEnd
  0
BLOCK
  5
256
330
254
100
AcDbEntity
  8
0
100
AcDbBlockBegin
  2
block 70
 70
     0
 10
0.0
 20
0.0
 30
0.0
  3
block 70
  1

  0
POLYLINE
  5
258
330
254
100
AcDbEntity
  8
49
 62
     4
420
    65535
370
    25
100
AcDb2dPolyline
 66
     1
 10
0.0
 20
0.0
 30
0.0
  0
VERTEX
  5
259
330
258
100
AcDbEntity
  8
49
 62
     4
420
    65535
370
    25
100
AcDbVertex
100
AcDb2dVertex
 10
72.42646773499692
 20
59.27598794499708
 30
0.0
  0
VERTEX
  5
25A
330
258
100
AcDbEntity
  8
49
 62
     4
420
    65535
370
    25
100
AcDbVertex
100
AcDb2dVertex
 10
68.42646773499678
 20
58.52598794499721
 30
0.0
  0
SEQEND
  5
25B
330
258
100
AcDbEntity
  8
49
 62
     4
420
    65535
370
    25
  0
ENDBLK
  5
257
330
254
100
AcDbEntity
  8
0
100
AcDbBlockEnd
  0
BLOCK
  5
25E
330
25C
100
AcDbEntity
  8
0
100
AcDbBlockBegin
  2
block 71
 70
     0
 10
0.0
 20
0.0
 30
0.0
  3
block 71
  1

  0
POLYLINE
  5
260
330
25C
100
AcDbEntity
  8
49
 62
     4
420
    65535
370
    25
100
AcDb2dPolyline
 66
     1
 10
0.0
 20
0.0
 30
0.0
  0
VERTEX
  5
261
330
260
100
AcDbEntity
  8
49
 62
     4
420
    65535
370
    25
100
AcDbVertex
100
AcDb2dVertex
 10
68.42646773499678
 20
58.52598794499721
 30
0.0
  0
VERTEX
  5
262
330
260
100
AcDbEntity
  8
49
 62
     4
420
    65535
370
    25
100
AcDbVertex
100
AcDb2dVertex
 10
68.42646773499678
 20
60.02598794499695
 30
0.0
  0
SEQEND
  5
263
330
260
100
AcDbEntity
  8
49
 62
     4
420
    65535
370
    25
  0
ENDBLK
  5
25F
330
25C
100
AcDbEntity
  8
0
100
AcDbBlockEnd
  0
BLOCK
  5
266
330
264
100
AcDbEntity
  8
0
100
AcDbBlockBegin
  2
block 72
 70
     0
 10
0.0
 20
0.0
 30
0.0
  3
block 72
  1

  0
POLYLINE
  5
268
330
264
100
AcDbEntity
  8
49
 62
     4
420
    65535
370
    25
100
AcDb2dPolyline
 66
     1
 10
0.0
 20
0.0
 30
0.0
  0
VERTEX
  5
269
330
268
100
AcDbEntity
  8
49
 62
     4
420
    65535
370
    25
100
AcDbVertex
100
AcDb2dVertex
 10
68.42646773499678
 20
60.02598794499695
 30
0.0
  0
VERTEX
  5
26A
330
268
100
AcDbEntity
  8
49
 62
     4
420
    65535
370
    25
100
AcDbVertex
100
AcDb2dVertex
 10
72.42646773499692
 20
59.27598794499708
 30
0.0
  0
SEQEND
  5
26B
330
268
100
AcDbEntity
  8
49
 62
     4
420
    65535
370
    25
  0
ENDBLK
  5
267
330
264
100
AcDbEntity
  8
0
100
AcDbBlockEnd
  0
BLOCK
  5
26E
330
26C
100
AcDbEntity
  8
0
100
AcDbBlockBegin
  2
block 73
 70
     0
 10
0.0
 20
0.0
 30
0.0
  3
block 73
  1

  0
POLYLINE
  5
270
330
26C
100
AcDbEntity
  8
49
 62
     4
420
    65535
370
    25
100
AcDb2dPolyline
 66
     1
 10
0.0
 20
0.0
 30
0.0
  0
VERTEX
  5
271
330
270
100
AcDbEntity
  8
49
 62
     4
420
    65535
370
    25
100
AcDbVertex
100
AcDb2dVertex
 10
68.52646773499677
 20
59.27598794499708
 30
0.0
  0
VERTEX
  5
272
330
270
100
AcDbEntity
  8
49
 62
     4
420
    65535
370
    25
100
AcDbVertex
100
AcDb2dVertex
 10
72.32646773499691
 20
59.27598794499708
 30
0.0
  0
SEQEND
  5
273
330
270
100
AcDbEntity
  8
49
 62
     4
420
    65535
370
    25
  0
ENDBLK
  5
26F
330
26C
100
AcDbEntity
  8
0
100
AcDbBlockEnd
  0
BLOCK
  5
276
330
274
100
AcDbEntity
  8
0
100
AcDbBlockBegin
  2
block 74
 70
     0
 10
0.0
 20
0.0
 30
0.0
  3
block 74
  1

  0
POLYLINE
  5
278
330
274
100
AcDbEntity
  8
49
 62
     4
420
    65535
370
    25
100
AcDb2dPolyline
 66
     1
 10
0.0
 20
0.0
 30
0.0
  0
VERTEX
  5
279
330
278
100
AcDbEntity
  8
49
 62
     4
420
    65535
370
    25
100
AcDbVertex
100
AcDb2dVertex
 10
68.52646773499677
 20
59.47598794499709
 30
0.0
  0
VERTEX
  5
27A
330
278
100
AcDbEntity
  8
49
 62
     4
420
    65535
370
    25
100
AcDbVertex
100
AcDb2dVertex
 10
71.25980107499682
 20
59.47598794499709
 30
0.0
  0
SEQEND
  5
27B
330
278
100
AcDbEntity
  8
49
 62
     4
420
    65535
370
    25
  0
ENDBLK
  5
277
330
274
100
AcDbEntity
  8
0
100
AcDbBlockEnd
  0
BLOCK
  5
27E
330
27C
100
AcDbEntity
  8
0
100
AcDbBlockBegin
  2
block 75
 70
     0
 10
0.0
 20
0.0
 30
0.0
  3
block 75
  1

  0
POLYLINE
  5
280
330
27C
100
AcDbEntity
  8
49
 62
     4
420
    65535
370
    25
100
AcDb2dPolyline
 66
     1
 10
0.0
 20
0.0
 30
0.0
  0
VERTEX
  5
281
330
280
100
AcDbEntity
  8
49
 62
     4
420
    65535
370
    25
100
AcDbVertex
100
AcDb2dVertex
 10
68.52646773499677
 20
59.07598794499707
 30
0.0
  0
VERTEX
  5
282
330
280
100
AcDbEntity
  8
49
 62
     4
420
    65535
370
    25
100
AcDbVertex
100
AcDb2dVertex
 10
71.25980107499682
 20
59.07598794499707
 30
0.0
  0
SEQEND
  5
283
330
280
100
AcDbEntity
  8
49
 62
     4
420
    65535
370
    25
  0
ENDBLK
  5
27F
330
27C
100
AcDbEntity
  8
0
100
AcDbBlockEnd
  0
BLOCK
  5
286
330
284
100
AcDbEntity
  8
0
100
AcDbBlockBegin
  2
block 76
 70
     0
 10
0.0
 20
0.0
 30
0.0
  3
block 76
  1

  0
POLYLINE
  5
288
330
284
100
AcDbEntity
  8
49
 62
     4
420
    65535
370
    25
100
AcDb2dPolyline
 66
     1
 10
0.0
 20
0.0
 30
0.0
  0
VERTEX
  5
289
330
288
100
AcDbEntity
  8
49
 62
     4
420
    65535
370
    25
100
AcDbVertex
100
AcDb2dVertex
 10
68.52646773499677
 20
59.6759879449971
 30
0.0
  0
VERTEX
  5
28A
330
288
100
AcDbEntity
  8
49
 62
     4
420
    65535
370
    25
100
AcDbVertex
100
AcDb2dVertex
 10
70.19313440499681
 20
59.6759879449971
 30
0.0
  0
SEQEND
  5
28B
330
288
100
AcDbEntity
  8
49
 62
     4
420
    65535
370
    25
  0
ENDBLK
  5
287
330
284
100
AcDbEntity
  8
0
100
AcDbBlockEnd
  0
BLOCK
  5
28E
330
28C
100
AcDbEntity
  8
0
100
AcDbBlockBegin
  2
block 77
 70
     0
 10
0.0
 20
0.0
 30
0.0
  3
block 77
  1

  0
POLYLINE
  5
290
330
28C
100
AcDbEntity
  8
49
 62
     4
420
    65535
370
    25
100
AcDb2dPolyline
 66
     1
 10
0.0
 20
0.0
 30
0.0
  0
VERTEX
  5
291
330
290
100
AcDbEntity
  8
49
 62
     4
420
    65535
370
    25
100
AcDbVertex
100
AcDb2dVertex
 10
68.52646773499677
 20
58.87598794499706
 30
0.0
  0
VERTEX
  5
292
330
290
100
AcDbEntity
  8
49
 62
     4
420
    65535
370
    25
100
AcDbVertex
100
AcDb2dVertex
 10
70.19313440499681
 20
58.87598794499706
 30
0.0
  0
SEQEND
  5
293
330
290
100
AcDbEntity
  8
49
 62
     4
420
    65535
370
    25
  0
ENDBLK
  5
28F
330
28C
100
AcDbEntity
  8
0
100
AcDbBlockEnd
  0
BLOCK
  5
296
330
294
100
AcDbEntity
  8
0
100
AcDbBlockBegin
  2
block 78
 70
     0
 10
0.0
 20
0.0
 30
0.0
  3
block 78
  1

  0
POLYLINE
  5
298
330
294
100
AcDbEntity
  8
49
 62
     4
420
    65535
370
    25
100
AcDb2dPolyline
 66
     1
 10
0.0
 20
0.0
 30
0.0
  0
VERTEX
  5
299
330
298
100
AcDbEntity
  8
49
 62
     4
420
    65535
370
    25
100
AcDbVertex
100
AcDb2dVertex
 10
68.52646773499677
 20
59.8759879449971
 30
0.0
  0
VERTEX
  5
29A
330
298
100
AcDbEntity
  8
49
 62
     4
420
    65535
370
    25
100
AcDbVertex
100
AcDb2dVertex
 10
69.1264677349968
 20
59.8759879449971
 30
0.0
  0
SEQEND
  5
29B
330
298
100
AcDbEntity
  8
49
 62
     4
420
    65535
370
    25
  0
ENDBLK
  5
297
330
294
100
AcDbEntity
  8
0
100
AcDbBlockEnd
  0
BLOCK
  5
29E
330
29C
100
AcDbEntity
  8
0
100
AcDbBlockBegin
  2
block 79
 70
     0
 10
0.0
 20
0.0
 30
0.0
  3
block 79
  1

  0
POLYLINE
  5
2A0
330
29C
100
AcDbEntity
  8
49
 62
     4
420
    65535
370
    25
100
AcDb2dPolyline
 66
     1
 10
0.0
 20
0.0
 30
0.0
  0
VERTEX
  5
2A1
330
2A0
100
AcDbEntity
  8
49
 62
     4
420
    65535
370
    25
100
AcDbVertex
100
AcDb2dVertex
 10
68.52646773499677
 20
58.67598794499706
 30
0.0
  0
VERTEX
  5
2A2
330
2A0
100
AcDbEntity
  8
49
 62
     4
420
    65535
370
    25
100
AcDbVertex
100
AcDb2dVertex
 10
69.1264677349968
 20
58.67598794499706
 30
0.0
  0
SEQEND
  5
2A3
330
2A0
100
AcDbEntity
  8
49
 62
     4
420
    65535
370
    25
  0
ENDBLK
  5
29F
330
29C
100
AcDbEntity
  8
0
100
AcDbBlockEnd
  0
BLOCK
  5
2A6
330
2A4
100
AcDbEntity
  8
0
100
AcDbBlockBegin
  2
block 80
 70
     0
 10
0.0
 20
0.0
 30
0.0
  3
block 80
  1

  0
POLYLINE
  5
2A8
330
2A4
100
AcDbEntity
  8
49
 62
     4
420
    65535
370
    25
100
AcDb2dPolyline
 66
     1
 10
0.0
 20
0.0
 30
0.0
  0
VERTEX
  5
2A9
330
2A8
100
AcDbEntity
  8
49
 62
     4
420
    65535
370
    25
100
AcDbVertex
100
AcDb2dVertex
 10
53.9264677349969
 20
59.27598794499708
 30
0.0
  0
VERTEX
  5
2AA
330
2A8
100
AcDbEntity
  8
49
 62
     4
420
    65535
370
    25
100
AcDbVertex
100
AcDb2dVertex
 10
68.42646773499678
 20
59.27598794499708
 30
0.0
  0
SEQEND
  5
2AB
330
2A8
100
AcDbEntity
  8
49
 62
     4
420
    65535
370
    25
  0
ENDBLK
  5
2A7
330
2A4
100
AcDbEntity
  8
0
100
AcDbBlockEnd
  0
BLOCK
  5
2AE
330
2AC
100
AcDbEntity
  8
0
100
AcDbBlockBegin
  2
block 81
 70
     0
 10
0.0
 20
0.0
 30
0.0
  3
block 81
  1

  0
MTEXT
  5
2B0
330
2AC
100
AcDbEntity
  8
49
 62
     2
420
 16776960
100
AcDbMText
 10
57.48068608860292
 20
60.77598989874644
 30
0.0
 40
3.499999953157898
 41
0.0
 46
0.0
 71
     7
 72
     1
  1
\fMyriad Pro|b0|i0|c0|p34;\W0.812;22,5
 73
     1
 44
1.0
  0
ENDBLK
  5
2AF
330
2AC
100
AcDbEntity
  8
0
100
AcDbBlockEnd
  0
BLOCK
  5
2B3
330
2B1
100
AcDbEntity
  8
0
100
AcDbBlockBegin
  2
block 82
 70
     0
 10
0.0
 20
0.0
 30
0.0
  3
block 82
  1

  0
MTEXT
  5
2B5
330
2B1
100
AcDbEntity
  8
49
 62
     2
420
 16776960
100
AcDbMText
 10
53.98068439405692
 20
61.27598629585179
 30
0.0
 40
3.499999953157898
 41
0.0
 46
0.0
 71
     7
 72
     1
  1
\fMyriad Pro|b0|i0|c0|p34;\W0.812;ø
 73
     1
 44
1.0
  0
ENDBLK
  5
2B4
330
2B1
100
AcDbEntity
  8
0
100
AcDbBlockEnd
  0
BLOCK
  5
2B8
330
2B6
100
AcDbEntity
  8
0
100
AcDbBlockBegin
  2
block 83
 70
     0
 10
0.0
 20
0.0
 30
0.0
  3
block 83
  1

  0
POLYLINE
  5
2BA
330
2B6
100
AcDbEntity
  8
49
 62
     4
420
    65535
370
    25
100
AcDb2dPolyline
 66
     1
 10
0.0
 20
0.0
 30
0.0
  0
VERTEX
  5
2BB
330
2BA
100
AcDbEntity
  8
49
 62
     4
420
    65535
370
    25
100
AcDbVertex
100
AcDb2dVertex
 10
34.28078079499684
 20
72.2759879449969
 30
0.0
  0
VERTEX
  5
2BC
330
2BA
100
AcDbEntity
  8
49
 62
     4
420
    65535
370
    25
100
AcDbVertex
100
AcDb2dVertex
 10
42.85659695499675
 20
72.2759879449969
 30
0.0
  0
SEQEND
  5
2BD
330
2BA
100
AcDbEntity
  8
49
 62
     4
420
    65535
370
    25
  0
ENDBLK
  5
2B9
330
2B6
100
AcDbEntity
  8
0
100
AcDbBlockEnd
  0
BLOCK
  5
2C0
330
2BE
100
AcDbEntity
  8
0
100
AcDbBlockBegin
  2
block 84
 70
     0
 10
0.0
 20
0.0
 30
0.0
  3
block 84
  1

  0
POLYLINE
  5
2C2
330
2BE
100
AcDbEntity
  8
49
 62
     4
420
    65535
370
    25
100
AcDb2dPolyline
 66
     1
 10
0.0
 20
0.0
 30
0.0
  0
VERTEX
  5
2C3
330
2C2
100
AcDbEntity
  8
49
 62
     4
420
    65535
370
    25
100
AcDbVertex
100
AcDb2dVertex
 10
36.28078079499691
 20
72.2759879449969
 30
0.0
  0
VERTEX
  5
2C4
330
2C2
100
AcDbEntity
  8
49
 62
     4
420
    65535
370
    25
100
AcDbVertex
100
AcDb2dVertex
 10
35.53078089499686
 20
68.27598792499693
 30
0.0
  0
SEQEND
  5
2C5
330
2C2
100
AcDbEntity
  8
49
 62
     4
420
    65535
370
    25
  0
ENDBLK
  5
2C1
330
2BE
100
AcDbEntity
  8
0
100
AcDbBlockEnd
  0
BLOCK
  5
2C8
330
2C6
100
AcDbEntity
  8
0
100
AcDbBlockBegin
  2
block 85
 70
     0
 10
0.0
 20
0.0
 30
0.0
  3
block 85
  1

  0
POLYLINE
  5
2CA
330
2C6
100
AcDbEntity
  8
49
 62
     4
420
    65535
370
    25
100
AcDb2dPolyline
 66
     1
 10
0.0
 20
0.0
 30
0.0
  0
VERTEX
  5
2CB
330
2CA
100
AcDbEntity
  8
49
 62
     4
420
    65535
370
    25
100
AcDbVertex
100
AcDb2dVertex
 10
35.53078089499686
 20
68.27598792499693
 30
0.0
  0
VERTEX
  5
2CC
330
2CA
100
AcDbEntity
  8
49
 62
     4
420
    65535
370
    25
100
AcDbVertex
100
AcDb2dVertex
 10
37.03078089499692
 20
68.27598796499659
 30
0.0
  0
SEQEND
  5
2CD
330
2CA
100
AcDbEntity
  8
49
 62
     4
420
    65535
370
    25
  0
ENDBLK
  5
2C9
330
2C6
100
AcDbEntity
  8
0
100
AcDbBlockEnd
  0
BLOCK
  5
2D0
330
2CE
100
AcDbEntity
  8
0
100
AcDbBlockBegin
  2
block 86
 70
     0
 10
0.0
 20
0.0
 30
0.0
  3
block 86
  1

  0
POLYLINE
  5
2D2
330
2CE
100
AcDbEntity
  8
49
 62
     4
420
    65535
370
    25
100
AcDb2dPolyline
 66
     1
 10
0.0
 20
0.0
 30
0.0
  0
VERTEX
  5
2D3
330
2D2
100
AcDbEntity
  8
49
 62
     4
420
    65535
370
    25
100
AcDbVertex
100
AcDb2dVertex
 10
37.03078089499692
 20
68.27598796499659
 30
0.0
  0
VERTEX
  5
2D4
330
2D2
100
AcDbEntity
  8
49
 62
     4
420
    65535
370
    25
100
AcDbVertex
100
AcDb2dVertex
 10
36.28078079499691
 20
72.2759879449969
 30
0.0
  0
SEQEND
  5
2D5
330
2D2
100
AcDbEntity
  8
49
 62
     4
420
    65535
370
    25
  0
ENDBLK
  5
2D1
330
2CE
100
AcDbEntity
  8
0
100
AcDbBlockEnd
  0
BLOCK
  5
2D8
330
2D6
100
AcDbEntity
  8
0
100
AcDbBlockBegin
  2
block 87
 70
     0
 10
0.0
 20
0.0
 30
0.0
  3
block 87
  1

  0
POLYLINE
  5
2DA
330
2D6
100
AcDbEntity
  8
49
 62
     4
420
    65535
370
    25
100
AcDb2dPolyline
 66
     1
 10
0.0
 20
0.0
 30
0.0
  0
VERTEX
  5
2DB
330
2DA
100
AcDbEntity
  8
49
 62
     4
420
    65535
370
    25
100
AcDbVertex
100
AcDb2dVertex
 10
36.28078089499705
 20
68.37598794499708
 30
0.0
  0
VERTEX
  5
2DC
330
2DA
100
AcDbEntity
  8
49
 62
     4
420
    65535
370
    25
100
AcDbVertex
100
AcDb2dVertex
 10
36.28078080499683
 20
72.17598794499722
 30
0.0
  0
SEQEND
  5
2DD
330
2DA
100
AcDbEntity
  8
49
 62
     4
420
    65535
370
    25
  0
ENDBLK
  5
2D9
330
2D6
100
AcDbEntity
  8
0
100
AcDbBlockEnd
  0
BLOCK
  5
2E0
330
2DE
100
AcDbEntity
  8
0
100
AcDbBlockBegin
  2
block 88
 70
     0
 10
0.0
 20
0.0
 30
0.0
  3
block 88
  1

  0
POLYLINE
  5
2E2
330
2DE
100
AcDbEntity
  8
49
 62
     4
420
    65535
370
    25
100
AcDb2dPolyline
 66
     1
 10
0.0
 20
0.0
 30
0.0
  0
VERTEX
  5
2E3
330
2E2
100
AcDbEntity
  8
49
 62
     4
420
    65535
370
    25
100
AcDbVertex
100
AcDb2dVertex
 10
36.08078089499704
 20
68.37598794499708
 30
0.0
  0
VERTEX
  5
2E4
330
2E2
100
AcDbEntity
  8
49
 62
     4
420
    65535
370
    25
100
AcDbVertex
100
AcDb2dVertex
 10
36.08078082499698
 20
71.10932127499689
 30
0.0
  0
SEQEND
  5
2E5
330
2E2
100
AcDbEntity
  8
49
 62
     4
420
    65535
370
    25
  0
ENDBLK
  5
2E1
330
2DE
100
AcDbEntity
  8
0
100
AcDbBlockEnd
  0
BLOCK
  5
2E8
330
2E6
100
AcDbEntity
  8
0
100
AcDbBlockBegin
  2
block 89
 70
     0
 10
0.0
 20
0.0
 30
0.0
  3
block 89
  1

  0
POLYLINE
  5
2EA
330
2E6
100
AcDbEntity
  8
49
 62
     4
420
    65535
370
    25
100
AcDb2dPolyline
 66
     1
 10
0.0
 20
0.0
 30
0.0
  0
VERTEX
  5
2EB
330
2EA
100
AcDbEntity
  8
49
 62
     4
420
    65535
370
    25
100
AcDbVertex
100
AcDb2dVertex
 10
36.48078089499673
 20
68.37598794499708
 30
0.0
  0
VERTEX
  5
2EC
330
2EA
100
AcDbEntity
  8
49
 62
     4
420
    65535
370
    25
100
AcDbVertex
100
AcDb2dVertex
 10
36.48078082499699
 20
71.10932128499712
 30
0.0
  0
SEQEND
  5
2ED
330
2EA
100
AcDbEntity
  8
49
 62
     4
420
    65535
370
    25
  0
ENDBLK
  5
2E9
330
2E6
100
AcDbEntity
  8
0
100
AcDbBlockEnd
  0
BLOCK
  5
2F0
330
2EE
100
AcDbEntity
  8
0
100
AcDbBlockBegin
  2
block 90
 70
     0
 10
0.0
 20
0.0
 30
0.0
  3
block 90
  1

  0
POLYLINE
  5
2F2
330
2EE
100
AcDbEntity
  8
49
 62
     4
420
    65535
370
    25
100
AcDb2dPolyline
 66
     1
 10
0.0
 20
0.0
 30
0.0
  0
VERTEX
  5
2F3
330
2F2
100
AcDbEntity
  8
49
 62
     4
420
    65535
370
    25
100
AcDbVertex
100
AcDb2dVertex
 10
35.88078089499703
 20
68.37598793499684
 30
0.0
  0
VERTEX
  5
2F4
330
2F2
100
AcDbEntity
  8
49
 62
     4
420
    65535
370
    25
100
AcDbVertex
100
AcDb2dVertex
 10
35.88078085499704
 20
70.0426546049972
 30
0.0
  0
SEQEND
  5
2F5
330
2F2
100
AcDbEntity
  8
49
 62
     4
420
    65535
370
    25
  0
ENDBLK
  5
2F1
330
2EE
100
AcDbEntity
  8
0
100
AcDbBlockEnd
  0
BLOCK
  5
2F8
330
2F6
100
AcDbEntity
  8
0
100
AcDbBlockBegin
  2
block 91
 70
     0
 10
0.0
 20
0.0
 30
0.0
  3
block 91
  1

  0
POLYLINE
  5
2FA
330
2F6
100
AcDbEntity
  8
49
 62
     4
420
    65535
370
    25
100
AcDb2dPolyline
 66
     1
 10
0.0
 20
0.0
 30
0.0
  0
VERTEX
  5
2FB
330
2FA
100
AcDbEntity
  8
49
 62
     4
420
    65535
370
    25
100
AcDbVertex
100
AcDb2dVertex
 10
36.68078089499674
 20
68.37598795499667
 30
0.0
  0
VERTEX
  5
2FC
330
2FA
100
AcDbEntity
  8
49
 62
     4
420
    65535
370
    25
100
AcDbVertex
100
AcDb2dVertex
 10
36.68078085499675
 20
70.04265462499703
 30
0.0
  0
SEQEND
  5
2FD
330
2FA
100
AcDbEntity
  8
49
 62
     4
420
    65535
370
    25
  0
ENDBLK
  5
2F9
330
2F6
100
AcDbEntity
  8
0
100
AcDbBlockEnd
  0
BLOCK
  5
300
330
2FE
100
AcDbEntity
  8
0
100
AcDbBlockBegin
  2
block 92
 70
     0
 10
0.0
 20
0.0
 30
0.0
  3
block 92
  1

  0
POLYLINE
  5
302
330
2FE
100
AcDbEntity
  8
49
 62
     4
420
    65535
370
    25
100
AcDb2dPolyline
 66
     1
 10
0.0
 20
0.0
 30
0.0
  0
VERTEX
  5
303
330
302
100
AcDbEntity
  8
49
 62
     4
420
    65535
370
    25
100
AcDbVertex
100
AcDb2dVertex
 10
35.68078089499703
 20
68.37598793499684
 30
0.0
  0
VERTEX
  5
304
330
302
100
AcDbEntity
  8
49
 62
     4
420
    65535
370
    25
100
AcDbVertex
100
AcDb2dVertex
 10
35.68078087499687
 20
68.97598793499687
 30
0.0
  0
SEQEND
  5
305
330
302
100
AcDbEntity
  8
49
 62
     4
420
    65535
370
    25
  0
ENDBLK
  5
301
330
2FE
100
AcDbEntity
  8
0
100
AcDbBlockEnd
  0
BLOCK
  5
308
330
306
100
AcDbEntity
  8
0
100
AcDbBlockBegin
  2
block 93
 70
     0
 10
0.0
 20
0.0
 30
0.0
  3
block 93
  1

  0
POLYLINE
  5
30A
330
306
100
AcDbEntity
  8
49
 62
     4
420
    65535
370
    25
100
AcDb2dPolyline
 66
     1
 10
0.0
 20
0.0
 30
0.0
  0
VERTEX
  5
30B
330
30A
100
AcDbEntity
  8
49
 62
     4
420
    65535
370
    25
100
AcDbVertex
100
AcDb2dVertex
 10
36.88078089499675
 20
68.37598795499667
 30
0.0
  0
VERTEX
  5
30C
330
30A
100
AcDbEntity
  8
49
 62
     4
420
    65535
370
    25
100
AcDbVertex
100
AcDb2dVertex
 10
36.88078087499692
 20
68.9759879549967
 30
0.0
  0
SEQEND
  5
30D
330
30A
100
AcDbEntity
  8
49
 62
     4
420
    65535
370
    25
  0
ENDBLK
  5
309
330
306
100
AcDbEntity
  8
0
100
AcDbBlockEnd
  0
BLOCK
  5
310
330
30E
100
AcDbEntity
  8
0
100
AcDbBlockBegin
  2
block 94
 70
     0
 10
0.0
 20
0.0
 30
0.0
  3
block 94
  1

  0
POLYLINE
  5
312
330
30E
100
AcDbEntity
  8
49
 62
     4
420
    65535
370
    25
100
AcDb2dPolyline
 66
     1
 10
0.0
 20
0.0
 30
0.0
  0
VERTEX
  5
313
330
312
100
AcDbEntity
  8
49
 62
     4
420
    65535
370
    25
100
AcDbVertex
100
AcDb2dVertex
 10
36.28078089499705
 20
68.27598794499676
 30
0.0
  0
VERTEX
  5
314
330
312
100
AcDbEntity
  8
49
 62
     4
420
    65535
370
    25
100
AcDbVertex
100
AcDb2dVertex
 10
36.28078098499694
 20
64.27598794499661
 30
0.0
  0
SEQEND
  5
315
330
312
100
AcDbEntity
  8
49
 62
     4
420
    65535
370
    25
  0
ENDBLK
  5
311
330
30E
100
AcDbEntity
  8
0
100
AcDbBlockEnd
  0
BLOCK
  5
318
330
316
100
AcDbEntity
  8
0
100
AcDbBlockBegin
  2
block 95
 70
     0
 10
0.0
 20
0.0
 30
0.0
  3
block 95
  1

  0
POLYLINE
  5
31A
330
316
100
AcDbEntity
  8
49
 62
     4
420
    65535
370
    25
100
AcDb2dPolyline
 66
     1
 10
0.0
 20
0.0
 30
0.0
  0
VERTEX
  5
31B
330
31A
100
AcDbEntity
  8
49
 62
     4
420
    65535
370
    25
100
AcDbVertex
100
AcDb2dVertex
 10
34.28078063499689
 20
79.27598794499714
 30
0.0
  0
VERTEX
  5
31C
330
31A
100
AcDbEntity
  8
49
 62
     4
420
    65535
370
    25
100
AcDbVertex
100
AcDb2dVertex
 10
61.176467734997
 20
79.27598794499714
 30
0.0
  0
SEQEND
  5
31D
330
31A
100
AcDbEntity
  8
49
 62
     4
420
    65535
370
    25
  0
ENDBLK
  5
319
330
316
100
AcDbEntity
  8
0
100
AcDbBlockEnd
  0
BLOCK
  5
320
330
31E
100
AcDbEntity
  8
0
100
AcDbBlockBegin
  2
block 96
 70
     0
 10
0.0
 20
0.0
 30
0.0
  3
block 96
  1

  0
POLYLINE
  5
322
330
31E
100
AcDbEntity
  8
49
 62
     4
420
    65535
370
    25
100
AcDb2dPolyline
 66
     1
 10
0.0
 20
0.0
 30
0.0
  0
VERTEX
  5
323
330
322
100
AcDbEntity
  8
49
 62
     4
420
    65535
370
    25
100
AcDbVertex
100
AcDb2dVertex
 10
36.28078063499696
 20
79.27598794499714
 30
0.0
  0
VERTEX
  5
324
330
322
100
AcDbEntity
  8
49
 62
     4
420
    65535
370
    25
100
AcDbVertex
100
AcDb2dVertex
 10
37.03078053499701
 20
83.27598796499711
 30
0.0
  0
SEQEND
  5
325
330
322
100
AcDbEntity
  8
49
 62
     4
420
    65535
370
    25
  0
ENDBLK
  5
321
330
31E
100
AcDbEntity
  8
0
100
AcDbBlockEnd
  0
BLOCK
  5
328
330
326
100
AcDbEntity
  8
0
100
AcDbBlockBegin
  2
block 97
 70
     0
 10
0.0
 20
0.0
 30
0.0
  3
block 97
  1

  0
POLYLINE
  5
32A
330
326
100
AcDbEntity
  8
49
 62
     4
420
    65535
370
    25
100
AcDb2dPolyline
 66
     1
 10
0.0
 20
0.0
 30
0.0
  0
VERTEX
  5
32B
330
32A
100
AcDbEntity
  8
49
 62
     4
420
    65535
370
    25
100
AcDbVertex
100
AcDb2dVertex
 10
37.03078053499701
 20
83.27598796499711
 30
0.0
  0
VERTEX
  5
32C
330
32A
100
AcDbEntity
  8
49
 62
     4
420
    65535
370
    25
100
AcDbVertex
100
AcDb2dVertex
 10
35.53078053499696
 20
83.27598792499681
 30
0.0
  0
SEQEND
  5
32D
330
32A
100
AcDbEntity
  8
49
 62
     4
420
    65535
370
    25
  0
ENDBLK
  5
329
330
326
100
AcDbEntity
  8
0
100
AcDbBlockEnd
  0
BLOCK
  5
330
330
32E
100
AcDbEntity
  8
0
100
AcDbBlockBegin
  2
block 98
 70
     0
 10
0.0
 20
0.0
 30
0.0
  3
block 98
  1

  0
POLYLINE
  5
332
330
32E
100
AcDbEntity
  8
49
 62
     4
420
    65535
370
    25
100
AcDb2dPolyline
 66
     1
 10
0.0
 20
0.0
 30
0.0
  0
VERTEX
  5
333
330
332
100
AcDbEntity
  8
49
 62
     4
420
    65535
370
    25
100
AcDbVertex
100
AcDb2dVertex
 10
35.53078053499696
 20
83.27598792499681
 30
0.0
  0
VERTEX
  5
334
330
332
100
AcDbEntity
  8
49
 62
     4
420
    65535
370
    25
100
AcDbVertex
100
AcDb2dVertex
 10
36.28078063499696
 20
79.27598794499714
 30
0.0
  0
SEQEND
  5
335
330
332
100
AcDbEntity
  8
49
 62
     4
420
    65535
370
    25
  0
ENDBLK
  5
331
330
32E
100
AcDbEntity
  8
0
100
AcDbBlockEnd
  0
BLOCK
  5
338
330
336
100
AcDbEntity
  8
0
100
AcDbBlockBegin
  2
block 99
 70
     0
 10
0.0
 20
0.0
 30
0.0
  3
block 99
  1

  0
POLYLINE
  5
33A
330
336
100
AcDbEntity
  8
49
 62
     4
420
    65535
370
    25
100
AcDb2dPolyline
 66
     1
 10
0.0
 20
0.0
 30
0.0
  0
VERTEX
  5
33B
330
33A
100
AcDbEntity
  8
49
 62
     4
420
    65535
370
    25
100
AcDbVertex
100
AcDb2dVertex
 10
36.28078054499674
 20
83.17598794499696
 30
0.0
  0
VERTEX
  5
33C
330
33A
100
AcDbEntity
  8
49
 62
     4
420
    65535
370
    25
100
AcDbVertex
100
AcDb2dVertex
 10
36.28078063499696
 20
79.37598794499682
 30
0.0
  0
SEQEND
  5
33D
330
33A
100
AcDbEntity
  8
49
 62
     4
420
    65535
370
    25
  0
ENDBLK
  5
339
330
336
100
AcDbEntity
  8
0
100
AcDbBlockEnd
  0
BLOCK
  5
340
330
33E
100
AcDbEntity
  8
0
100
AcDbBlockBegin
  2
block 100
 70
     0
 10
0.0
 20
0.0
 30
0.0
  3
block 100
  1

  0
POLYLINE
  5
342
330
33E
100
AcDbEntity
  8
49
 62
     4
420
    65535
370
    25
100
AcDb2dPolyline
 66
     1
 10
0.0
 20
0.0
 30
0.0
  0
VERTEX
  5
343
330
342
100
AcDbEntity
  8
49
 62
     4
420
    65535
370
    25
100
AcDbVertex
100
AcDb2dVertex
 10
36.48078054499675
 20
83.17598794499696
 30
0.0
  0
VERTEX
  5
344
330
342
100
AcDbEntity
  8
49
 62
     4
420
    65535
370
    25
100
AcDbVertex
100
AcDb2dVertex
 10
36.48078060499689
 20
80.44265461499715
 30
0.0
  0
SEQEND
  5
345
330
342
100
AcDbEntity
  8
49
 62
     4
420
    65535
370
    25
  0
ENDBLK
  5
341
330
33E
100
AcDbEntity
  8
0
100
AcDbBlockEnd
  0
BLOCK
  5
348
330
346
100
AcDbEntity
  8
0
100
AcDbBlockBegin
  2
block 101
 70
     0
 10
0.0
 20
0.0
 30
0.0
  3
block 101
  1

  0
POLYLINE
  5
34A
330
346
100
AcDbEntity
  8
49
 62
     4
420
    65535
370
    25
100
AcDb2dPolyline
 66
     1
 10
0.0
 20
0.0
 30
0.0
  0
VERTEX
  5
34B
330
34A
100
AcDbEntity
  8
49
 62
     4
420
    65535
370
    25
100
AcDbVertex
100
AcDb2dVertex
 10
36.08078054499673
 20
83.17598794499696
 30
0.0
  0
VERTEX
  5
34C
330
34A
100
AcDbEntity
  8
49
 62
     4
420
    65535
370
    25
100
AcDbVertex
100
AcDb2dVertex
 10
36.08078060499688
 20
80.44265460499692
 30
0.0
  0
SEQEND
  5
34D
330
34A
100
AcDbEntity
  8
49
 62
     4
420
    65535
370
    25
  0
ENDBLK
  5
349
330
346
100
AcDbEntity
  8
0
100
AcDbBlockEnd
  0
BLOCK
  5
350
330
34E
100
AcDbEntity
  8
0
100
AcDbBlockBegin
  2
block 102
 70
     0
 10
0.0
 20
0.0
 30
0.0
  3
block 102
  1

  0
POLYLINE
  5
352
330
34E
100
AcDbEntity
  8
49
 62
     4
420
    65535
370
    25
100
AcDb2dPolyline
 66
     1
 10
0.0
 20
0.0
 30
0.0
  0
VERTEX
  5
353
330
352
100
AcDbEntity
  8
49
 62
     4
420
    65535
370
    25
100
AcDbVertex
100
AcDb2dVertex
 10
36.68078054499676
 20
83.1759879549972
 30
0.0
  0
VERTEX
  5
354
330
352
100
AcDbEntity
  8
49
 62
     4
420
    65535
370
    25
100
AcDbVertex
100
AcDb2dVertex
 10
36.68078058499675
 20
81.50932128499684
 30
0.0
  0
SEQEND
  5
355
330
352
100
AcDbEntity
  8
49
 62
     4
420
    65535
370
    25
  0
ENDBLK
  5
351
330
34E
100
AcDbEntity
  8
0
100
AcDbBlockEnd
  0
BLOCK
  5
358
330
356
100
AcDbEntity
  8
0
100
AcDbBlockBegin
  2
block 103
 70
     0
 10
0.0
 20
0.0
 30
0.0
  3
block 103
  1

  0
POLYLINE
  5
35A
330
356
100
AcDbEntity
  8
49
 62
     4
420
    65535
370
    25
100
AcDb2dPolyline
 66
     1
 10
0.0
 20
0.0
 30
0.0
  0
VERTEX
  5
35B
330
35A
100
AcDbEntity
  8
49
 62
     4
420
    65535
370
    25
100
AcDbVertex
100
AcDb2dVertex
 10
35.88078054499673
 20
83.17598793499673
 30
0.0
  0
VERTEX
  5
35C
330
35A
100
AcDbEntity
  8
49
 62
     4
420
    65535
370
    25
100
AcDbVertex
100
AcDb2dVertex
 10
35.88078058499704
 20
81.50932126499701
 30
0.0
  0
SEQEND
  5
35D
330
35A
100
AcDbEntity
  8
49
 62
     4
420
    65535
370
    25
  0
ENDBLK
  5
359
330
356
100
AcDbEntity
  8
0
100
AcDbBlockEnd
  0
BLOCK
  5
360
330
35E
100
AcDbEntity
  8
0
100
AcDbBlockBegin
  2
block 104
 70
     0
 10
0.0
 20
0.0
 30
0.0
  3
block 104
  1

  0
POLYLINE
  5
362
330
35E
100
AcDbEntity
  8
49
 62
     4
420
    65535
370
    25
100
AcDb2dPolyline
 66
     1
 10
0.0
 20
0.0
 30
0.0
  0
VERTEX
  5
363
330
362
100
AcDbEntity
  8
49
 62
     4
420
    65535
370
    25
100
AcDbVertex
100
AcDb2dVertex
 10
36.88078054499677
 20
83.1759879549972
 30
0.0
  0
VERTEX
  5
364
330
362
100
AcDbEntity
  8
49
 62
     4
420
    65535
370
    25
100
AcDbVertex
100
AcDb2dVertex
 10
36.880780554997
 20
82.57598795499717
 30
0.0
  0
SEQEND
  5
365
330
362
100
AcDbEntity
  8
49
 62
     4
420
    65535
370
    25
  0
ENDBLK
  5
361
330
35E
100
AcDbEntity
  8
0
100
AcDbBlockEnd
  0
BLOCK
  5
368
330
366
100
AcDbEntity
  8
0
100
AcDbBlockBegin
  2
block 105
 70
     0
 10
0.0
 20
0.0
 30
0.0
  3
block 105
  1

  0
POLYLINE
  5
36A
330
366
100
AcDbEntity
  8
49
 62
     4
420
    65535
370
    25
100
AcDb2dPolyline
 66
     1
 10
0.0
 20
0.0
 30
0.0
  0
VERTEX
  5
36B
330
36A
100
AcDbEntity
  8
49
 62
     4
420
    65535
370
    25
100
AcDbVertex
100
AcDb2dVertex
 10
35.68078054499704
 20
83.17598793499673
 30
0.0
  0
VERTEX
  5
36C
330
36A
100
AcDbEntity
  8
49
 62
     4
420
    65535
370
    25
100
AcDbVertex
100
AcDb2dVertex
 10
35.68078055499696
 20
82.5759879349967
 30
0.0
  0
SEQEND
  5
36D
330
36A
100
AcDbEntity
  8
49
 62
     4
420
    65535
370
    25
  0
ENDBLK
  5
369
330
366
100
AcDbEntity
  8
0
100
AcDbBlockEnd
  0
BLOCK
  5
370
330
36E
100
AcDbEntity
  8
0
100
AcDbBlockBegin
  2
block 106
 70
     0
 10
0.0
 20
0.0
 30
0.0
  3
block 106
  1

  0
POLYLINE
  5
372
330
36E
100
AcDbEntity
  8
49
 62
     4
420
    65535
370
    25
100
AcDb2dPolyline
 66
     1
 10
0.0
 20
0.0
 30
0.0
  0
VERTEX
  5
373
330
372
100
AcDbEntity
  8
49
 62
     4
420
    65535
370
    25
100
AcDbVertex
100
AcDb2dVertex
 10
36.28078053499683
 20
83.27598794499664
 30
0.0
  0
VERTEX
  5
374
330
372
100
AcDbEntity
  8
49
 62
     4
420
    65535
370
    25
100
AcDbVertex
100
AcDb2dVertex
 10
36.28078044499694
 20
87.27598794499679
 30
0.0
  0
SEQEND
  5
375
330
372
100
AcDbEntity
  8
49
 62
     4
420
    65535
370
    25
  0
ENDBLK
  5
371
330
36E
100
AcDbEntity
  8
0
100
AcDbBlockEnd
  0
BLOCK
  5
378
330
376
100
AcDbEntity
  8
0
100
AcDbBlockBegin
  2
block 107
 70
     0
 10
0.0
 20
0.0
 30
0.0
  3
block 107
  1

  0
POLYLINE
  5
37A
330
376
100
AcDbEntity
  8
49
 62
     4
420
    65535
370
    25
100
AcDb2dPolyline
 66
     1
 10
0.0
 20
0.0
 30
0.0
  0
VERTEX
  5
37B
330
37A
100
AcDbEntity
  8
49
 62
     4
420
    65535
370
    25
100
AcDbVertex
100
AcDb2dVertex
 10
36.28078079499691
 20
72.2759879449969
 30
0.0
  0
VERTEX
  5
37C
330
37A
100
AcDbEntity
  8
49
 62
     4
420
    65535
370
    25
100
AcDbVertex
100
AcDb2dVertex
 10
36.28078063499696
 20
79.27598794499714
 30
0.0
  0
SEQEND
  5
37D
330
37A
100
AcDbEntity
  8
49
 62
     4
420
    65535
370
    25
  0
ENDBLK
  5
379
330
376
100
AcDbEntity
  8
0
100
AcDbBlockEnd
  0
BLOCK
  5
380
330
37E
100
AcDbEntity
  8
0
100
AcDbBlockBegin
  2
block 108
 70
     0
 10
0.0
 20
0.0
 30
0.0
  3
block 108
  1

  0
MTEXT
  5
382
330
37E
100
AcDbEntity
  8
49
 62
     2
420
 16776960
100
AcDbMText
 10
34.78077825258462
 20
74.59568977186719
 30
0.0
 40
3.4999999531579
 41
0.0
 46
0.0
 71
     7
 72
     1
  1
\fMyriad Pro|b0|i0|c0|p34;\W0.812;7
 11
-2.366666501090943E-8
 21
0.9999999999999997
 31
0.0
 73
     1
 44
1.0
  0
ENDBLK
  5
381
330
37E
100
AcDbEntity
  8
0
100
AcDbBlockEnd
  0
BLOCK
  5
385
330
383
100
AcDbEntity
  8
0
100
AcDbBlockBegin
  2
block 109
 70
     0
 10
0.0
 20
0.0
 30
0.0
  3
block 109
  1

  0
POLYLINE
  5
387
330
383
100
AcDbEntity
  8
49
 62
     4
420
    65535
370
    25
100
AcDb2dPolyline
 66
     1
 10
0.0
 20
0.0
 30
0.0
  0
VERTEX
  5
388
330
387
100
AcDbEntity
  8
49
 62
     4
420
    65535
370
    25
100
AcDbVertex
100
AcDb2dVertex
 10
110.7537861149969
 20
21.77598794499672
 30
0.0
  0
VERTEX
  5
389
330
387
100
AcDbEntity
  8
49
 62
     4
420
    65535
370
    25
100
AcDbVertex
100
AcDb2dVertex
 10
110.7537861149969
 20
53.7759879449972
 30
0.0
  0
SEQEND
  5
38A
330
387
100
AcDbEntity
  8
49
 62
     4
420
    65535
370
    25
  0
ENDBLK
  5
386
330
383
100
AcDbEntity
  8
0
100
AcDbBlockEnd
  0
BLOCK
  5
38D
330
38B
100
AcDbEntity
  8
0
100
AcDbBlockBegin
  2
block 110
 70
     0
 10
0.0
 20
0.0
 30
0.0
  3
block 110
  1

  0
POLYLINE
  5
38F
330
38B
100
AcDbEntity
  8
49
 62
     4
420
    65535
370
    25
100
AcDb2dPolyline
 66
     1
 10
0.0
 20
0.0
 30
0.0
  0
VERTEX
  5
390
330
38F
100
AcDbEntity
  8
49
 62
     4
420
    65535
370
    25
100
AcDbVertex
100
AcDb2dVertex
 10
110.7537861149969
 20
23.77598794499679
 30
0.0
  0
VERTEX
  5
391
330
38F
100
AcDbEntity
  8
49
 62
     4
420
    65535
370
    25
100
AcDbVertex
100
AcDb2dVertex
 10
114.753786114997
 20
24.52598794499666
 30
0.0
  0
VERTEX
  5
392
330
38F
100
AcDbEntity
  8
49
 62
     4
420
    65535
370
    25
100
AcDbVertex
100
AcDb2dVertex
 10
114.753786114997
 20
23.02598794499692
 30
0.0
  0
VERTEX
  5
393
330
38F
100
AcDbEntity
  8
49
 62
     4
420
    65535
370
    25
100
AcDbVertex
100
AcDb2dVertex
 10
110.7537861149969
 20
23.77598794499679
 30
0.0
  0
SEQEND
  5
394
330
38F
100
AcDbEntity
  8
49
 62
     4
420
    65535
370
    25
  0
ENDBLK
  5
38E
330
38B
100
AcDbEntity
  8
0
100
AcDbBlockEnd
  0
BLOCK
  5
397
330
395
100
AcDbEntity
  8
0
100
AcDbBlockBegin
  2
block 111
 70
     0
 10
0.0
 20
0.0
 30
0.0
  3
block 111
  1

  0
POLYLINE
  5
399
330
395
100
AcDbEntity
  8
49
 62
     4
420
    65535
370
    25
100
AcDb2dPolyline
 66
     1
 10
0.0
 20
0.0
 30
0.0
  0
VERTEX
  5
39A
330
399
100
AcDbEntity
  8
49
 62
     4
420
    65535
370
    25
100
AcDbVertex
100
AcDb2dVertex
 10
114.6537861149967
 20
23.77598794499679
 30
0.0
  0
VERTEX
  5
39B
330
399
100
AcDbEntity
  8
49
 62
     4
420
    65535
370
    25
100
AcDbVertex
100
AcDb2dVertex
 10
110.8537861149972
 20
23.77598794499679
 30
0.0
  0
SEQEND
  5
39C
330
399
100
AcDbEntity
  8
49
 62
     4
420
    65535
370
    25
  0
ENDBLK
  5
398
330
395
100
AcDbEntity
  8
0
100
AcDbBlockEnd
  0
BLOCK
  5
39F
330
39D
100
AcDbEntity
  8
0
100
AcDbBlockBegin
  2
block 112
 70
     0
 10
0.0
 20
0.0
 30
0.0
  3
block 112
  1

  0
POLYLINE
  5
3A1
330
39D
100
AcDbEntity
  8
49
 62
     4
420
    65535
370
    25
100
AcDb2dPolyline
 66
     1
 10
0.0
 20
0.0
 30
0.0
  0
VERTEX
  5
3A2
330
3A1
100
AcDbEntity
  8
49
 62
     4
420
    65535
370
    25
100
AcDbVertex
100
AcDb2dVertex
 10
114.6537861149967
 20
23.57598794499678
 30
0.0
  0
VERTEX
  5
3A3
330
3A1
100
AcDbEntity
  8
49
 62
     4
420
    65535
370
    25
100
AcDbVertex
100
AcDb2dVertex
 10
111.9204527749966
 20
23.57598794499678
 30
0.0
  0
SEQEND
  5
3A4
330
3A1
100
AcDbEntity
  8
49
 62
     4
420
    65535
370
    25
  0
ENDBLK
  5
3A0
330
39D
100
AcDbEntity
  8
0
100
AcDbBlockEnd
  0
BLOCK
  5
3A7
330
3A5
100
AcDbEntity
  8
0
100
AcDbBlockBegin
  2
block 113
 70
     0
 10
0.0
 20
0.0
 30
0.0
  3
block 113
  1

  0
POLYLINE
  5
3A9
330
3A5
100
AcDbEntity
  8
49
 62
     4
420
    65535
370
    25
100
AcDb2dPolyline
 66
     1
 10
0.0
 20
0.0
 30
0.0
  0
VERTEX
  5
3AA
330
3A9
100
AcDbEntity
  8
49
 62
     4
420
    65535
370
    25
100
AcDbVertex
100
AcDb2dVertex
 10
114.6537861149967
 20
23.9759879449968
 30
0.0
  0
VERTEX
  5
3AB
330
3A9
100
AcDbEntity
  8
49
 62
     4
420
    65535
370
    25
100
AcDbVertex
100
AcDb2dVertex
 10
111.9204527749966
 20
23.9759879449968
 30
0.0
  0
SEQEND
  5
3AC
330
3A9
100
AcDbEntity
  8
49
 62
     4
420
    65535
370
    25
  0
ENDBLK
  5
3A8
330
3A5
100
AcDbEntity
  8
0
100
AcDbBlockEnd
  0
BLOCK
  5
3AF
330
3AD
100
AcDbEntity
  8
0
100
AcDbBlockBegin
  2
block 114
 70
     0
 10
0.0
 20
0.0
 30
0.0
  3
block 114
  1

  0
POLYLINE
  5
3B1
330
3AD
100
AcDbEntity
  8
49
 62
     4
420
    65535
370
    25
100
AcDb2dPolyline
 66
     1
 10
0.0
 20
0.0
 30
0.0
  0
VERTEX
  5
3B2
330
3B1
100
AcDbEntity
  8
49
 62
     4
420
    65535
370
    25
100
AcDbVertex
100
AcDb2dVertex
 10
114.6537861149967
 20
23.37598794499678
 30
0.0
  0
VERTEX
  5
3B3
330
3B1
100
AcDbEntity
  8
49
 62
     4
420
    65535
370
    25
100
AcDbVertex
100
AcDb2dVertex
 10
112.987119444997
 20
23.37598794499678
 30
0.0
  0
SEQEND
  5
3B4
330
3B1
100
AcDbEntity
  8
49
 62
     4
420
    65535
370
    25
  0
ENDBLK
  5
3B0
330
3AD
100
AcDbEntity
  8
0
100
AcDbBlockEnd
  0
BLOCK
  5
3B7
330
3B5
100
AcDbEntity
  8
0
100
AcDbBlockBegin
  2
block 115
 70
     0
 10
0.0
 20
0.0
 30
0.0
  3
block 115
  1

  0
POLYLINE
  5
3B9
330
3B5
100
AcDbEntity
  8
49
 62
     4
420
    65535
370
    25
100
AcDb2dPolyline
 66
     1
 10
0.0
 20
0.0
 30
0.0
  0
VERTEX
  5
3BA
330
3B9
100
AcDbEntity
  8
49
 62
     4
420
    65535
370
    25
100
AcDbVertex
100
AcDb2dVertex
 10
114.6537861149967
 20
24.17598794499681
 30
0.0
  0
VERTEX
  5
3BB
330
3B9
100
AcDbEntity
  8
49
 62
     4
420
    65535
370
    25
100
AcDbVertex
100
AcDb2dVertex
 10
112.987119444997
 20
24.17598794499681
 30
0.0
  0
SEQEND
  5
3BC
330
3B9
100
AcDbEntity
  8
49
 62
     4
420
    65535
370
    25
  0
ENDBLK
  5
3B8
330
3B5
100
AcDbEntity
  8
0
100
AcDbBlockEnd
  0
BLOCK
  5
3BF
330
3BD
100
AcDbEntity
  8
0
100
AcDbBlockBegin
  2
block 116
 70
     0
 10
0.0
 20
0.0
 30
0.0
  3
block 116
  1

  0
POLYLINE
  5
3C1
330
3BD
100
AcDbEntity
  8
49
 62
     4
420
    65535
370
    25
100
AcDb2dPolyline
 66
     1
 10
0.0
 20
0.0
 30
0.0
  0
VERTEX
  5
3C2
330
3C1
100
AcDbEntity
  8
49
 62
     4
420
    65535
370
    25
100
AcDbVertex
100
AcDb2dVertex
 10
114.6537861149967
 20
23.17598794499677
 30
0.0
  0
VERTEX
  5
3C3
330
3C1
100
AcDbEntity
  8
49
 62
     4
420
    65535
370
    25
100
AcDbVertex
100
AcDb2dVertex
 10
114.0537861149967
 20
23.17598794499677
 30
0.0
  0
SEQEND
  5
3C4
330
3C1
100
AcDbEntity
  8
49
 62
     4
420
    65535
370
    25
  0
ENDBLK
  5
3C0
330
3BD
100
AcDbEntity
  8
0
100
AcDbBlockEnd
  0
BLOCK
  5
3C7
330
3C5
100
AcDbEntity
  8
0
100
AcDbBlockBegin
  2
block 117
 70
     0
 10
0.0
 20
0.0
 30
0.0
  3
block 117
  1

  0
POLYLINE
  5
3C9
330
3C5
100
AcDbEntity
  8
49
 62
     4
420
    65535
370
    25
100
AcDb2dPolyline
 66
     1
 10
0.0
 20
0.0
 30
0.0
  0
VERTEX
  5
3CA
330
3C9
100
AcDbEntity
  8
49
 62
     4
420
    65535
370
    25
100
AcDbVertex
100
AcDb2dVertex
 10
114.6537861149967
 20
24.37598794499681
 30
0.0
  0
VERTEX
  5
3CB
330
3C9
100
AcDbEntity
  8
49
 62
     4
420
    65535
370
    25
100
AcDbVertex
100
AcDb2dVertex
 10
114.0537861149967
 20
24.37598794499681
 30
0.0
  0
SEQEND
  5
3CC
330
3C9
100
AcDbEntity
  8
49
 62
     4
420
    65535
370
    25
  0
ENDBLK
  5
3C8
330
3C5
100
AcDbEntity
  8
0
100
AcDbBlockEnd
  0
BLOCK
  5
3CF
330
3CD
100
AcDbEntity
  8
0
100
AcDbBlockBegin
  2
block 118
 70
     0
 10
0.0
 20
0.0
 30
0.0
  3
block 118
  1

  0
POLYLINE
  5
3D1
330
3CD
100
AcDbEntity
  8
49
 62
     4
420
    65535
370
    25
100
AcDb2dPolyline
 66
     1
 10
0.0
 20
0.0
 30
0.0
  0
VERTEX
  5
3D2
330
3D1
100
AcDbEntity
  8
49
 62
     4
420
    65535
370
    25
100
AcDbVertex
100
AcDb2dVertex
 10
143.7537861149968
 20
21.77598794499672
 30
0.0
  0
VERTEX
  5
3D3
330
3D1
100
AcDbEntity
  8
49
 62
     4
420
    65535
370
    25
100
AcDbVertex
100
AcDb2dVertex
 10
143.7537861149968
 20
53.7759879449972
 30
0.0
  0
SEQEND
  5
3D4
330
3D1
100
AcDbEntity
  8
49
 62
     4
420
    65535
370
    25
  0
ENDBLK
  5
3D0
330
3CD
100
AcDbEntity
  8
0
100
AcDbBlockEnd
  0
BLOCK
  5
3D7
330
3D5
100
AcDbEntity
  8
0
100
AcDbBlockBegin
  2
block 119
 70
     0
 10
0.0
 20
0.0
 30
0.0
  3
block 119
  1

  0
POLYLINE
  5
3D9
330
3D5
100
AcDbEntity
  8
49
 62
     4
420
    65535
370
    25
100
AcDb2dPolyline
 66
     1
 10
0.0
 20
0.0
 30
0.0
  0
VERTEX
  5
3DA
330
3D9
100
AcDbEntity
  8
49
 62
     4
420
    65535
370
    25
100
AcDbVertex
100
AcDb2dVertex
 10
143.7537861149968
 20
23.77598794499679
 30
0.0
  0
VERTEX
  5
3DB
330
3D9
100
AcDbEntity
  8
49
 62
     4
420
    65535
370
    25
100
AcDbVertex
100
AcDb2dVertex
 10
139.7537861149966
 20
23.02598794499692
 30
0.0
  0
VERTEX
  5
3DC
330
3D9
100
AcDbEntity
  8
49
 62
     4
420
    65535
370
    25
100
AcDbVertex
100
AcDb2dVertex
 10
139.7537861149966
 20
24.52598794499666
 30
0.0
  0
VERTEX
  5
3DD
330
3D9
100
AcDbEntity
  8
49
 62
     4
420
    65535
370
    25
100
AcDbVertex
100
AcDb2dVertex
 10
143.7537861149968
 20
23.77598794499679
 30
0.0
  0
SEQEND
  5
3DE
330
3D9
100
AcDbEntity
  8
49
 62
     4
420
    65535
370
    25
  0
ENDBLK
  5
3D8
330
3D5
100
AcDbEntity
  8
0
100
AcDbBlockEnd
  0
BLOCK
  5
3E1
330
3DF
100
AcDbEntity
  8
0
100
AcDbBlockBegin
  2
block 120
 70
     0
 10
0.0
 20
0.0
 30
0.0
  3
block 120
  1

  0
POLYLINE
  5
3E3
330
3DF
100
AcDbEntity
  8
49
 62
     4
420
    65535
370
    25
100
AcDb2dPolyline
 66
     1
 10
0.0
 20
0.0
 30
0.0
  0
VERTEX
  5
3E4
330
3E3
100
AcDbEntity
  8
49
 62
     4
420
    65535
370
    25
100
AcDbVertex
100
AcDb2dVertex
 10
139.853786114997
 20
23.77598794499679
 30
0.0
  0
VERTEX
  5
3E5
330
3E3
100
AcDbEntity
  8
49
 62
     4
420
    65535
370
    25
100
AcDbVertex
100
AcDb2dVertex
 10
143.6537861149971
 20
23.77598794499679
 30
0.0
  0
SEQEND
  5
3E6
330
3E3
100
AcDbEntity
  8
49
 62
     4
420
    65535
370
    25
  0
ENDBLK
  5
3E2
330
3DF
100
AcDbEntity
  8
0
100
AcDbBlockEnd
  0
BLOCK
  5
3E9
330
3E7
100
AcDbEntity
  8
0
100
AcDbBlockBegin
  2
block 121
 70
     0
 10
0.0
 20
0.0
 30
0.0
  3
block 121
  1

  0
POLYLINE
  5
3EB
330
3E7
100
AcDbEntity
  8
49
 62
     4
420
    65535
370
    25
100
AcDb2dPolyline
 66
     1
 10
0.0
 20
0.0
 30
0.0
  0
VERTEX
  5
3EC
330
3EB
100
AcDbEntity
  8
49
 62
     4
420
    65535
370
    25
100
AcDbVertex
100
AcDb2dVertex
 10
139.853786114997
 20
23.9759879449968
 30
0.0
  0
VERTEX
  5
3ED
330
3EB
100
AcDbEntity
  8
49
 62
     4
420
    65535
370
    25
100
AcDbVertex
100
AcDb2dVertex
 10
142.5871194449967
 20
23.9759879449968
 30
0.0
  0
SEQEND
  5
3EE
330
3EB
100
AcDbEntity
  8
49
 62
     4
420
    65535
370
    25
  0
ENDBLK
  5
3EA
330
3E7
100
AcDbEntity
  8
0
100
AcDbBlockEnd
  0
BLOCK
  5
3F1
330
3EF
100
AcDbEntity
  8
0
100
AcDbBlockBegin
  2
block 122
 70
     0
 10
0.0
 20
0.0
 30
0.0
  3
block 122
  1

  0
POLYLINE
  5
3F3
330
3EF
100
AcDbEntity
  8
49
 62
     4
420
    65535
370
    25
100
AcDb2dPolyline
 66
     1
 10
0.0
 20
0.0
 30
0.0
  0
VERTEX
  5
3F4
330
3F3
100
AcDbEntity
  8
49
 62
     4
420
    65535
370
    25
100
AcDbVertex
100
AcDb2dVertex
 10
139.853786114997
 20
23.57598794499678
 30
0.0
  0
VERTEX
  5
3F5
330
3F3
100
AcDbEntity
  8
49
 62
     4
420
    65535
370
    25
100
AcDbVertex
100
AcDb2dVertex
 10
142.5871194449967
 20
23.57598794499678
 30
0.0
  0
SEQEND
  5
3F6
330
3F3
100
AcDbEntity
  8
49
 62
     4
420
    65535
370
    25
  0
ENDBLK
  5
3F2
330
3EF
100
AcDbEntity
  8
0
100
AcDbBlockEnd
  0
BLOCK
  5
3F9
330
3F7
100
AcDbEntity
  8
0
100
AcDbBlockBegin
  2
block 123
 70
     0
 10
0.0
 20
0.0
 30
0.0
  3
block 123
  1

  0
POLYLINE
  5
3FB
330
3F7
100
AcDbEntity
  8
49
 62
     4
420
    65535
370
    25
100
AcDb2dPolyline
 66
     1
 10
0.0
 20
0.0
 30
0.0
  0
VERTEX
  5
3FC
330
3FB
100
AcDbEntity
  8
49
 62
     4
420
    65535
370
    25
100
AcDbVertex
100
AcDb2dVertex
 10
139.853786114997
 20
24.17598794499681
 30
0.0
  0
VERTEX
  5
3FD
330
3FB
100
AcDbEntity
  8
49
 62
     4
420
    65535
370
    25
100
AcDbVertex
100
AcDb2dVertex
 10
141.520452774997
 20
24.17598794499681
 30
0.0
  0
SEQEND
  5
3FE
330
3FB
100
AcDbEntity
  8
49
 62
     4
420
    65535
370
    25
  0
ENDBLK
  5
3FA
330
3F7
100
AcDbEntity
  8
0
100
AcDbBlockEnd
  0
BLOCK
  5
401
330
3FF
100
AcDbEntity
  8
0
100
AcDbBlockBegin
  2
block 124
 70
     0
 10
0.0
 20
0.0
 30
0.0
  3
block 124
  1

  0
POLYLINE
  5
403
330
3FF
100
AcDbEntity
  8
49
 62
     4
420
    65535
370
    25
100
AcDb2dPolyline
 66
     1
 10
0.0
 20
0.0
 30
0.0
  0
VERTEX
  5
404
330
403
100
AcDbEntity
  8
49
 62
     4
420
    65535
370
    25
100
AcDbVertex
100
AcDb2dVertex
 10
139.853786114997
 20
23.37598794499678
 30
0.0
  0
VERTEX
  5
405
330
403
100
AcDbEntity
  8
49
 62
     4
420
    65535
370
    25
100
AcDbVertex
100
AcDb2dVertex
 10
141.520452774997
 20
23.37598794499678
 30
0.0
  0
SEQEND
  5
406
330
403
100
AcDbEntity
  8
49
 62
     4
420
    65535
370
    25
  0
ENDBLK
  5
402
330
3FF
100
AcDbEntity
  8
0
100
AcDbBlockEnd
  0
BLOCK
  5
409
330
407
100
AcDbEntity
  8
0
100
AcDbBlockBegin
  2
block 125
 70
     0
 10
0.0
 20
0.0
 30
0.0
  3
block 125
  1

  0
POLYLINE
  5
40B
330
407
100
AcDbEntity
  8
49
 62
     4
420
    65535
370
    25
100
AcDb2dPolyline
 66
     1
 10
0.0
 20
0.0
 30
0.0
  0
VERTEX
  5
40C
330
40B
100
AcDbEntity
  8
49
 62
     4
420
    65535
370
    25
100
AcDbVertex
100
AcDb2dVertex
 10
139.853786114997
 20
24.37598794499681
 30
0.0
  0
VERTEX
  5
40D
330
40B
100
AcDbEntity
  8
49
 62
     4
420
    65535
370
    25
100
AcDbVertex
100
AcDb2dVertex
 10
140.453786114997
 20
24.37598794499681
 30
0.0
  0
SEQEND
  5
40E
330
40B
100
AcDbEntity
  8
49
 62
     4
420
    65535
370
    25
  0
ENDBLK
  5
40A
330
407
100
AcDbEntity
  8
0
100
AcDbBlockEnd
  0
BLOCK
  5
411
330
40F
100
AcDbEntity
  8
0
100
AcDbBlockBegin
  2
block 126
 70
     0
 10
0.0
 20
0.0
 30
0.0
  3
block 126
  1

  0
POLYLINE
  5
413
330
40F
100
AcDbEntity
  8
49
 62
     4
420
    65535
370
    25
100
AcDb2dPolyline
 66
     1
 10
0.0
 20
0.0
 30
0.0
  0
VERTEX
  5
414
330
413
100
AcDbEntity
  8
49
 62
     4
420
    65535
370
    25
100
AcDbVertex
100
AcDb2dVertex
 10
139.853786114997
 20
23.17598794499677
 30
0.0
  0
VERTEX
  5
415
330
413
100
AcDbEntity
  8
49
 62
     4
420
    65535
370
    25
100
AcDbVertex
100
AcDb2dVertex
 10
140.453786114997
 20
23.17598794499677
 30
0.0
  0
SEQEND
  5
416
330
413
100
AcDbEntity
  8
49
 62
     4
420
    65535
370
    25
  0
ENDBLK
  5
412
330
40F
100
AcDbEntity
  8
0
100
AcDbBlockEnd
  0
BLOCK
  5
419
330
417
100
AcDbEntity
  8
0
100
AcDbBlockBegin
  2
block 127
 70
     0
 10
0.0
 20
0.0
 30
0.0
  3
block 127
  1

  0
POLYLINE
  5
41B
330
417
100
AcDbEntity
  8
49
 62
     4
420
    65535
370
    25
100
AcDb2dPolyline
 66
     1
 10
0.0
 20
0.0
 30
0.0
  0
VERTEX
  5
41C
330
41B
100
AcDbEntity
  8
49
 62
     4
420
    65535
370
    25
100
AcDbVertex
100
AcDb2dVertex
 10
114.753786114997
 20
23.77598794499679
 30
0.0
  0
VERTEX
  5
41D
330
41B
100
AcDbEntity
  8
49
 62
     4
420
    65535
370
    25
100
AcDbVertex
100
AcDb2dVertex
 10
139.7537861149966
 20
23.77598794499679
 30
0.0
  0
SEQEND
  5
41E
330
41B
100
AcDbEntity
  8
49
 62
     4
420
    65535
370
    25
  0
ENDBLK
  5
41A
330
417
100
AcDbEntity
  8
0
100
AcDbBlockEnd
  0
BLOCK
  5
421
330
41F
100
AcDbEntity
  8
0
100
AcDbBlockBegin
  2
block 128
 70
     0
 10
0.0
 20
0.0
 30
0.0
  3
block 128
  1

  0
MTEXT
  5
423
330
41F
100
AcDbEntity
  8
49
 62
     2
420
 16776960
100
AcDbMText
 10
124.6517582899634
 20
25.2759873221044
 30
0.0
 40
3.499999953157898
 41
0.0
 46
0.0
 71
     7
 72
     1
  1
\fMyriad Pro|b0|i0|c0|p34;\W0.625;33
 73
     1
 44
1.0
  0
ENDBLK
  5
422
330
41F
100
AcDbEntity
  8
0
100
AcDbBlockEnd
  0
BLOCK
  5
426
330
424
100
AcDbEntity
  8
0
100
AcDbBlockBegin
  2
block 129
 70
     0
 10
0.0
 20
0.0
 30
0.0
  3
block 129
  1

  0
POLYLINE
  5
428
330
424
100
AcDbEntity
  8
49
 62
     4
420
    65535
370
    25
100
AcDb2dPolyline
 66
     1
 10
0.0
 20
0.0
 30
0.0
  0
VERTEX
  5
429
330
428
100
AcDbEntity
  8
49
 62
     4
420
    65535
370
    25
100
AcDbVertex
100
AcDb2dVertex
 10
169.2537861149967
 20
37.27598794499695
 30
0.0
  0
VERTEX
  5
42A
330
428
100
AcDbEntity
  8
49
 62
     4
420
    65535
370
    25
100
AcDbVertex
100
AcDb2dVertex
 10
127.2537861149971
 20
37.27598794499695
 30
0.0
  0
SEQEND
  5
42B
330
428
100
AcDbEntity
  8
49
 62
     4
420
    65535
370
    25
  0
ENDBLK
  5
427
330
424
100
AcDbEntity
  8
0
100
AcDbBlockEnd
  0
BLOCK
  5
42E
330
42C
100
AcDbEntity
  8
0
100
AcDbBlockBegin
  2
block 130
 70
     0
 10
0.0
 20
0.0
 30
0.0
  3
block 130
  1

  0
POLYLINE
  5
430
330
42C
100
AcDbEntity
  8
49
 62
     4
420
    65535
370
    25
100
AcDb2dPolyline
 66
     1
 10
0.0
 20
0.0
 30
0.0
  0
VERTEX
  5
431
330
430
100
AcDbEntity
  8
49
 62
     4
420
    65535
370
    25
100
AcDbVertex
100
AcDb2dVertex
 10
167.2537861149966
 20
37.27598794499695
 30
0.0
  0
VERTEX
  5
432
330
430
100
AcDbEntity
  8
49
 62
     4
420
    65535
370
    25
100
AcDbVertex
100
AcDb2dVertex
 10
166.5037861149968
 20
41.27598794499708
 30
0.0
  0
VERTEX
  5
433
330
430
100
AcDbEntity
  8
49
 62
     4
420
    65535
370
    25
100
AcDbVertex
100
AcDb2dVertex
 10
168.0037861149971
 20
41.27598794499708
 30
0.0
  0
VERTEX
  5
434
330
430
100
AcDbEntity
  8
49
 62
     4
420
    65535
370
    25
100
AcDbVertex
100
AcDb2dVertex
 10
167.2537861149966
 20
37.27598794499695
 30
0.0
  0
SEQEND
  5
435
330
430
100
AcDbEntity
  8
49
 62
     4
420
    65535
370
    25
  0
ENDBLK
  5
42F
330
42C
100
AcDbEntity
  8
0
100
AcDbBlockEnd
  0
BLOCK
  5
438
330
436
100
AcDbEntity
  8
0
100
AcDbBlockBegin
  2
block 131
 70
     0
 10
0.0
 20
0.0
 30
0.0
  3
block 131
  1

  0
POLYLINE
  5
43A
330
436
100
AcDbEntity
  8
49
 62
     4
420
    65535
370
    25
100
AcDb2dPolyline
 66
     1
 10
0.0
 20
0.0
 30
0.0
  0
VERTEX
  5
43B
330
43A
100
AcDbEntity
  8
49
 62
     4
420
    65535
370
    25
100
AcDbVertex
100
AcDb2dVertex
 10
167.2537861149966
 20
41.17598794499676
 30
0.0
  0
VERTEX
  5
43C
330
43A
100
AcDbEntity
  8
49
 62
     4
420
    65535
370
    25
100
AcDbVertex
100
AcDb2dVertex
 10
167.2537861149966
 20
37.37598794499663
 30
0.0
  0
SEQEND
  5
43D
330
43A
100
AcDbEntity
  8
49
 62
     4
420
    65535
370
    25
  0
ENDBLK
  5
439
330
436
100
AcDbEntity
  8
0
100
AcDbBlockEnd
  0
BLOCK
  5
440
330
43E
100
AcDbEntity
  8
0
100
AcDbBlockBegin
  2
block 132
 70
     0
 10
0.0
 20
0.0
 30
0.0
  3
block 132
  1

  0
POLYLINE
  5
442
330
43E
100
AcDbEntity
  8
49
 62
     4
420
    65535
370
    25
100
AcDb2dPolyline
 66
     1
 10
0.0
 20
0.0
 30
0.0
  0
VERTEX
  5
443
330
442
100
AcDbEntity
  8
49
 62
     4
420
    65535
370
    25
100
AcDbVertex
100
AcDb2dVertex
 10
167.4537861149966
 20
41.17598794499676
 30
0.0
  0
VERTEX
  5
444
330
442
100
AcDbEntity
  8
49
 62
     4
420
    65535
370
    25
100
AcDbVertex
100
AcDb2dVertex
 10
167.4537861149966
 20
38.44265461499696
 30
0.0
  0
SEQEND
  5
445
330
442
100
AcDbEntity
  8
49
 62
     4
420
    65535
370
    25
  0
ENDBLK
  5
441
330
43E
100
AcDbEntity
  8
0
100
AcDbBlockEnd
  0
BLOCK
  5
448
330
446
100
AcDbEntity
  8
0
100
AcDbBlockBegin
  2
block 133
 70
     0
 10
0.0
 20
0.0
 30
0.0
  3
block 133
  1

  0
POLYLINE
  5
44A
330
446
100
AcDbEntity
  8
49
 62
     4
420
    65535
370
    25
100
AcDb2dPolyline
 66
     1
 10
0.0
 20
0.0
 30
0.0
  0
VERTEX
  5
44B
330
44A
100
AcDbEntity
  8
49
 62
     4
420
    65535
370
    25
100
AcDbVertex
100
AcDb2dVertex
 10
167.0537861149966
 20
41.17598794499676
 30
0.0
  0
VERTEX
  5
44C
330
44A
100
AcDbEntity
  8
49
 62
     4
420
    65535
370
    25
100
AcDbVertex
100
AcDb2dVertex
 10
167.0537861149966
 20
38.44265461499696
 30
0.0
  0
SEQEND
  5
44D
330
44A
100
AcDbEntity
  8
49
 62
     4
420
    65535
370
    25
  0
ENDBLK
  5
449
330
446
100
AcDbEntity
  8
0
100
AcDbBlockEnd
  0
BLOCK
  5
450
330
44E
100
AcDbEntity
  8
0
100
AcDbBlockBegin
  2
block 134
 70
     0
 10
0.0
 20
0.0
 30
0.0
  3
block 134
  1

  0
POLYLINE
  5
452
330
44E
100
AcDbEntity
  8
49
 62
     4
420
    65535
370
    25
100
AcDb2dPolyline
 66
     1
 10
0.0
 20
0.0
 30
0.0
  0
VERTEX
  5
453
330
452
100
AcDbEntity
  8
49
 62
     4
420
    65535
370
    25
100
AcDbVertex
100
AcDb2dVertex
 10
167.6537861149966
 20
41.17598794499676
 30
0.0
  0
VERTEX
  5
454
330
452
100
AcDbEntity
  8
49
 62
     4
420
    65535
370
    25
100
AcDbVertex
100
AcDb2dVertex
 10
167.6537861149966
 20
39.50932127499705
 30
0.0
  0
SEQEND
  5
455
330
452
100
AcDbEntity
  8
49
 62
     4
420
    65535
370
    25
  0
ENDBLK
  5
451
330
44E
100
AcDbEntity
  8
0
100
AcDbBlockEnd
  0
BLOCK
  5
458
330
456
100
AcDbEntity
  8
0
100
AcDbBlockBegin
  2
block 135
 70
     0
 10
0.0
 20
0.0
 30
0.0
  3
block 135
  1

  0
POLYLINE
  5
45A
330
456
100
AcDbEntity
  8
49
 62
     4
420
    65535
370
    25
100
AcDb2dPolyline
 66
     1
 10
0.0
 20
0.0
 30
0.0
  0
VERTEX
  5
45B
330
45A
100
AcDbEntity
  8
49
 62
     4
420
    65535
370
    25
100
AcDbVertex
100
AcDb2dVertex
 10
166.8537861149966
 20
41.17598794499676
 30
0.0
  0
VERTEX
  5
45C
330
45A
100
AcDbEntity
  8
49
 62
     4
420
    65535
370
    25
100
AcDbVertex
100
AcDb2dVertex
 10
166.8537861149966
 20
39.50932127499705
 30
0.0
  0
SEQEND
  5
45D
330
45A
100
AcDbEntity
  8
49
 62
     4
420
    65535
370
    25
  0
ENDBLK
  5
459
330
456
100
AcDbEntity
  8
0
100
AcDbBlockEnd
  0
BLOCK
  5
460
330
45E
100
AcDbEntity
  8
0
100
AcDbBlockBegin
  2
block 136
 70
     0
 10
0.0
 20
0.0
 30
0.0
  3
block 136
  1

  0
POLYLINE
  5
462
330
45E
100
AcDbEntity
  8
49
 62
     4
420
    65535
370
    25
100
AcDb2dPolyline
 66
     1
 10
0.0
 20
0.0
 30
0.0
  0
VERTEX
  5
463
330
462
100
AcDbEntity
  8
49
 62
     4
420
    65535
370
    25
100
AcDbVertex
100
AcDb2dVertex
 10
167.8537861149966
 20
41.17598794499676
 30
0.0
  0
VERTEX
  5
464
330
462
100
AcDbEntity
  8
49
 62
     4
420
    65535
370
    25
100
AcDbVertex
100
AcDb2dVertex
 10
167.8537861149966
 20
40.57598794499674
 30
0.0
  0
SEQEND
  5
465
330
462
100
AcDbEntity
  8
49
 62
     4
420
    65535
370
    25
  0
ENDBLK
  5
461
330
45E
100
AcDbEntity
  8
0
100
AcDbBlockEnd
  0
BLOCK
  5
468
330
466
100
AcDbEntity
  8
0
100
AcDbBlockBegin
  2
block 137
 70
     0
 10
0.0
 20
0.0
 30
0.0
  3
block 137
  1

  0
POLYLINE
  5
46A
330
466
100
AcDbEntity
  8
49
 62
     4
420
    65535
370
    25
100
AcDb2dPolyline
 66
     1
 10
0.0
 20
0.0
 30
0.0
  0
VERTEX
  5
46B
330
46A
100
AcDbEntity
  8
49
 62
     4
420
    65535
370
    25
100
AcDbVertex
100
AcDb2dVertex
 10
166.6537861149966
 20
41.17598794499676
 30
0.0
  0
VERTEX
  5
46C
330
46A
100
AcDbEntity
  8
49
 62
     4
420
    65535
370
    25
100
AcDbVertex
100
AcDb2dVertex
 10
166.6537861149966
 20
40.57598794499674
 30
0.0
  0
SEQEND
  5
46D
330
46A
100
AcDbEntity
  8
49
 62
     4
420
    65535
370
    25
  0
ENDBLK
  5
469
330
466
100
AcDbEntity
  8
0
100
AcDbBlockEnd
  0
BLOCK
  5
470
330
46E
100
AcDbEntity
  8
0
100
AcDbBlockBegin
  2
block 138
 70
     0
 10
0.0
 20
0.0
 30
0.0
  3
block 138
  1

  0
POLYLINE
  5
472
330
46E
100
AcDbEntity
  8
49
 62
     4
420
    65535
370
    25
100
AcDb2dPolyline
 66
     1
 10
0.0
 20
0.0
 30
0.0
  0
VERTEX
  5
473
330
472
100
AcDbEntity
  8
49
 62
     4
420
    65535
370
    25
100
AcDbVertex
100
AcDb2dVertex
 10
169.2537861149967
 20
107.2759879449969
 30
0.0
  0
VERTEX
  5
474
330
472
100
AcDbEntity
  8
49
 62
     4
420
    65535
370
    25
100
AcDbVertex
100
AcDb2dVertex
 10
127.2537861149971
 20
107.2759879449969
 30
0.0
  0
SEQEND
  5
475
330
472
100
AcDbEntity
  8
49
 62
     4
420
    65535
370
    25
  0
ENDBLK
  5
471
330
46E
100
AcDbEntity
  8
0
100
AcDbBlockEnd
  0
BLOCK
  5
478
330
476
100
AcDbEntity
  8
0
100
AcDbBlockBegin
  2
block 139
 70
     0
 10
0.0
 20
0.0
 30
0.0
  3
block 139
  1

  0
POLYLINE
  5
47A
330
476
100
AcDbEntity
  8
49
 62
     4
420
    65535
370
    25
100
AcDb2dPolyline
 66
     1
 10
0.0
 20
0.0
 30
0.0
  0
VERTEX
  5
47B
330
47A
100
AcDbEntity
  8
49
 62
     4
420
    65535
370
    25
100
AcDbVertex
100
AcDb2dVertex
 10
167.2537861149966
 20
107.2759879449969
 30
0.0
  0
VERTEX
  5
47C
330
47A
100
AcDbEntity
  8
49
 62
     4
420
    65535
370
    25
100
AcDbVertex
100
AcDb2dVertex
 10
168.0037861149971
 20
103.275987944997
 30
0.0
  0
VERTEX
  5
47D
330
47A
100
AcDbEntity
  8
49
 62
     4
420
    65535
370
    25
100
AcDbVertex
100
AcDb2dVertex
 10
166.5037861149968
 20
103.275987944997
 30
0.0
  0
VERTEX
  5
47E
330
47A
100
AcDbEntity
  8
49
 62
     4
420
    65535
370
    25
100
AcDbVertex
100
AcDb2dVertex
 10
167.2537861149966
 20
107.2759879449969
 30
0.0
  0
SEQEND
  5
47F
330
47A
100
AcDbEntity
  8
49
 62
     4
420
    65535
370
    25
  0
ENDBLK
  5
479
330
476
100
AcDbEntity
  8
0
100
AcDbBlockEnd
  0
BLOCK
  5
482
330
480
100
AcDbEntity
  8
0
100
AcDbBlockBegin
  2
block 140
 70
     0
 10
0.0
 20
0.0
 30
0.0
  3
block 140
  1

  0
POLYLINE
  5
484
330
480
100
AcDbEntity
  8
49
 62
     4
420
    65535
370
    25
100
AcDb2dPolyline
 66
     1
 10
0.0
 20
0.0
 30
0.0
  0
VERTEX
  5
485
330
484
100
AcDbEntity
  8
49
 62
     4
420
    65535
370
    25
100
AcDbVertex
100
AcDb2dVertex
 10
167.2537861149966
 20
103.375987944997
 30
0.0
  0
VERTEX
  5
486
330
484
100
AcDbEntity
  8
49
 62
     4
420
    65535
370
    25
100
AcDbVertex
100
AcDb2dVertex
 10
167.2537861149966
 20
107.1759879449968
 30
0.0
  0
SEQEND
  5
487
330
484
100
AcDbEntity
  8
49
 62
     4
420
    65535
370
    25
  0
ENDBLK
  5
483
330
480
100
AcDbEntity
  8
0
100
AcDbBlockEnd
  0
BLOCK
  5
48A
330
488
100
AcDbEntity
  8
0
100
AcDbBlockBegin
  2
block 141
 70
     0
 10
0.0
 20
0.0
 30
0.0
  3
block 141
  1

  0
POLYLINE
  5
48C
330
488
100
AcDbEntity
  8
49
 62
     4
420
    65535
370
    25
100
AcDb2dPolyline
 66
     1
 10
0.0
 20
0.0
 30
0.0
  0
VERTEX
  5
48D
330
48C
100
AcDbEntity
  8
49
 62
     4
420
    65535
370
    25
100
AcDbVertex
100
AcDb2dVertex
 10
167.0537861149966
 20
103.375987944997
 30
0.0
  0
VERTEX
  5
48E
330
48C
100
AcDbEntity
  8
49
 62
     4
420
    65535
370
    25
100
AcDbVertex
100
AcDb2dVertex
 10
167.0537861149966
 20
106.1093212749968
 30
0.0
  0
SEQEND
  5
48F
330
48C
100
AcDbEntity
  8
49
 62
     4
420
    65535
370
    25
  0
ENDBLK
  5
48B
330
488
100
AcDbEntity
  8
0
100
AcDbBlockEnd
  0
BLOCK
  5
492
330
490
100
AcDbEntity
  8
0
100
AcDbBlockBegin
  2
block 142
 70
     0
 10
0.0
 20
0.0
 30
0.0
  3
block 142
  1

  0
POLYLINE
  5
494
330
490
100
AcDbEntity
  8
49
 62
     4
420
    65535
370
    25
100
AcDb2dPolyline
 66
     1
 10
0.0
 20
0.0
 30
0.0
  0
VERTEX
  5
495
330
494
100
AcDbEntity
  8
49
 62
     4
420
    65535
370
    25
100
AcDbVertex
100
AcDb2dVertex
 10
167.4537861149966
 20
103.375987944997
 30
0.0
  0
VERTEX
  5
496
330
494
100
AcDbEntity
  8
49
 62
     4
420
    65535
370
    25
100
AcDbVertex
100
AcDb2dVertex
 10
167.4537861149966
 20
106.1093212749968
 30
0.0
  0
SEQEND
  5
497
330
494
100
AcDbEntity
  8
49
 62
     4
420
    65535
370
    25
  0
ENDBLK
  5
493
330
490
100
AcDbEntity
  8
0
100
AcDbBlockEnd
  0
BLOCK
  5
49A
330
498
100
AcDbEntity
  8
0
100
AcDbBlockBegin
  2
block 143
 70
     0
 10
0.0
 20
0.0
 30
0.0
  3
block 143
  1

  0
POLYLINE
  5
49C
330
498
100
AcDbEntity
  8
49
 62
     4
420
    65535
370
    25
100
AcDb2dPolyline
 66
     1
 10
0.0
 20
0.0
 30
0.0
  0
VERTEX
  5
49D
330
49C
100
AcDbEntity
  8
49
 62
     4
420
    65535
370
    25
100
AcDbVertex
100
AcDb2dVertex
 10
166.8537861149966
 20
103.375987944997
 30
0.0
  0
VERTEX
  5
49E
330
49C
100
AcDbEntity
  8
49
 62
     4
420
    65535
370
    25
100
AcDbVertex
100
AcDb2dVertex
 10
166.8537861149966
 20
105.0426546149971
 30
0.0
  0
SEQEND
  5
49F
330
49C
100
AcDbEntity
  8
49
 62
     4
420
    65535
370
    25
  0
ENDBLK
  5
49B
330
498
100
AcDbEntity
  8
0
100
AcDbBlockEnd
  0
BLOCK
  5
4A2
330
4A0
100
AcDbEntity
  8
0
100
AcDbBlockBegin
  2
block 144
 70
     0
 10
0.0
 20
0.0
 30
0.0
  3
block 144
  1

  0
POLYLINE
  5
4A4
330
4A0
100
AcDbEntity
  8
49
 62
     4
420
    65535
370
    25
100
AcDb2dPolyline
 66
     1
 10
0.0
 20
0.0
 30
0.0
  0
VERTEX
  5
4A5
330
4A4
100
AcDbEntity
  8
49
 62
     4
420
    65535
370
    25
100
AcDbVertex
100
AcDb2dVertex
 10
167.6537861149966
 20
103.375987944997
 30
0.0
  0
VERTEX
  5
4A6
330
4A4
100
AcDbEntity
  8
49
 62
     4
420
    65535
370
    25
100
AcDbVertex
100
AcDb2dVertex
 10
167.6537861149966
 20
105.0426546149971
 30
0.0
  0
SEQEND
  5
4A7
330
4A4
100
AcDbEntity
  8
49
 62
     4
420
    65535
370
    25
  0
ENDBLK
  5
4A3
330
4A0
100
AcDbEntity
  8
0
100
AcDbBlockEnd
  0
BLOCK
  5
4AA
330
4A8
100
AcDbEntity
  8
0
100
AcDbBlockBegin
  2
block 145
 70
     0
 10
0.0
 20
0.0
 30
0.0
  3
block 145
  1

  0
POLYLINE
  5
4AC
330
4A8
100
AcDbEntity
  8
49
 62
     4
420
    65535
370
    25
100
AcDb2dPolyline
 66
     1
 10
0.0
 20
0.0
 30
0.0
  0
VERTEX
  5
4AD
330
4AC
100
AcDbEntity
  8
49
 62
     4
420
    65535
370
    25
100
AcDbVertex
100
AcDb2dVertex
 10
166.6537861149966
 20
103.375987944997
 30
0.0
  0
VERTEX
  5
4AE
330
4AC
100
AcDbEntity
  8
49
 62
     4
420
    65535
370
    25
100
AcDbVertex
100
AcDb2dVertex
 10
166.6537861149966
 20
103.9759879449971
 30
0.0
  0
SEQEND
  5
4AF
330
4AC
100
AcDbEntity
  8
49
 62
     4
420
    65535
370
    25
  0
ENDBLK
  5
4AB
330
4A8
100
AcDbEntity
  8
0
100
AcDbBlockEnd
  0
BLOCK
  5
4B2
330
4B0
100
AcDbEntity
  8
0
100
AcDbBlockBegin
  2
block 146
 70
     0
 10
0.0
 20
0.0
 30
0.0
  3
block 146
  1

  0
POLYLINE
  5
4B4
330
4B0
100
AcDbEntity
  8
49
 62
     4
420
    65535
370
    25
100
AcDb2dPolyline
 66
     1
 10
0.0
 20
0.0
 30
0.0
  0
VERTEX
  5
4B5
330
4B4
100
AcDbEntity
  8
49
 62
     4
420
    65535
370
    25
100
AcDbVertex
100
AcDb2dVertex
 10
167.8537861149966
 20
103.375987944997
 30
0.0
  0
VERTEX
  5
4B6
330
4B4
100
AcDbEntity
  8
49
 62
     4
420
    65535
370
    25
100
AcDbVertex
100
AcDb2dVertex
 10
167.8537861149966
 20
103.9759879449971
 30
0.0
  0
SEQEND
  5
4B7
330
4B4
100
AcDbEntity
  8
49
 62
     4
420
    65535
370
    25
  0
ENDBLK
  5
4B3
330
4B0
100
AcDbEntity
  8
0
100
AcDbBlockEnd
  0
BLOCK
  5
4BA
330
4B8
100
AcDbEntity
  8
0
100
AcDbBlockBegin
  2
block 147
 70
     0
 10
0.0
 20
0.0
 30
0.0
  3
block 147
  1

  0
POLYLINE
  5
4BC
330
4B8
100
AcDbEntity
  8
49
 62
     4
420
    65535
370
    25
100
AcDb2dPolyline
 66
     1
 10
0.0
 20
0.0
 30
0.0
  0
VERTEX
  5
4BD
330
4BC
100
AcDbEntity
  8
49
 62
     4
420
    65535
370
    25
100
AcDbVertex
100
AcDb2dVertex
 10
167.2537861149966
 20
41.27598794499708
 30
0.0
  0
VERTEX
  5
4BE
330
4BC
100
AcDbEntity
  8
49
 62
     4
420
    65535
370
    25
100
AcDbVertex
100
AcDb2dVertex
 10
167.2537861149966
 20
103.275987944997
 30
0.0
  0
SEQEND
  5
4BF
330
4BC
100
AcDbEntity
  8
49
 62
     4
420
    65535
370
    25
  0
ENDBLK
  5
4BB
330
4B8
100
AcDbEntity
  8
0
100
AcDbBlockEnd
  0
BLOCK
  5
4C2
330
4C0
100
AcDbEntity
  8
0
100
AcDbBlockBegin
  2
block 148
 70
     0
 10
0.0
 20
0.0
 30
0.0
  3
block 148
  1

  0
MTEXT
  5
4C4
330
4C0
100
AcDbEntity
  8
49
 62
     2
420
 16776960
100
AcDbMText
 10
165.7537869842655
 20
69.67379479884067
 30
0.0
 40
3.499999953181003
 41
0.0
 46
0.0
 71
     7
 72
     1
  1
\fMyriad Pro|b0|i0|c0|p34;\W0.625;70
 11
-3.633531150557140E-6
 21
0.9999999999933987
 31
0.0
 73
     1
 44
1.0
  0
ENDBLK
  5
4C3
330
4C0
100
AcDbEntity
  8
0
100
AcDbBlockEnd
  0
BLOCK
  5
4C7
330
4C5
100
AcDbEntity
  8
0
100
AcDbBlockBegin
  2
block 149
 70
     0
 10
0.0
 20
0.0
 30
0.0
  3
block 149
  1

  0
POLYLINE
  5
4C9
330
4C5
100
AcDbEntity
  8
49
 62
     4
420
    65535
370
    25
100
AcDb2dPolyline
 66
     1
 10
0.0
 20
0.0
 30
0.0
  0
VERTEX
  5
4CA
330
4C9
100
AcDbEntity
  8
49
 62
     4
420
    65535
370
    25
100
AcDbVertex
100
AcDb2dVertex
 10
169.2537861149967
 20
147.275987944997
 30
0.0
  0
VERTEX
  5
4CB
330
4C9
100
AcDbEntity
  8
49
 62
     4
420
    65535
370
    25
100
AcDbVertex
100
AcDb2dVertex
 10
127.2537861149971
 20
147.275987944997
 30
0.0
  0
SEQEND
  5
4CC
330
4C9
100
AcDbEntity
  8
49
 62
     4
420
    65535
370
    25
  0
ENDBLK
  5
4C8
330
4C5
100
AcDbEntity
  8
0
100
AcDbBlockEnd
  0
BLOCK
  5
4CF
330
4CD
100
AcDbEntity
  8
0
100
AcDbBlockBegin
  2
block 150
 70
     0
 10
0.0
 20
0.0
 30
0.0
  3
block 150
  1

  0
POLYLINE
  5
4D1
330
4CD
100
AcDbEntity
  8
49
 62
     4
420
    65535
370
    25
100
AcDb2dPolyline
 66
     1
 10
0.0
 20
0.0
 30
0.0
  0
VERTEX
  5
4D2
330
4D1
100
AcDbEntity
  8
49
 62
     4
420
    65535
370
    25
100
AcDbVertex
100
AcDb2dVertex
 10
167.2537861149966
 20
147.275987944997
 30
0.0
  0
VERTEX
  5
4D3
330
4D1
100
AcDbEntity
  8
49
 62
     4
420
    65535
370
    25
100
AcDbVertex
100
AcDb2dVertex
 10
166.5037861149968
 20
151.2759879449968
 30
0.0
  0
VERTEX
  5
4D4
330
4D1
100
AcDbEntity
  8
49
 62
     4
420
    65535
370
    25
100
AcDbVertex
100
AcDb2dVertex
 10
168.0037861149971
 20
151.2759879449968
 30
0.0
  0
VERTEX
  5
4D5
330
4D1
100
AcDbEntity
  8
49
 62
     4
420
    65535
370
    25
100
AcDbVertex
100
AcDb2dVertex
 10
167.2537861149966
 20
147.275987944997
 30
0.0
  0
SEQEND
  5
4D6
330
4D1
100
AcDbEntity
  8
49
 62
     4
420
    65535
370
    25
  0
ENDBLK
  5
4D0
330
4CD
100
AcDbEntity
  8
0
100
AcDbBlockEnd
  0
BLOCK
  5
4D9
330
4D7
100
AcDbEntity
  8
0
100
AcDbBlockBegin
  2
block 151
 70
     0
 10
0.0
 20
0.0
 30
0.0
  3
block 151
  1

  0
POLYLINE
  5
4DB
330
4D7
100
AcDbEntity
  8
49
 62
     4
420
    65535
370
    25
100
AcDb2dPolyline
 66
     1
 10
0.0
 20
0.0
 30
0.0
  0
VERTEX
  5
4DC
330
4DB
100
AcDbEntity
  8
49
 62
     4
420
    65535
370
    25
100
AcDbVertex
100
AcDb2dVertex
 10
167.2537861149966
 20
151.1759879449968
 30
0.0
  0
VERTEX
  5
4DD
330
4DB
100
AcDbEntity
  8
49
 62
     4
420
    65535
370
    25
100
AcDbVertex
100
AcDb2dVertex
 10
167.2537861149966
 20
147.375987944997
 30
0.0
  0
SEQEND
  5
4DE
330
4DB
100
AcDbEntity
  8
49
 62
     4
420
    65535
370
    25
  0
ENDBLK
  5
4DA
330
4D7
100
AcDbEntity
  8
0
100
AcDbBlockEnd
  0
BLOCK
  5
4E1
330
4DF
100
AcDbEntity
  8
0
100
AcDbBlockBegin
  2
block 152
 70
     0
 10
0.0
 20
0.0
 30
0.0
  3
block 152
  1

  0
POLYLINE
  5
4E3
330
4DF
100
AcDbEntity
  8
49
 62
     4
420
    65535
370
    25
100
AcDb2dPolyline
 66
     1
 10
0.0
 20
0.0
 30
0.0
  0
VERTEX
  5
4E4
330
4E3
100
AcDbEntity
  8
49
 62
     4
420
    65535
370
    25
100
AcDbVertex
100
AcDb2dVertex
 10
167.4537861149966
 20
151.1759879449968
 30
0.0
  0
VERTEX
  5
4E5
330
4E3
100
AcDbEntity
  8
49
 62
     4
420
    65535
370
    25
100
AcDbVertex
100
AcDb2dVertex
 10
167.4537861149966
 20
148.442654614997
 30
0.0
  0
SEQEND
  5
4E6
330
4E3
100
AcDbEntity
  8
49
 62
     4
420
    65535
370
    25
  0
ENDBLK
  5
4E2
330
4DF
100
AcDbEntity
  8
0
100
AcDbBlockEnd
  0
BLOCK
  5
4E9
330
4E7
100
AcDbEntity
  8
0
100
AcDbBlockBegin
  2
block 153
 70
     0
 10
0.0
 20
0.0
 30
0.0
  3
block 153
  1

  0
POLYLINE
  5
4EB
330
4E7
100
AcDbEntity
  8
49
 62
     4
420
    65535
370
    25
100
AcDb2dPolyline
 66
     1
 10
0.0
 20
0.0
 30
0.0
  0
VERTEX
  5
4EC
330
4EB
100
AcDbEntity
  8
49
 62
     4
420
    65535
370
    25
100
AcDbVertex
100
AcDb2dVertex
 10
167.0537861149966
 20
151.1759879449968
 30
0.0
  0
VERTEX
  5
4ED
330
4EB
100
AcDbEntity
  8
49
 62
     4
420
    65535
370
    25
100
AcDbVertex
100
AcDb2dVertex
 10
167.0537861149966
 20
148.442654614997
 30
0.0
  0
SEQEND
  5
4EE
330
4EB
100
AcDbEntity
  8
49
 62
     4
420
    65535
370
    25
  0
ENDBLK
  5
4EA
330
4E7
100
AcDbEntity
  8
0
100
AcDbBlockEnd
  0
BLOCK
  5
4F1
330
4EF
100
AcDbEntity
  8
0
100
AcDbBlockBegin
  2
block 154
 70
     0
 10
0.0
 20
0.0
 30
0.0
  3
block 154
  1

  0
POLYLINE
  5
4F3
330
4EF
100
AcDbEntity
  8
49
 62
     4
420
    65535
370
    25
100
AcDb2dPolyline
 66
     1
 10
0.0
 20
0.0
 30
0.0
  0
VERTEX
  5
4F4
330
4F3
100
AcDbEntity
  8
49
 62
     4
420
    65535
370
    25
100
AcDbVertex
100
AcDb2dVertex
 10
167.6537861149966
 20
151.1759879449968
 30
0.0
  0
VERTEX
  5
4F5
330
4F3
100
AcDbEntity
  8
49
 62
     4
420
    65535
370
    25
100
AcDbVertex
100
AcDb2dVertex
 10
167.6537861149966
 20
149.5093212749968
 30
0.0
  0
SEQEND
  5
4F6
330
4F3
100
AcDbEntity
  8
49
 62
     4
420
    65535
370
    25
  0
ENDBLK
  5
4F2
330
4EF
100
AcDbEntity
  8
0
100
AcDbBlockEnd
  0
BLOCK
  5
4F9
330
4F7
100
AcDbEntity
  8
0
100
AcDbBlockBegin
  2
block 155
 70
     0
 10
0.0
 20
0.0
 30
0.0
  3
block 155
  1

  0
POLYLINE
  5
4FB
330
4F7
100
AcDbEntity
  8
49
 62
     4
420
    65535
370
    25
100
AcDb2dPolyline
 66
     1
 10
0.0
 20
0.0
 30
0.0
  0
VERTEX
  5
4FC
330
4FB
100
AcDbEntity
  8
49
 62
     4
420
    65535
370
    25
100
AcDbVertex
100
AcDb2dVertex
 10
166.8537861149966
 20
151.1759879449968
 30
0.0
  0
VERTEX
  5
4FD
330
4FB
100
AcDbEntity
  8
49
 62
     4
420
    65535
370
    25
100
AcDbVertex
100
AcDb2dVertex
 10
166.8537861149966
 20
149.5093212749968
 30
0.0
  0
SEQEND
  5
4FE
330
4FB
100
AcDbEntity
  8
49
 62
     4
420
    65535
370
    25
  0
ENDBLK
  5
4FA
330
4F7
100
AcDbEntity
  8
0
100
AcDbBlockEnd
  0
BLOCK
  5
501
330
4FF
100
AcDbEntity
  8
0
100
AcDbBlockBegin
  2
block 156
 70
     0
 10
0.0
 20
0.0
 30
0.0
  3
block 156
  1

  0
POLYLINE
  5
503
330
4FF
100
AcDbEntity
  8
49
 62
     4
420
    65535
370
    25
100
AcDb2dPolyline
 66
     1
 10
0.0
 20
0.0
 30
0.0
  0
VERTEX
  5
504
330
503
100
AcDbEntity
  8
49
 62
     4
420
    65535
370
    25
100
AcDbVertex
100
AcDb2dVertex
 10
167.8537861149966
 20
151.1759879449968
 30
0.0
  0
VERTEX
  5
505
330
503
100
AcDbEntity
  8
49
 62
     4
420
    65535
370
    25
100
AcDbVertex
100
AcDb2dVertex
 10
167.8537861149966
 20
150.5759879449968
 30
0.0
  0
SEQEND
  5
506
330
503
100
AcDbEntity
  8
49
 62
     4
420
    65535
370
    25
  0
ENDBLK
  5
502
330
4FF
100
AcDbEntity
  8
0
100
AcDbBlockEnd
  0
BLOCK
  5
509
330
507
100
AcDbEntity
  8
0
100
AcDbBlockBegin
  2
block 157
 70
     0
 10
0.0
 20
0.0
 30
0.0
  3
block 157
  1

  0
POLYLINE
  5
50B
330
507
100
AcDbEntity
  8
49
 62
     4
420
    65535
370
    25
100
AcDb2dPolyline
 66
     1
 10
0.0
 20
0.0
 30
0.0
  0
VERTEX
  5
50C
330
50B
100
AcDbEntity
  8
49
 62
     4
420
    65535
370
    25
100
AcDbVertex
100
AcDb2dVertex
 10
166.6537861149966
 20
151.1759879449968
 30
0.0
  0
VERTEX
  5
50D
330
50B
100
AcDbEntity
  8
49
 62
     4
420
    65535
370
    25
100
AcDbVertex
100
AcDb2dVertex
 10
166.6537861149966
 20
150.5759879449968
 30
0.0
  0
SEQEND
  5
50E
330
50B
100
AcDbEntity
  8
49
 62
     4
420
    65535
370
    25
  0
ENDBLK
  5
50A
330
507
100
AcDbEntity
  8
0
100
AcDbBlockEnd
  0
BLOCK
  5
511
330
50F
100
AcDbEntity
  8
0
100
AcDbBlockBegin
  2
block 158
 70
     0
 10
0.0
 20
0.0
 30
0.0
  3
block 158
  1

  0
POLYLINE
  5
513
330
50F
100
AcDbEntity
  8
49
 62
     4
420
    65535
370
    25
100
AcDb2dPolyline
 66
     1
 10
0.0
 20
0.0
 30
0.0
  0
VERTEX
  5
514
330
513
100
AcDbEntity
  8
49
 62
     4
420
    65535
370
    25
100
AcDbVertex
100
AcDb2dVertex
 10
169.2537861149967
 20
217.2759879449969
 30
0.0
  0
VERTEX
  5
515
330
513
100
AcDbEntity
  8
49
 62
     4
420
    65535
370
    25
100
AcDbVertex
100
AcDb2dVertex
 10
127.2537861149971
 20
217.2759879449969
 30
0.0
  0
SEQEND
  5
516
330
513
100
AcDbEntity
  8
49
 62
     4
420
    65535
370
    25
  0
ENDBLK
  5
512
330
50F
100
AcDbEntity
  8
0
100
AcDbBlockEnd
  0
BLOCK
  5
519
330
517
100
AcDbEntity
  8
0
100
AcDbBlockBegin
  2
block 159
 70
     0
 10
0.0
 20
0.0
 30
0.0
  3
block 159
  1

  0
POLYLINE
  5
51B
330
517
100
AcDbEntity
  8
49
 62
     4
420
    65535
370
    25
100
AcDb2dPolyline
 66
     1
 10
0.0
 20
0.0
 30
0.0
  0
VERTEX
  5
51C
330
51B
100
AcDbEntity
  8
49
 62
     4
420
    65535
370
    25
100
AcDbVertex
100
AcDb2dVertex
 10
167.2537861149966
 20
217.2759879449969
 30
0.0
  0
VERTEX
  5
51D
330
51B
100
AcDbEntity
  8
49
 62
     4
420
    65535
370
    25
100
AcDbVertex
100
AcDb2dVertex
 10
168.0037861149971
 20
213.2759879449971
 30
0.0
  0
VERTEX
  5
51E
330
51B
100
AcDbEntity
  8
49
 62
     4
420
    65535
370
    25
100
AcDbVertex
100
AcDb2dVertex
 10
166.5037861149968
 20
213.2759879449967
 30
0.0
  0
VERTEX
  5
51F
330
51B
100
AcDbEntity
  8
49
 62
     4
420
    65535
370
    25
100
AcDbVertex
100
AcDb2dVertex
 10
167.2537861149966
 20
217.2759879449969
 30
0.0
  0
SEQEND
  5
520
330
51B
100
AcDbEntity
  8
49
 62
     4
420
    65535
370
    25
  0
ENDBLK
  5
51A
330
517
100
AcDbEntity
  8
0
100
AcDbBlockEnd
  0
BLOCK
  5
523
330
521
100
AcDbEntity
  8
0
100
AcDbBlockBegin
  2
block 160
 70
     0
 10
0.0
 20
0.0
 30
0.0
  3
block 160
  1

  0
POLYLINE
  5
525
330
521
100
AcDbEntity
  8
49
 62
     4
420
    65535
370
    25
100
AcDb2dPolyline
 66
     1
 10
0.0
 20
0.0
 30
0.0
  0
VERTEX
  5
526
330
525
100
AcDbEntity
  8
49
 62
     4
420
    65535
370
    25
100
AcDbVertex
100
AcDb2dVertex
 10
167.2537861149966
 20
213.3759879449971
 30
0.0
  0
VERTEX
  5
527
330
525
100
AcDbEntity
  8
49
 62
     4
420
    65535
370
    25
100
AcDbVertex
100
AcDb2dVertex
 10
167.2537861149966
 20
217.1759879449969
 30
0.0
  0
SEQEND
  5
528
330
525
100
AcDbEntity
  8
49
 62
     4
420
    65535
370
    25
  0
ENDBLK
  5
524
330
521
100
AcDbEntity
  8
0
100
AcDbBlockEnd
  0
BLOCK
  5
52B
330
529
100
AcDbEntity
  8
0
100
AcDbBlockBegin
  2
block 161
 70
     0
 10
0.0
 20
0.0
 30
0.0
  3
block 161
  1

  0
POLYLINE
  5
52D
330
529
100
AcDbEntity
  8
49
 62
     4
420
    65535
370
    25
100
AcDb2dPolyline
 66
     1
 10
0.0
 20
0.0
 30
0.0
  0
VERTEX
  5
52E
330
52D
100
AcDbEntity
  8
49
 62
     4
420
    65535
370
    25
100
AcDbVertex
100
AcDb2dVertex
 10
167.0537861149966
 20
213.3759879449971
 30
0.0
  0
VERTEX
  5
52F
330
52D
100
AcDbEntity
  8
49
 62
     4
420
    65535
370
    25
100
AcDbVertex
100
AcDb2dVertex
 10
167.0537861149966
 20
216.1093212749969
 30
0.0
  0
SEQEND
  5
530
330
52D
100
AcDbEntity
  8
49
 62
     4
420
    65535
370
    25
  0
ENDBLK
  5
52C
330
529
100
AcDbEntity
  8
0
100
AcDbBlockEnd
  0
BLOCK
  5
533
330
531
100
AcDbEntity
  8
0
100
AcDbBlockBegin
  2
block 162
 70
     0
 10
0.0
 20
0.0
 30
0.0
  3
block 162
  1

  0
POLYLINE
  5
535
330
531
100
AcDbEntity
  8
49
 62
     4
420
    65535
370
    25
100
AcDb2dPolyline
 66
     1
 10
0.0
 20
0.0
 30
0.0
  0
VERTEX
  5
536
330
535
100
AcDbEntity
  8
49
 62
     4
420
    65535
370
    25
100
AcDbVertex
100
AcDb2dVertex
 10
167.4537861149966
 20
213.3759879449971
 30
0.0
  0
VERTEX
  5
537
330
535
100
AcDbEntity
  8
49
 62
     4
420
    65535
370
    25
100
AcDbVertex
100
AcDb2dVertex
 10
167.4537861149966
 20
216.1093212749969
 30
0.0
  0
SEQEND
  5
538
330
535
100
AcDbEntity
  8
49
 62
     4
420
    65535
370
    25
  0
ENDBLK
  5
534
330
531
100
AcDbEntity
  8
0
100
AcDbBlockEnd
  0
BLOCK
  5
53B
330
539
100
AcDbEntity
  8
0
100
AcDbBlockBegin
  2
block 163
 70
     0
 10
0.0
 20
0.0
 30
0.0
  3
block 163
  1

  0
POLYLINE
  5
53D
330
539
100
AcDbEntity
  8
49
 62
     4
420
    65535
370
    25
100
AcDb2dPolyline
 66
     1
 10
0.0
 20
0.0
 30
0.0
  0
VERTEX
  5
53E
330
53D
100
AcDbEntity
  8
49
 62
     4
420
    65535
370
    25
100
AcDbVertex
100
AcDb2dVertex
 10
166.8537861149966
 20
213.3759879449971
 30
0.0
  0
VERTEX
  5
53F
330
53D
100
AcDbEntity
  8
49
 62
     4
420
    65535
370
    25
100
AcDbVertex
100
AcDb2dVertex
 10
166.8537861149966
 20
215.0426546149968
 30
0.0
  0
SEQEND
  5
540
330
53D
100
AcDbEntity
  8
49
 62
     4
420
    65535
370
    25
  0
ENDBLK
  5
53C
330
539
100
AcDbEntity
  8
0
100
AcDbBlockEnd
  0
BLOCK
  5
543
330
541
100
AcDbEntity
  8
0
100
AcDbBlockBegin
  2
block 164
 70
     0
 10
0.0
 20
0.0
 30
0.0
  3
block 164
  1

  0
POLYLINE
  5
545
330
541
100
AcDbEntity
  8
49
 62
     4
420
    65535
370
    25
100
AcDb2dPolyline
 66
     1
 10
0.0
 20
0.0
 30
0.0
  0
VERTEX
  5
546
330
545
100
AcDbEntity
  8
49
 62
     4
420
    65535
370
    25
100
AcDbVertex
100
AcDb2dVertex
 10
167.6537861149966
 20
213.3759879449971
 30
0.0
  0
VERTEX
  5
547
330
545
100
AcDbEntity
  8
49
 62
     4
420
    65535
370
    25
100
AcDbVertex
100
AcDb2dVertex
 10
167.6537861149966
 20
215.0426546149968
 30
0.0
  0
SEQEND
  5
548
330
545
100
AcDbEntity
  8
49
 62
     4
420
    65535
370
    25
  0
ENDBLK
  5
544
330
541
100
AcDbEntity
  8
0
100
AcDbBlockEnd
  0
BLOCK
  5
54B
330
549
100
AcDbEntity
  8
0
100
AcDbBlockBegin
  2
block 165
 70
     0
 10
0.0
 20
0.0
 30
0.0
  3
block 165
  1

  0
POLYLINE
  5
54D
330
549
100
AcDbEntity
  8
49
 62
     4
420
    65535
370
    25
100
AcDb2dPolyline
 66
     1
 10
0.0
 20
0.0
 30
0.0
  0
VERTEX
  5
54E
330
54D
100
AcDbEntity
  8
49
 62
     4
420
    65535
370
    25
100
AcDbVertex
100
AcDb2dVertex
 10
166.6537861149966
 20
213.3759879449971
 30
0.0
  0
VERTEX
  5
54F
330
54D
100
AcDbEntity
  8
49
 62
     4
420
    65535
370
    25
100
AcDbVertex
100
AcDb2dVertex
 10
166.6537861149966
 20
213.9759879449968
 30
0.0
  0
SEQEND
  5
550
330
54D
100
AcDbEntity
  8
49
 62
     4
420
    65535
370
    25
  0
ENDBLK
  5
54C
330
549
100
AcDbEntity
  8
0
100
AcDbBlockEnd
  0
BLOCK
  5
553
330
551
100
AcDbEntity
  8
0
100
AcDbBlockBegin
  2
block 166
 70
     0
 10
0.0
 20
0.0
 30
0.0
  3
block 166
  1

  0
POLYLINE
  5
555
330
551
100
AcDbEntity
  8
49
 62
     4
420
    65535
370
    25
100
AcDb2dPolyline
 66
     1
 10
0.0
 20
0.0
 30
0.0
  0
VERTEX
  5
556
330
555
100
AcDbEntity
  8
49
 62
     4
420
    65535
370
    25
100
AcDbVertex
100
AcDb2dVertex
 10
167.8537861149966
 20
213.3759879449971
 30
0.0
  0
VERTEX
  5
557
330
555
100
AcDbEntity
  8
49
 62
     4
420
    65535
370
    25
100
AcDbVertex
100
AcDb2dVertex
 10
167.8537861149966
 20
213.9759879449968
 30
0.0
  0
SEQEND
  5
558
330
555
100
AcDbEntity
  8
49
 62
     4
420
    65535
370
    25
  0
ENDBLK
  5
554
330
551
100
AcDbEntity
  8
0
100
AcDbBlockEnd
  0
BLOCK
  5
55B
330
559
100
AcDbEntity
  8
0
100
AcDbBlockBegin
  2
block 167
 70
     0
 10
0.0
 20
0.0
 30
0.0
  3
block 167
  1

  0
POLYLINE
  5
55D
330
559
100
AcDbEntity
  8
49
 62
     4
420
    65535
370
    25
100
AcDb2dPolyline
 66
     1
 10
0.0
 20
0.0
 30
0.0
  0
VERTEX
  5
55E
330
55D
100
AcDbEntity
  8
49
 62
     4
420
    65535
370
    25
100
AcDbVertex
100
AcDb2dVertex
 10
167.2537861149966
 20
151.2759879449968
 30
0.0
  0
VERTEX
  5
55F
330
55D
100
AcDbEntity
  8
49
 62
     4
420
    65535
370
    25
100
AcDbVertex
100
AcDb2dVertex
 10
167.2537861149966
 20
213.2759879449967
 30
0.0
  0
SEQEND
  5
560
330
55D
100
AcDbEntity
  8
49
 62
     4
420
    65535
370
    25
  0
ENDBLK
  5
55C
330
559
100
AcDbEntity
  8
0
100
AcDbBlockEnd
  0
BLOCK
  5
563
330
561
100
AcDbEntity
  8
0
100
AcDbBlockBegin
  2
block 168
 70
     0
 10
0.0
 20
0.0
 30
0.0
  3
block 168
  1

  0
MTEXT
  5
565
330
561
100
AcDbEntity
  8
49
 62
     2
420
 16776960
100
AcDbMText
 10
165.7537869842655
 20
179.673971095125
 30
0.0
 40
3.499999953181003
 41
0.0
 46
0.0
 71
     7
 72
     1
  1
\fMyriad Pro|b0|i0|c0|p34;\W0.625;70
 11
-3.633531150557140E-6
 21
0.9999999999933987
 31
0.0
 73
     1
 44
1.0
  0
ENDBLK
  5
564
330
561
100
AcDbEntity
  8
0
100
AcDbBlockEnd
  0
BLOCK
  5
568
330
566
100
AcDbEntity
  8
0
100
AcDbBlockBegin
  2
block 169
 70
     0
 10
0.0
 20
0.0
 30
0.0
  3
block 169
  1

  0
POLYLINE
  5
56A
330
566
100
AcDbEntity
  8
49
 62
     4
420
    65535
370
    25
100
AcDb2dPolyline
 66
     1
 10
0.0
 20
0.0
 30
0.0
  0
VERTEX
  5
56B
330
56A
100
AcDbEntity
  8
49
 62
     4
420
    65535
370
    25
100
AcDbVertex
100
AcDb2dVertex
 10
110.7537861149969
 20
131.7759879449968
 30
0.0
  0
VERTEX
  5
56C
330
56A
100
AcDbEntity
  8
49
 62
     4
420
    65535
370
    25
100
AcDbVertex
100
AcDb2dVertex
 10
110.7537861149969
 20
163.7759879449969
 30
0.0
  0
SEQEND
  5
56D
330
56A
100
AcDbEntity
  8
49
 62
     4
420
    65535
370
    25
  0
ENDBLK
  5
569
330
566
100
AcDbEntity
  8
0
100
AcDbBlockEnd
  0
BLOCK
  5
570
330
56E
100
AcDbEntity
  8
0
100
AcDbBlockBegin
  2
block 170
 70
     0
 10
0.0
 20
0.0
 30
0.0
  3
block 170
  1

  0
POLYLINE
  5
572
330
56E
100
AcDbEntity
  8
49
 62
     4
420
    65535
370
    25
100
AcDb2dPolyline
 66
     1
 10
0.0
 20
0.0
 30
0.0
  0
VERTEX
  5
573
330
572
100
AcDbEntity
  8
49
 62
     4
420
    65535
370
    25
100
AcDbVertex
100
AcDb2dVertex
 10
110.7537861149969
 20
133.7759879449968
 30
0.0
  0
VERTEX
  5
574
330
572
100
AcDbEntity
  8
49
 62
     4
420
    65535
370
    25
100
AcDbVertex
100
AcDb2dVertex
 10
114.753786114997
 20
134.525987944997
 30
0.0
  0
VERTEX
  5
575
330
572
100
AcDbEntity
  8
49
 62
     4
420
    65535
370
    25
100
AcDbVertex
100
AcDb2dVertex
 10
114.753786114997
 20
133.025987944997
 30
0.0
  0
VERTEX
  5
576
330
572
100
AcDbEntity
  8
49
 62
     4
420
    65535
370
    25
100
AcDbVertex
100
AcDb2dVertex
 10
110.7537861149969
 20
133.7759879449968
 30
0.0
  0
SEQEND
  5
577
330
572
100
AcDbEntity
  8
49
 62
     4
420
    65535
370
    25
  0
ENDBLK
  5
571
330
56E
100
AcDbEntity
  8
0
100
AcDbBlockEnd
  0
BLOCK
  5
57A
330
578
100
AcDbEntity
  8
0
100
AcDbBlockBegin
  2
block 171
 70
     0
 10
0.0
 20
0.0
 30
0.0
  3
block 171
  1

  0
POLYLINE
  5
57C
330
578
100
AcDbEntity
  8
49
 62
     4
420
    65535
370
    25
100
AcDb2dPolyline
 66
     1
 10
0.0
 20
0.0
 30
0.0
  0
VERTEX
  5
57D
330
57C
100
AcDbEntity
  8
49
 62
     4
420
    65535
370
    25
100
AcDbVertex
100
AcDb2dVertex
 10
114.6537861149967
 20
133.7759879449968
 30
0.0
  0
VERTEX
  5
57E
330
57C
100
AcDbEntity
  8
49
 62
     4
420
    65535
370
    25
100
AcDbVertex
100
AcDb2dVertex
 10
110.8537861149972
 20
133.7759879449968
 30
0.0
  0
SEQEND
  5
57F
330
57C
100
AcDbEntity
  8
49
 62
     4
420
    65535
370
    25
  0
ENDBLK
  5
57B
330
578
100
AcDbEntity
  8
0
100
AcDbBlockEnd
  0
BLOCK
  5
582
330
580
100
AcDbEntity
  8
0
100
AcDbBlockBegin
  2
block 172
 70
     0
 10
0.0
 20
0.0
 30
0.0
  3
block 172
  1

  0
POLYLINE
  5
584
330
580
100
AcDbEntity
  8
49
 62
     4
420
    65535
370
    25
100
AcDb2dPolyline
 66
     1
 10
0.0
 20
0.0
 30
0.0
  0
VERTEX
  5
585
330
584
100
AcDbEntity
  8
49
 62
     4
420
    65535
370
    25
100
AcDbVertex
100
AcDb2dVertex
 10
114.6537861149967
 20
133.5759879449968
 30
0.0
  0
VERTEX
  5
586
330
584
100
AcDbEntity
  8
49
 62
     4
420
    65535
370
    25
100
AcDbVertex
100
AcDb2dVertex
 10
111.9204527749966
 20
133.5759879449968
 30
0.0
  0
SEQEND
  5
587
330
584
100
AcDbEntity
  8
49
 62
     4
420
    65535
370
    25
  0
ENDBLK
  5
583
330
580
100
AcDbEntity
  8
0
100
AcDbBlockEnd
  0
BLOCK
  5
58A
330
588
100
AcDbEntity
  8
0
100
AcDbBlockBegin
  2
block 173
 70
     0
 10
0.0
 20
0.0
 30
0.0
  3
block 173
  1

  0
POLYLINE
  5
58C
330
588
100
AcDbEntity
  8
49
 62
     4
420
    65535
370
    25
100
AcDb2dPolyline
 66
     1
 10
0.0
 20
0.0
 30
0.0
  0
VERTEX
  5
58D
330
58C
100
AcDbEntity
  8
49
 62
     4
420
    65535
370
    25
100
AcDbVertex
100
AcDb2dVertex
 10
114.6537861149967
 20
133.9759879449968
 30
0.0
  0
VERTEX
  5
58E
330
58C
100
AcDbEntity
  8
49
 62
     4
420
    65535
370
    25
100
AcDbVertex
100
AcDb2dVertex
 10
111.9204527749966
 20
133.9759879449968
 30
0.0
  0
SEQEND
  5
58F
330
58C
100
AcDbEntity
  8
49
 62
     4
420
    65535
370
    25
  0
ENDBLK
  5
58B
330
588
100
AcDbEntity
  8
0
100
AcDbBlockEnd
  0
BLOCK
  5
592
330
590
100
AcDbEntity
  8
0
100
AcDbBlockBegin
  2
block 174
 70
     0
 10
0.0
 20
0.0
 30
0.0
  3
block 174
  1

  0
POLYLINE
  5
594
330
590
100
AcDbEntity
  8
49
 62
     4
420
    65535
370
    25
100
AcDb2dPolyline
 66
     1
 10
0.0
 20
0.0
 30
0.0
  0
VERTEX
  5
595
330
594
100
AcDbEntity
  8
49
 62
     4
420
    65535
370
    25
100
AcDbVertex
100
AcDb2dVertex
 10
114.6537861149967
 20
133.3759879449968
 30
0.0
  0
VERTEX
  5
596
330
594
100
AcDbEntity
  8
49
 62
     4
420
    65535
370
    25
100
AcDbVertex
100
AcDb2dVertex
 10
112.987119444997
 20
133.3759879449968
 30
0.0
  0
SEQEND
  5
597
330
594
100
AcDbEntity
  8
49
 62
     4
420
    65535
370
    25
  0
ENDBLK
  5
593
330
590
100
AcDbEntity
  8
0
100
AcDbBlockEnd
  0
BLOCK
  5
59A
330
598
100
AcDbEntity
  8
0
100
AcDbBlockBegin
  2
block 175
 70
     0
 10
0.0
 20
0.0
 30
0.0
  3
block 175
  1

  0
POLYLINE
  5
59C
330
598
100
AcDbEntity
  8
49
 62
     4
420
    65535
370
    25
100
AcDb2dPolyline
 66
     1
 10
0.0
 20
0.0
 30
0.0
  0
VERTEX
  5
59D
330
59C
100
AcDbEntity
  8
49
 62
     4
420
    65535
370
    25
100
AcDbVertex
100
AcDb2dVertex
 10
114.6537861149967
 20
134.1759879449968
 30
0.0
  0
VERTEX
  5
59E
330
59C
100
AcDbEntity
  8
49
 62
     4
420
    65535
370
    25
100
AcDbVertex
100
AcDb2dVertex
 10
112.987119444997
 20
134.1759879449968
 30
0.0
  0
SEQEND
  5
59F
330
59C
100
AcDbEntity
  8
49
 62
     4
420
    65535
370
    25
  0
ENDBLK
  5
59B
330
598
100
AcDbEntity
  8
0
100
AcDbBlockEnd
  0
BLOCK
  5
5A2
330
5A0
100
AcDbEntity
  8
0
100
AcDbBlockBegin
  2
block 176
 70
     0
 10
0.0
 20
0.0
 30
0.0
  3
block 176
  1

  0
POLYLINE
  5
5A4
330
5A0
100
AcDbEntity
  8
49
 62
     4
420
    65535
370
    25
100
AcDb2dPolyline
 66
     1
 10
0.0
 20
0.0
 30
0.0
  0
VERTEX
  5
5A5
330
5A4
100
AcDbEntity
  8
49
 62
     4
420
    65535
370
    25
100
AcDbVertex
100
AcDb2dVertex
 10
114.6537861149967
 20
133.1759879449968
 30
0.0
  0
VERTEX
  5
5A6
330
5A4
100
AcDbEntity
  8
49
 62
     4
420
    65535
370
    25
100
AcDbVertex
100
AcDb2dVertex
 10
114.0537861149967
 20
133.1759879449968
 30
0.0
  0
SEQEND
  5
5A7
330
5A4
100
AcDbEntity
  8
49
 62
     4
420
    65535
370
    25
  0
ENDBLK
  5
5A3
330
5A0
100
AcDbEntity
  8
0
100
AcDbBlockEnd
  0
BLOCK
  5
5AA
330
5A8
100
AcDbEntity
  8
0
100
AcDbBlockBegin
  2
block 177
 70
     0
 10
0.0
 20
0.0
 30
0.0
  3
block 177
  1

  0
POLYLINE
  5
5AC
330
5A8
100
AcDbEntity
  8
49
 62
     4
420
    65535
370
    25
100
AcDb2dPolyline
 66
     1
 10
0.0
 20
0.0
 30
0.0
  0
VERTEX
  5
5AD
330
5AC
100
AcDbEntity
  8
49
 62
     4
420
    65535
370
    25
100
AcDbVertex
100
AcDb2dVertex
 10
114.6537861149967
 20
134.3759879449968
 30
0.0
  0
VERTEX
  5
5AE
330
5AC
100
AcDbEntity
  8
49
 62
     4
420
    65535
370
    25
100
AcDbVertex
100
AcDb2dVertex
 10
114.0537861149967
 20
134.3759879449968
 30
0.0
  0
SEQEND
  5
5AF
330
5AC
100
AcDbEntity
  8
49
 62
     4
420
    65535
370
    25
  0
ENDBLK
  5
5AB
330
5A8
100
AcDbEntity
  8
0
100
AcDbBlockEnd
  0
BLOCK
  5
5B2
330
5B0
100
AcDbEntity
  8
0
100
AcDbBlockBegin
  2
block 178
 70
     0
 10
0.0
 20
0.0
 30
0.0
  3
block 178
  1

  0
POLYLINE
  5
5B4
330
5B0
100
AcDbEntity
  8
49
 62
     4
420
    65535
370
    25
100
AcDb2dPolyline
 66
     1
 10
0.0
 20
0.0
 30
0.0
  0
VERTEX
  5
5B5
330
5B4
100
AcDbEntity
  8
49
 62
     4
420
    65535
370
    25
100
AcDbVertex
100
AcDb2dVertex
 10
143.7537861149968
 20
131.7759879449968
 30
0.0
  0
VERTEX
  5
5B6
330
5B4
100
AcDbEntity
  8
49
 62
     4
420
    65535
370
    25
100
AcDbVertex
100
AcDb2dVertex
 10
143.7537861149968
 20
163.7759879449969
 30
0.0
  0
SEQEND
  5
5B7
330
5B4
100
AcDbEntity
  8
49
 62
     4
420
    65535
370
    25
  0
ENDBLK
  5
5B3
330
5B0
100
AcDbEntity
  8
0
100
AcDbBlockEnd
  0
BLOCK
  5
5BA
330
5B8
100
AcDbEntity
  8
0
100
AcDbBlockBegin
  2
block 179
 70
     0
 10
0.0
 20
0.0
 30
0.0
  3
block 179
  1

  0
POLYLINE
  5
5BC
330
5B8
100
AcDbEntity
  8
49
 62
     4
420
    65535
370
    25
100
AcDb2dPolyline
 66
     1
 10
0.0
 20
0.0
 30
0.0
  0
VERTEX
  5
5BD
330
5BC
100
AcDbEntity
  8
49
 62
     4
420
    65535
370
    25
100
AcDbVertex
100
AcDb2dVertex
 10
143.7537861149968
 20
133.7759879449968
 30
0.0
  0
VERTEX
  5
5BE
330
5BC
100
AcDbEntity
  8
49
 62
     4
420
    65535
370
    25
100
AcDbVertex
100
AcDb2dVertex
 10
139.7537861149966
 20
133.025987944997
 30
0.0
  0
VERTEX
  5
5BF
330
5BC
100
AcDbEntity
  8
49
 62
     4
420
    65535
370
    25
100
AcDbVertex
100
AcDb2dVertex
 10
139.7537861149966
 20
134.525987944997
 30
0.0
  0
VERTEX
  5
5C0
330
5BC
100
AcDbEntity
  8
49
 62
     4
420
    65535
370
    25
100
AcDbVertex
100
AcDb2dVertex
 10
143.7537861149968
 20
133.7759879449968
 30
0.0
  0
SEQEND
  5
5C1
330
5BC
100
AcDbEntity
  8
49
 62
     4
420
    65535
370
    25
  0
ENDBLK
  5
5BB
330
5B8
100
AcDbEntity
  8
0
100
AcDbBlockEnd
  0
BLOCK
  5
5C4
330
5C2
100
AcDbEntity
  8
0
100
AcDbBlockBegin
  2
block 180
 70
     0
 10
0.0
 20
0.0
 30
0.0
  3
block 180
  1

  0
POLYLINE
  5
5C6
330
5C2
100
AcDbEntity
  8
49
 62
     4
420
    65535
370
    25
100
AcDb2dPolyline
 66
     1
 10
0.0
 20
0.0
 30
0.0
  0
VERTEX
  5
5C7
330
5C6
100
AcDbEntity
  8
49
 62
     4
420
    65535
370
    25
100
AcDbVertex
100
AcDb2dVertex
 10
139.853786114997
 20
133.7759879449968
 30
0.0
  0
VERTEX
  5
5C8
330
5C6
100
AcDbEntity
  8
49
 62
     4
420
    65535
370
    25
100
AcDbVertex
100
AcDb2dVertex
 10
143.6537861149971
 20
133.7759879449968
 30
0.0
  0
SEQEND
  5
5C9
330
5C6
100
AcDbEntity
  8
49
 62
     4
420
    65535
370
    25
  0
ENDBLK
  5
5C5
330
5C2
100
AcDbEntity
  8
0
100
AcDbBlockEnd
  0
BLOCK
  5
5CC
330
5CA
100
AcDbEntity
  8
0
100
AcDbBlockBegin
  2
block 181
 70
     0
 10
0.0
 20
0.0
 30
0.0
  3
block 181
  1

  0
POLYLINE
  5
5CE
330
5CA
100
AcDbEntity
  8
49
 62
     4
420
    65535
370
    25
100
AcDb2dPolyline
 66
     1
 10
0.0
 20
0.0
 30
0.0
  0
VERTEX
  5
5CF
330
5CE
100
AcDbEntity
  8
49
 62
     4
420
    65535
370
    25
100
AcDbVertex
100
AcDb2dVertex
 10
139.853786114997
 20
133.9759879449968
 30
0.0
  0
VERTEX
  5
5D0
330
5CE
100
AcDbEntity
  8
49
 62
     4
420
    65535
370
    25
100
AcDbVertex
100
AcDb2dVertex
 10
142.5871194449967
 20
133.9759879449968
 30
0.0
  0
SEQEND
  5
5D1
330
5CE
100
AcDbEntity
  8
49
 62
     4
420
    65535
370
    25
  0
ENDBLK
  5
5CD
330
5CA
100
AcDbEntity
  8
0
100
AcDbBlockEnd
  0
BLOCK
  5
5D4
330
5D2
100
AcDbEntity
  8
0
100
AcDbBlockBegin
  2
block 182
 70
     0
 10
0.0
 20
0.0
 30
0.0
  3
block 182
  1

  0
POLYLINE
  5
5D6
330
5D2
100
AcDbEntity
  8
49
 62
     4
420
    65535
370
    25
100
AcDb2dPolyline
 66
     1
 10
0.0
 20
0.0
 30
0.0
  0
VERTEX
  5
5D7
330
5D6
100
AcDbEntity
  8
49
 62
     4
420
    65535
370
    25
100
AcDbVertex
100
AcDb2dVertex
 10
139.853786114997
 20
133.5759879449968
 30
0.0
  0
VERTEX
  5
5D8
330
5D6
100
AcDbEntity
  8
49
 62
     4
420
    65535
370
    25
100
AcDbVertex
100
AcDb2dVertex
 10
142.5871194449967
 20
133.5759879449968
 30
0.0
  0
SEQEND
  5
5D9
330
5D6
100
AcDbEntity
  8
49
 62
     4
420
    65535
370
    25
  0
ENDBLK
  5
5D5
330
5D2
100
AcDbEntity
  8
0
100
AcDbBlockEnd
  0
BLOCK
  5
5DC
330
5DA
100
AcDbEntity
  8
0
100
AcDbBlockBegin
  2
block 183
 70
     0
 10
0.0
 20
0.0
 30
0.0
  3
block 183
  1

  0
POLYLINE
  5
5DE
330
5DA
100
AcDbEntity
  8
49
 62
     4
420
    65535
370
    25
100
AcDb2dPolyline
 66
     1
 10
0.0
 20
0.0
 30
0.0
  0
VERTEX
  5
5DF
330
5DE
100
AcDbEntity
  8
49
 62
     4
420
    65535
370
    25
100
AcDbVertex
100
AcDb2dVertex
 10
139.853786114997
 20
134.1759879449968
 30
0.0
  0
VERTEX
  5
5E0
330
5DE
100
AcDbEntity
  8
49
 62
     4
420
    65535
370
    25
100
AcDbVertex
100
AcDb2dVertex
 10
141.520452774997
 20
134.1759879449968
 30
0.0
  0
SEQEND
  5
5E1
330
5DE
100
AcDbEntity
  8
49
 62
     4
420
    65535
370
    25
  0
ENDBLK
  5
5DD
330
5DA
100
AcDbEntity
  8
0
100
AcDbBlockEnd
  0
BLOCK
  5
5E4
330
5E2
100
AcDbEntity
  8
0
100
AcDbBlockBegin
  2
block 184
 70
     0
 10
0.0
 20
0.0
 30
0.0
  3
block 184
  1

  0
POLYLINE
  5
5E6
330
5E2
100
AcDbEntity
  8
49
 62
     4
420
    65535
370
    25
100
AcDb2dPolyline
 66
     1
 10
0.0
 20
0.0
 30
0.0
  0
VERTEX
  5
5E7
330
5E6
100
AcDbEntity
  8
49
 62
     4
420
    65535
370
    25
100
AcDbVertex
100
AcDb2dVertex
 10
139.853786114997
 20
133.3759879449968
 30
0.0
  0
VERTEX
  5
5E8
330
5E6
100
AcDbEntity
  8
49
 62
     4
420
    65535
370
    25
100
AcDbVertex
100
AcDb2dVertex
 10
141.520452774997
 20
133.3759879449968
 30
0.0
  0
SEQEND
  5
5E9
330
5E6
100
AcDbEntity
  8
49
 62
     4
420
    65535
370
    25
  0
ENDBLK
  5
5E5
330
5E2
100
AcDbEntity
  8
0
100
AcDbBlockEnd
  0
BLOCK
  5
5EC
330
5EA
100
AcDbEntity
  8
0
100
AcDbBlockBegin
  2
block 185
 70
     0
 10
0.0
 20
0.0
 30
0.0
  3
block 185
  1

  0
POLYLINE
  5
5EE
330
5EA
100
AcDbEntity
  8
49
 62
     4
420
    65535
370
    25
100
AcDb2dPolyline
 66
     1
 10
0.0
 20
0.0
 30
0.0
  0
VERTEX
  5
5EF
330
5EE
100
AcDbEntity
  8
49
 62
     4
420
    65535
370
    25
100
AcDbVertex
100
AcDb2dVertex
 10
139.853786114997
 20
134.3759879449968
 30
0.0
  0
VERTEX
  5
5F0
330
5EE
100
AcDbEntity
  8
49
 62
     4
420
    65535
370
    25
100
AcDbVertex
100
AcDb2dVertex
 10
140.453786114997
 20
134.3759879449968
 30
0.0
  0
SEQEND
  5
5F1
330
5EE
100
AcDbEntity
  8
49
 62
     4
420
    65535
370
    25
  0
ENDBLK
  5
5ED
330
5EA
100
AcDbEntity
  8
0
100
AcDbBlockEnd
  0
BLOCK
  5
5F4
330
5F2
100
AcDbEntity
  8
0
100
AcDbBlockBegin
  2
block 186
 70
     0
 10
0.0
 20
0.0
 30
0.0
  3
block 186
  1

  0
POLYLINE
  5
5F6
330
5F2
100
AcDbEntity
  8
49
 62
     4
420
    65535
370
    25
100
AcDb2dPolyline
 66
     1
 10
0.0
 20
0.0
 30
0.0
  0
VERTEX
  5
5F7
330
5F6
100
AcDbEntity
  8
49
 62
     4
420
    65535
370
    25
100
AcDbVertex
100
AcDb2dVertex
 10
139.853786114997
 20
133.1759879449968
 30
0.0
  0
VERTEX
  5
5F8
330
5F6
100
AcDbEntity
  8
49
 62
     4
420
    65535
370
    25
100
AcDbVertex
100
AcDb2dVertex
 10
140.453786114997
 20
133.1759879449968
 30
0.0
  0
SEQEND
  5
5F9
330
5F6
100
AcDbEntity
  8
49
 62
     4
420
    65535
370
    25
  0
ENDBLK
  5
5F5
330
5F2
100
AcDbEntity
  8
0
100
AcDbBlockEnd
  0
BLOCK
  5
5FC
330
5FA
100
AcDbEntity
  8
0
100
AcDbBlockBegin
  2
block 187
 70
     0
 10
0.0
 20
0.0
 30
0.0
  3
block 187
  1

  0
POLYLINE
  5
5FE
330
5FA
100
AcDbEntity
  8
49
 62
     4
420
    65535
370
    25
100
AcDb2dPolyline
 66
     1
 10
0.0
 20
0.0
 30
0.0
  0
VERTEX
  5
5FF
330
5FE
100
AcDbEntity
  8
49
 62
     4
420
    65535
370
    25
100
AcDbVertex
100
AcDb2dVertex
 10
114.753786114997
 20
133.7759879449968
 30
0.0
  0
VERTEX
  5
600
330
5FE
100
AcDbEntity
  8
49
 62
     4
420
    65535
370
    25
100
AcDbVertex
100
AcDb2dVertex
 10
139.7537861149966
 20
133.7759879449968
 30
0.0
  0
SEQEND
  5
601
330
5FE
100
AcDbEntity
  8
49
 62
     4
420
    65535
370
    25
  0
ENDBLK
  5
5FD
330
5FA
100
AcDbEntity
  8
0
100
AcDbBlockEnd
  0
BLOCK
  5
604
330
602
100
AcDbEntity
  8
0
100
AcDbBlockBegin
  2
block 188
 70
     0
 10
0.0
 20
0.0
 30
0.0
  3
block 188
  1

  0
MTEXT
  5
606
330
602
100
AcDbEntity
  8
49
 62
     2
420
 16776960
100
AcDbMText
 10
124.6517582899634
 20
135.2759913636148
 30
0.0
 40
3.499999953157898
 41
0.0
 46
0.0
 71
     7
 72
     1
  1
\fMyriad Pro|b0|i0|c0|p34;\W0.625;33
 73
     1
 44
1.0
  0
ENDBLK
  5
605
330
602
100
AcDbEntity
  8
0
100
AcDbBlockEnd
  0
BLOCK
  5
609
330
607
100
AcDbEntity
  8
0
100
AcDbBlockBegin
  2
block 189
 70
     0
 10
0.0
 20
0.0
 30
0.0
  3
block 189
  1

  0
POLYLINE
  5
60B
330
607
100
AcDbEntity
  8
49
 62
     4
420
    65535
370
    25
100
AcDb2dPolyline
 66
     1
 10
0.0
 20
0.0
 30
0.0
  0
VERTEX
  5
60C
330
60B
100
AcDbEntity
  8
49
 62
     4
420
    65535
370
    25
100
AcDbVertex
100
AcDb2dVertex
 10
96.253786114997
 20
157.2759574249969
 30
0.0
  0
VERTEX
  5
60D
330
60B
100
AcDbEntity
  8
49
 62
     4
420
    65535
370
    25
100
AcDbVertex
100
AcDb2dVertex
 10
84.2537861149969
 20
157.2759574249969
 30
0.0
  0
SEQEND
  5
60E
330
60B
100
AcDbEntity
  8
49
 62
     4
420
    65535
370
    25
  0
ENDBLK
  5
60A
330
607
100
AcDbEntity
  8
0
100
AcDbBlockEnd
  0
BLOCK
  5
611
330
60F
100
AcDbEntity
  8
0
100
AcDbBlockBegin
  2
block 190
 70
     0
 10
0.0
 20
0.0
 30
0.0
  3
block 190
  1

  0
POLYLINE
  5
613
330
60F
100
AcDbEntity
  8
49
 62
     4
420
    65535
370
    25
100
AcDb2dPolyline
 66
     1
 10
0.0
 20
0.0
 30
0.0
  0
VERTEX
  5
614
330
613
100
AcDbEntity
  8
49
 62
     4
420
    65535
370
    25
100
AcDbVertex
100
AcDb2dVertex
 10
94.25378611499693
 20
157.2759574249969
 30
0.0
  0
VERTEX
  5
615
330
613
100
AcDbEntity
  8
49
 62
     4
420
    65535
370
    25
100
AcDbVertex
100
AcDb2dVertex
 10
93.50378611499674
 20
161.275957424997
 30
0.0
  0
VERTEX
  5
616
330
613
100
AcDbEntity
  8
49
 62
     4
420
    65535
370
    25
100
AcDbVertex
100
AcDb2dVertex
 10
95.0037861149968
 20
161.275957424997
 30
0.0
  0
VERTEX
  5
617
330
613
100
AcDbEntity
  8
49
 62
     4
420
    65535
370
    25
100
AcDbVertex
100
AcDb2dVertex
 10
94.25378611499693
 20
157.2759574249969
 30
0.0
  0
SEQEND
  5
618
330
613
100
AcDbEntity
  8
49
 62
     4
420
    65535
370
    25
  0
ENDBLK
  5
612
330
60F
100
AcDbEntity
  8
0
100
AcDbBlockEnd
  0
BLOCK
  5
61B
330
619
100
AcDbEntity
  8
0
100
AcDbBlockBegin
  2
block 191
 70
     0
 10
0.0
 20
0.0
 30
0.0
  3
block 191
  1

  0
POLYLINE
  5
61D
330
619
100
AcDbEntity
  8
49
 62
     4
420
    65535
370
    25
100
AcDb2dPolyline
 66
     1
 10
0.0
 20
0.0
 30
0.0
  0
VERTEX
  5
61E
330
61D
100
AcDbEntity
  8
49
 62
     4
420
    65535
370
    25
100
AcDbVertex
100
AcDb2dVertex
 10
94.25378611499693
 20
161.1759574249971
 30
0.0
  0
VERTEX
  5
61F
330
61D
100
AcDbEntity
  8
49
 62
     4
420
    65535
370
    25
100
AcDbVertex
100
AcDb2dVertex
 10
94.25378611499693
 20
157.3759574249969
 30
0.0
  0
SEQEND
  5
620
330
61D
100
AcDbEntity
  8
49
 62
     4
420
    65535
370
    25
  0
ENDBLK
  5
61C
330
619
100
AcDbEntity
  8
0
100
AcDbBlockEnd
  0
BLOCK
  5
623
330
621
100
AcDbEntity
  8
0
100
AcDbBlockBegin
  2
block 192
 70
     0
 10
0.0
 20
0.0
 30
0.0
  3
block 192
  1

  0
POLYLINE
  5
625
330
621
100
AcDbEntity
  8
49
 62
     4
420
    65535
370
    25
100
AcDb2dPolyline
 66
     1
 10
0.0
 20
0.0
 30
0.0
  0
VERTEX
  5
626
330
625
100
AcDbEntity
  8
49
 62
     4
420
    65535
370
    25
100
AcDbVertex
100
AcDb2dVertex
 10
94.45378611499694
 20
161.1759574249971
 30
0.0
  0
VERTEX
  5
627
330
625
100
AcDbEntity
  8
49
 62
     4
420
    65535
370
    25
100
AcDbVertex
100
AcDb2dVertex
 10
94.45378611499694
 20
158.4426240949969
 30
0.0
  0
SEQEND
  5
628
330
625
100
AcDbEntity
  8
49
 62
     4
420
    65535
370
    25
  0
ENDBLK
  5
624
330
621
100
AcDbEntity
  8
0
100
AcDbBlockEnd
  0
BLOCK
  5
62B
330
629
100
AcDbEntity
  8
0
100
AcDbBlockBegin
  2
block 193
 70
     0
 10
0.0
 20
0.0
 30
0.0
  3
block 193
  1

  0
POLYLINE
  5
62D
330
629
100
AcDbEntity
  8
49
 62
     4
420
    65535
370
    25
100
AcDb2dPolyline
 66
     1
 10
0.0
 20
0.0
 30
0.0
  0
VERTEX
  5
62E
330
62D
100
AcDbEntity
  8
49
 62
     4
420
    65535
370
    25
100
AcDbVertex
100
AcDb2dVertex
 10
94.05378611499692
 20
161.1759574249971
 30
0.0
  0
VERTEX
  5
62F
330
62D
100
AcDbEntity
  8
49
 62
     4
420
    65535
370
    25
100
AcDbVertex
100
AcDb2dVertex
 10
94.05378611499692
 20
158.4426240949969
 30
0.0
  0
SEQEND
  5
630
330
62D
100
AcDbEntity
  8
49
 62
     4
420
    65535
370
    25
  0
ENDBLK
  5
62C
330
629
100
AcDbEntity
  8
0
100
AcDbBlockEnd
  0
BLOCK
  5
633
330
631
100
AcDbEntity
  8
0
100
AcDbBlockBegin
  2
block 194
 70
     0
 10
0.0
 20
0.0
 30
0.0
  3
block 194
  1

  0
POLYLINE
  5
635
330
631
100
AcDbEntity
  8
49
 62
     4
420
    65535
370
    25
100
AcDb2dPolyline
 66
     1
 10
0.0
 20
0.0
 30
0.0
  0
VERTEX
  5
636
330
635
100
AcDbEntity
  8
49
 62
     4
420
    65535
370
    25
100
AcDbVertex
100
AcDb2dVertex
 10
94.65378611499695
 20
161.1759574249971
 30
0.0
  0
VERTEX
  5
637
330
635
100
AcDbEntity
  8
49
 62
     4
420
    65535
370
    25
100
AcDbVertex
100
AcDb2dVertex
 10
94.65378611499695
 20
159.5092907649969
 30
0.0
  0
SEQEND
  5
638
330
635
100
AcDbEntity
  8
49
 62
     4
420
    65535
370
    25
  0
ENDBLK
  5
634
330
631
100
AcDbEntity
  8
0
100
AcDbBlockEnd
  0
BLOCK
  5
63B
330
639
100
AcDbEntity
  8
0
100
AcDbBlockBegin
  2
block 195
 70
     0
 10
0.0
 20
0.0
 30
0.0
  3
block 195
  1

  0
POLYLINE
  5
63D
330
639
100
AcDbEntity
  8
49
 62
     4
420
    65535
370
    25
100
AcDb2dPolyline
 66
     1
 10
0.0
 20
0.0
 30
0.0
  0
VERTEX
  5
63E
330
63D
100
AcDbEntity
  8
49
 62
     4
420
    65535
370
    25
100
AcDbVertex
100
AcDb2dVertex
 10
93.85378611499692
 20
161.1759574249971
 30
0.0
  0
VERTEX
  5
63F
330
63D
100
AcDbEntity
  8
49
 62
     4
420
    65535
370
    25
100
AcDbVertex
100
AcDb2dVertex
 10
93.85378611499692
 20
159.5092907649969
 30
0.0
  0
SEQEND
  5
640
330
63D
100
AcDbEntity
  8
49
 62
     4
420
    65535
370
    25
  0
ENDBLK
  5
63C
330
639
100
AcDbEntity
  8
0
100
AcDbBlockEnd
  0
BLOCK
  5
643
330
641
100
AcDbEntity
  8
0
100
AcDbBlockBegin
  2
block 196
 70
     0
 10
0.0
 20
0.0
 30
0.0
  3
block 196
  1

  0
POLYLINE
  5
645
330
641
100
AcDbEntity
  8
49
 62
     4
420
    65535
370
    25
100
AcDb2dPolyline
 66
     1
 10
0.0
 20
0.0
 30
0.0
  0
VERTEX
  5
646
330
645
100
AcDbEntity
  8
49
 62
     4
420
    65535
370
    25
100
AcDbVertex
100
AcDb2dVertex
 10
94.85378611499695
 20
161.1759574249971
 30
0.0
  0
VERTEX
  5
647
330
645
100
AcDbEntity
  8
49
 62
     4
420
    65535
370
    25
100
AcDbVertex
100
AcDb2dVertex
 10
94.85378611499695
 20
160.575957424997
 30
0.0
  0
SEQEND
  5
648
330
645
100
AcDbEntity
  8
49
 62
     4
420
    65535
370
    25
  0
ENDBLK
  5
644
330
641
100
AcDbEntity
  8
0
100
AcDbBlockEnd
  0
BLOCK
  5
64B
330
649
100
AcDbEntity
  8
0
100
AcDbBlockBegin
  2
block 197
 70
     0
 10
0.0
 20
0.0
 30
0.0
  3
block 197
  1

  0
POLYLINE
  5
64D
330
649
100
AcDbEntity
  8
49
 62
     4
420
    65535
370
    25
100
AcDb2dPolyline
 66
     1
 10
0.0
 20
0.0
 30
0.0
  0
VERTEX
  5
64E
330
64D
100
AcDbEntity
  8
49
 62
     4
420
    65535
370
    25
100
AcDbVertex
100
AcDb2dVertex
 10
93.6537861149969
 20
161.1759574249971
 30
0.0
  0
VERTEX
  5
64F
330
64D
100
AcDbEntity
  8
49
 62
     4
420
    65535
370
    25
100
AcDbVertex
100
AcDb2dVertex
 10
93.6537861149969
 20
160.575957424997
 30
0.0
  0
SEQEND
  5
650
330
64D
100
AcDbEntity
  8
49
 62
     4
420
    65535
370
    25
  0
ENDBLK
  5
64C
330
649
100
AcDbEntity
  8
0
100
AcDbBlockEnd
  0
BLOCK
  5
653
330
651
100
AcDbEntity
  8
0
100
AcDbBlockBegin
  2
block 198
 70
     0
 10
0.0
 20
0.0
 30
0.0
  3
block 198
  1

  0
POLYLINE
  5
655
330
651
100
AcDbEntity
  8
49
 62
     4
420
    65535
370
    25
100
AcDb2dPolyline
 66
     1
 10
0.0
 20
0.0
 30
0.0
  0
VERTEX
  5
656
330
655
100
AcDbEntity
  8
49
 62
     4
420
    65535
370
    25
100
AcDbVertex
100
AcDb2dVertex
 10
96.253786114997
 20
207.2759574249971
 30
0.0
  0
VERTEX
  5
657
330
655
100
AcDbEntity
  8
49
 62
     4
420
    65535
370
    25
100
AcDbVertex
100
AcDb2dVertex
 10
84.2537861149969
 20
207.2759574249971
 30
0.0
  0
SEQEND
  5
658
330
655
100
AcDbEntity
  8
49
 62
     4
420
    65535
370
    25
  0
ENDBLK
  5
654
330
651
100
AcDbEntity
  8
0
100
AcDbBlockEnd
  0
BLOCK
  5
65B
330
659
100
AcDbEntity
  8
0
100
AcDbBlockBegin
  2
block 199
 70
     0
 10
0.0
 20
0.0
 30
0.0
  3
block 199
  1

  0
POLYLINE
  5
65D
330
659
100
AcDbEntity
  8
49
 62
     4
420
    65535
370
    25
100
AcDb2dPolyline
 66
     1
 10
0.0
 20
0.0
 30
0.0
  0
VERTEX
  5
65E
330
65D
100
AcDbEntity
  8
49
 62
     4
420
    65535
370
    25
100
AcDbVertex
100
AcDb2dVertex
 10
94.25378611499693
 20
207.2759574249971
 30
0.0
  0
VERTEX
  5
65F
330
65D
100
AcDbEntity
  8
49
 62
     4
420
    65535
370
    25
100
AcDbVertex
100
AcDb2dVertex
 10
95.0037861149968
 20
203.2759574249969
 30
0.0
  0
VERTEX
  5
660
330
65D
100
AcDbEntity
  8
49
 62
     4
420
    65535
370
    25
100
AcDbVertex
100
AcDb2dVertex
 10
93.50378611499674
 20
203.2759574249969
 30
0.0
  0
VERTEX
  5
661
330
65D
100
AcDbEntity
  8
49
 62
     4
420
    65535
370
    25
100
AcDbVertex
100
AcDb2dVertex
 10
94.25378611499693
 20
207.2759574249971
 30
0.0
  0
SEQEND
  5
662
330
65D
100
AcDbEntity
  8
49
 62
     4
420
    65535
370
    25
  0
ENDBLK
  5
65C
330
659
100
AcDbEntity
  8
0
100
AcDbBlockEnd
  0
BLOCK
  5
665
330
663
100
AcDbEntity
  8
0
100
AcDbBlockBegin
  2
block 200
 70
     0
 10
0.0
 20
0.0
 30
0.0
  3
block 200
  1

  0
POLYLINE
  5
667
330
663
100
AcDbEntity
  8
49
 62
     4
420
    65535
370
    25
100
AcDb2dPolyline
 66
     1
 10
0.0
 20
0.0
 30
0.0
  0
VERTEX
  5
668
330
667
100
AcDbEntity
  8
49
 62
     4
420
    65535
370
    25
100
AcDbVertex
100
AcDb2dVertex
 10
94.25378611499693
 20
203.3759574249969
 30
0.0
  0
VERTEX
  5
669
330
667
100
AcDbEntity
  8
49
 62
     4
420
    65535
370
    25
100
AcDbVertex
100
AcDb2dVertex
 10
94.25378611499693
 20
207.1759574249967
 30
0.0
  0
SEQEND
  5
66A
330
667
100
AcDbEntity
  8
49
 62
     4
420
    65535
370
    25
  0
ENDBLK
  5
666
330
663
100
AcDbEntity
  8
0
100
AcDbBlockEnd
  0
BLOCK
  5
66D
330
66B
100
AcDbEntity
  8
0
100
AcDbBlockBegin
  2
block 201
 70
     0
 10
0.0
 20
0.0
 30
0.0
  3
block 201
  1

  0
POLYLINE
  5
66F
330
66B
100
AcDbEntity
  8
49
 62
     4
420
    65535
370
    25
100
AcDb2dPolyline
 66
     1
 10
0.0
 20
0.0
 30
0.0
  0
VERTEX
  5
670
330
66F
100
AcDbEntity
  8
49
 62
     4
420
    65535
370
    25
100
AcDbVertex
100
AcDb2dVertex
 10
94.05378611499692
 20
203.3759574249969
 30
0.0
  0
VERTEX
  5
671
330
66F
100
AcDbEntity
  8
49
 62
     4
420
    65535
370
    25
100
AcDbVertex
100
AcDb2dVertex
 10
94.05378611499692
 20
206.109290764997
 30
0.0
  0
SEQEND
  5
672
330
66F
100
AcDbEntity
  8
49
 62
     4
420
    65535
370
    25
  0
ENDBLK
  5
66E
330
66B
100
AcDbEntity
  8
0
100
AcDbBlockEnd
  0
BLOCK
  5
675
330
673
100
AcDbEntity
  8
0
100
AcDbBlockBegin
  2
block 202
 70
     0
 10
0.0
 20
0.0
 30
0.0
  3
block 202
  1

  0
POLYLINE
  5
677
330
673
100
AcDbEntity
  8
49
 62
     4
420
    65535
370
    25
100
AcDb2dPolyline
 66
     1
 10
0.0
 20
0.0
 30
0.0
  0
VERTEX
  5
678
330
677
100
AcDbEntity
  8
49
 62
     4
420
    65535
370
    25
100
AcDbVertex
100
AcDb2dVertex
 10
94.45378611499694
 20
203.3759574249969
 30
0.0
  0
VERTEX
  5
679
330
677
100
AcDbEntity
  8
49
 62
     4
420
    65535
370
    25
100
AcDbVertex
100
AcDb2dVertex
 10
94.45378611499694
 20
206.109290764997
 30
0.0
  0
SEQEND
  5
67A
330
677
100
AcDbEntity
  8
49
 62
     4
420
    65535
370
    25
  0
ENDBLK
  5
676
330
673
100
AcDbEntity
  8
0
100
AcDbBlockEnd
  0
BLOCK
  5
67D
330
67B
100
AcDbEntity
  8
0
100
AcDbBlockBegin
  2
block 203
 70
     0
 10
0.0
 20
0.0
 30
0.0
  3
block 203
  1

  0
POLYLINE
  5
67F
330
67B
100
AcDbEntity
  8
49
 62
     4
420
    65535
370
    25
100
AcDb2dPolyline
 66
     1
 10
0.0
 20
0.0
 30
0.0
  0
VERTEX
  5
680
330
67F
100
AcDbEntity
  8
49
 62
     4
420
    65535
370
    25
100
AcDbVertex
100
AcDb2dVertex
 10
93.85378611499692
 20
203.3759574249969
 30
0.0
  0
VERTEX
  5
681
330
67F
100
AcDbEntity
  8
49
 62
     4
420
    65535
370
    25
100
AcDbVertex
100
AcDb2dVertex
 10
93.85378611499692
 20
205.042624094997
 30
0.0
  0
SEQEND
  5
682
330
67F
100
AcDbEntity
  8
49
 62
     4
420
    65535
370
    25
  0
ENDBLK
  5
67E
330
67B
100
AcDbEntity
  8
0
100
AcDbBlockEnd
  0
BLOCK
  5
685
330
683
100
AcDbEntity
  8
0
100
AcDbBlockBegin
  2
block 204
 70
     0
 10
0.0
 20
0.0
 30
0.0
  3
block 204
  1

  0
POLYLINE
  5
687
330
683
100
AcDbEntity
  8
49
 62
     4
420
    65535
370
    25
100
AcDb2dPolyline
 66
     1
 10
0.0
 20
0.0
 30
0.0
  0
VERTEX
  5
688
330
687
100
AcDbEntity
  8
49
 62
     4
420
    65535
370
    25
100
AcDbVertex
100
AcDb2dVertex
 10
94.65378611499695
 20
203.3759574249969
 30
0.0
  0
VERTEX
  5
689
330
687
100
AcDbEntity
  8
49
 62
     4
420
    65535
370
    25
100
AcDbVertex
100
AcDb2dVertex
 10
94.65378611499695
 20
205.042624094997
 30
0.0
  0
SEQEND
  5
68A
330
687
100
AcDbEntity
  8
49
 62
     4
420
    65535
370
    25
  0
ENDBLK
  5
686
330
683
100
AcDbEntity
  8
0
100
AcDbBlockEnd
  0
BLOCK
  5
68D
330
68B
100
AcDbEntity
  8
0
100
AcDbBlockBegin
  2
block 205
 70
     0
 10
0.0
 20
0.0
 30
0.0
  3
block 205
  1

  0
POLYLINE
  5
68F
330
68B
100
AcDbEntity
  8
49
 62
     4
420
    65535
370
    25
100
AcDb2dPolyline
 66
     1
 10
0.0
 20
0.0
 30
0.0
  0
VERTEX
  5
690
330
68F
100
AcDbEntity
  8
49
 62
     4
420
    65535
370
    25
100
AcDbVertex
100
AcDb2dVertex
 10
93.6537861149969
 20
203.3759574249969
 30
0.0
  0
VERTEX
  5
691
330
68F
100
AcDbEntity
  8
49
 62
     4
420
    65535
370
    25
100
AcDbVertex
100
AcDb2dVertex
 10
93.6537861149969
 20
203.9759574249969
 30
0.0
  0
SEQEND
  5
692
330
68F
100
AcDbEntity
  8
49
 62
     4
420
    65535
370
    25
  0
ENDBLK
  5
68E
330
68B
100
AcDbEntity
  8
0
100
AcDbBlockEnd
  0
BLOCK
  5
695
330
693
100
AcDbEntity
  8
0
100
AcDbBlockBegin
  2
block 206
 70
     0
 10
0.0
 20
0.0
 30
0.0
  3
block 206
  1

  0
POLYLINE
  5
697
330
693
100
AcDbEntity
  8
49
 62
     4
420
    65535
370
    25
100
AcDb2dPolyline
 66
     1
 10
0.0
 20
0.0
 30
0.0
  0
VERTEX
  5
698
330
697
100
AcDbEntity
  8
49
 62
     4
420
    65535
370
    25
100
AcDbVertex
100
AcDb2dVertex
 10
94.85378611499695
 20
203.3759574249969
 30
0.0
  0
VERTEX
  5
699
330
697
100
AcDbEntity
  8
49
 62
     4
420
    65535
370
    25
100
AcDbVertex
100
AcDb2dVertex
 10
94.85378611499695
 20
203.9759574249969
 30
0.0
  0
SEQEND
  5
69A
330
697
100
AcDbEntity
  8
49
 62
     4
420
    65535
370
    25
  0
ENDBLK
  5
696
330
693
100
AcDbEntity
  8
0
100
AcDbBlockEnd
  0
BLOCK
  5
69D
330
69B
100
AcDbEntity
  8
0
100
AcDbBlockBegin
  2
block 207
 70
     0
 10
0.0
 20
0.0
 30
0.0
  3
block 207
  1

  0
POLYLINE
  5
69F
330
69B
100
AcDbEntity
  8
49
 62
     4
420
    65535
370
    25
100
AcDb2dPolyline
 66
     1
 10
0.0
 20
0.0
 30
0.0
  0
VERTEX
  5
6A0
330
69F
100
AcDbEntity
  8
49
 62
     4
420
    65535
370
    25
100
AcDbVertex
100
AcDb2dVertex
 10
94.25378611499693
 20
161.275957424997
 30
0.0
  0
VERTEX
  5
6A1
330
69F
100
AcDbEntity
  8
49
 62
     4
420
    65535
370
    25
100
AcDbVertex
100
AcDb2dVertex
 10
94.25378611499693
 20
203.2759574249969
 30
0.0
  0
SEQEND
  5
6A2
330
69F
100
AcDbEntity
  8
49
 62
     4
420
    65535
370
    25
  0
ENDBLK
  5
69E
330
69B
100
AcDbEntity
  8
0
100
AcDbBlockEnd
  0
BLOCK
  5
6A5
330
6A3
100
AcDbEntity
  8
0
100
AcDbBlockBegin
  2
block 208
 70
     0
 10
0.0
 20
0.0
 30
0.0
  3
block 208
  1

  0
MTEXT
  5
6A7
330
6A3
100
AcDbEntity
  8
49
 62
     2
420
 16776960
100
AcDbMText
 10
92.7537854766366
 20
179.673971095125
 30
0.0
 40
3.499999953181003
 41
0.0
 46
0.0
 71
     7
 72
     1
  1
\fMyriad Pro|b0|i0|c0|p34;\W0.625;50
 11
-3.633531150557140E-6
 21
0.9999999999933987
 31
0.0
 73
     1
 44
1.0
  0
ENDBLK
  5
6A6
330
6A3
100
AcDbEntity
  8
0
100
AcDbBlockEnd
  0
BLOCK
  5
6AA
330
6A8
100
AcDbEntity
  8
0
100
AcDbBlockBegin
  2
block 209
 70
     0
 10
0.0
 20
0.0
 30
0.0
  3
block 209
  1

  0
POLYLINE
  5
6AC
330
6A8
100
AcDbEntity
  8
49
 62
     4
420
    65535
370
    25
100
AcDb2dPolyline
 66
     1
 10
0.0
 20
0.0
 30
0.0
  0
VERTEX
  5
6AD
330
6AC
100
AcDbEntity
  8
49
 62
     4
420
    65535
370
    25
100
AcDbVertex
100
AcDb2dVertex
 10
53.25378611499677
 20
131.7759879449968
 30
0.0
  0
VERTEX
  5
6AE
330
6AC
100
AcDbEntity
  8
49
 62
     4
420
    65535
370
    25
100
AcDbVertex
100
AcDb2dVertex
 10
53.25378611499677
 20
149.275957424997
 30
0.0
  0
SEQEND
  5
6AF
330
6AC
100
AcDbEntity
  8
49
 62
     4
420
    65535
370
    25
  0
ENDBLK
  5
6AB
330
6A8
100
AcDbEntity
  8
0
100
AcDbBlockEnd
  0
BLOCK
  5
6B2
330
6B0
100
AcDbEntity
  8
0
100
AcDbBlockBegin
  2
block 210
 70
     0
 10
0.0
 20
0.0
 30
0.0
  3
block 210
  1

  0
POLYLINE
  5
6B4
330
6B0
100
AcDbEntity
  8
49
 62
     4
420
    65535
370
    25
100
AcDb2dPolyline
 66
     1
 10
0.0
 20
0.0
 30
0.0
  0
VERTEX
  5
6B5
330
6B4
100
AcDbEntity
  8
49
 62
     4
420
    65535
370
    25
100
AcDbVertex
100
AcDb2dVertex
 10
53.25378611499677
 20
133.7759879449968
 30
0.0
  0
VERTEX
  5
6B6
330
6B4
100
AcDbEntity
  8
49
 62
     4
420
    65535
370
    25
100
AcDbVertex
100
AcDb2dVertex
 10
49.25378611499695
 20
134.525987944997
 30
0.0
  0
VERTEX
  5
6B7
330
6B4
100
AcDbEntity
  8
49
 62
     4
420
    65535
370
    25
100
AcDbVertex
100
AcDb2dVertex
 10
49.25378611499695
 20
133.025987944997
 30
0.0
  0
VERTEX
  5
6B8
330
6B4
100
AcDbEntity
  8
49
 62
     4
420
    65535
370
    25
100
AcDbVertex
100
AcDb2dVertex
 10
53.25378611499677
 20
133.7759879449968
 30
0.0
  0
SEQEND
  5
6B9
330
6B4
100
AcDbEntity
  8
49
 62
     4
420
    65535
370
    25
  0
ENDBLK
  5
6B3
330
6B0
100
AcDbEntity
  8
0
100
AcDbBlockEnd
  0
BLOCK
  5
6BC
330
6BA
100
AcDbEntity
  8
0
100
AcDbBlockBegin
  2
block 211
 70
     0
 10
0.0
 20
0.0
 30
0.0
  3
block 211
  1

  0
POLYLINE
  5
6BE
330
6BA
100
AcDbEntity
  8
49
 62
     4
420
    65535
370
    25
100
AcDb2dPolyline
 66
     1
 10
0.0
 20
0.0
 30
0.0
  0
VERTEX
  5
6BF
330
6BE
100
AcDbEntity
  8
49
 62
     4
420
    65535
370
    25
100
AcDbVertex
100
AcDb2dVertex
 10
49.35378611499695
 20
133.7759879449968
 30
0.0
  0
VERTEX
  5
6C0
330
6BE
100
AcDbEntity
  8
49
 62
     4
420
    65535
370
    25
100
AcDbVertex
100
AcDb2dVertex
 10
53.15378611499676
 20
133.7759879449968
 30
0.0
  0
SEQEND
  5
6C1
330
6BE
100
AcDbEntity
  8
49
 62
     4
420
    65535
370
    25
  0
ENDBLK
  5
6BD
330
6BA
100
AcDbEntity
  8
0
100
AcDbBlockEnd
  0
BLOCK
  5
6C4
330
6C2
100
AcDbEntity
  8
0
100
AcDbBlockBegin
  2
block 212
 70
     0
 10
0.0
 20
0.0
 30
0.0
  3
block 212
  1

  0
POLYLINE
  5
6C6
330
6C2
100
AcDbEntity
  8
49
 62
     4
420
    65535
370
    25
100
AcDb2dPolyline
 66
     1
 10
0.0
 20
0.0
 30
0.0
  0
VERTEX
  5
6C7
330
6C6
100
AcDbEntity
  8
49
 62
     4
420
    65535
370
    25
100
AcDbVertex
100
AcDb2dVertex
 10
49.35378611499695
 20
133.9759879449968
 30
0.0
  0
VERTEX
  5
6C8
330
6C6
100
AcDbEntity
  8
49
 62
     4
420
    65535
370
    25
100
AcDbVertex
100
AcDb2dVertex
 10
52.08711944499675
 20
133.9759879449968
 30
0.0
  0
SEQEND
  5
6C9
330
6C6
100
AcDbEntity
  8
49
 62
     4
420
    65535
370
    25
  0
ENDBLK
  5
6C5
330
6C2
100
AcDbEntity
  8
0
100
AcDbBlockEnd
  0
BLOCK
  5
6CC
330
6CA
100
AcDbEntity
  8
0
100
AcDbBlockBegin
  2
block 213
 70
     0
 10
0.0
 20
0.0
 30
0.0
  3
block 213
  1

  0
POLYLINE
  5
6CE
330
6CA
100
AcDbEntity
  8
49
 62
     4
420
    65535
370
    25
100
AcDb2dPolyline
 66
     1
 10
0.0
 20
0.0
 30
0.0
  0
VERTEX
  5
6CF
330
6CE
100
AcDbEntity
  8
49
 62
     4
420
    65535
370
    25
100
AcDbVertex
100
AcDb2dVertex
 10
49.35378611499695
 20
133.5759879449968
 30
0.0
  0
VERTEX
  5
6D0
330
6CE
100
AcDbEntity
  8
49
 62
     4
420
    65535
370
    25
100
AcDbVertex
100
AcDb2dVertex
 10
52.08711944499675
 20
133.5759879449968
 30
0.0
  0
SEQEND
  5
6D1
330
6CE
100
AcDbEntity
  8
49
 62
     4
420
    65535
370
    25
  0
ENDBLK
  5
6CD
330
6CA
100
AcDbEntity
  8
0
100
AcDbBlockEnd
  0
BLOCK
  5
6D4
330
6D2
100
AcDbEntity
  8
0
100
AcDbBlockBegin
  2
block 214
 70
     0
 10
0.0
 20
0.0
 30
0.0
  3
block 214
  1

  0
POLYLINE
  5
6D6
330
6D2
100
AcDbEntity
  8
49
 62
     4
420
    65535
370
    25
100
AcDb2dPolyline
 66
     1
 10
0.0
 20
0.0
 30
0.0
  0
VERTEX
  5
6D7
330
6D6
100
AcDbEntity
  8
49
 62
     4
420
    65535
370
    25
100
AcDbVertex
100
AcDb2dVertex
 10
49.35378611499695
 20
134.1759879449968
 30
0.0
  0
VERTEX
  5
6D8
330
6D6
100
AcDbEntity
  8
49
 62
     4
420
    65535
370
    25
100
AcDbVertex
100
AcDb2dVertex
 10
51.02045277499675
 20
134.1759879449968
 30
0.0
  0
SEQEND
  5
6D9
330
6D6
100
AcDbEntity
  8
49
 62
     4
420
    65535
370
    25
  0
ENDBLK
  5
6D5
330
6D2
100
AcDbEntity
  8
0
100
AcDbBlockEnd
  0
BLOCK
  5
6DC
330
6DA
100
AcDbEntity
  8
0
100
AcDbBlockBegin
  2
block 215
 70
     0
 10
0.0
 20
0.0
 30
0.0
  3
block 215
  1

  0
POLYLINE
  5
6DE
330
6DA
100
AcDbEntity
  8
49
 62
     4
420
    65535
370
    25
100
AcDb2dPolyline
 66
     1
 10
0.0
 20
0.0
 30
0.0
  0
VERTEX
  5
6DF
330
6DE
100
AcDbEntity
  8
49
 62
     4
420
    65535
370
    25
100
AcDbVertex
100
AcDb2dVertex
 10
49.35378611499695
 20
133.3759879449968
 30
0.0
  0
VERTEX
  5
6E0
330
6DE
100
AcDbEntity
  8
49
 62
     4
420
    65535
370
    25
100
AcDbVertex
100
AcDb2dVertex
 10
51.02045277499675
 20
133.3759879449968
 30
0.0
  0
SEQEND
  5
6E1
330
6DE
100
AcDbEntity
  8
49
 62
     4
420
    65535
370
    25
  0
ENDBLK
  5
6DD
330
6DA
100
AcDbEntity
  8
0
100
AcDbBlockEnd
  0
BLOCK
  5
6E4
330
6E2
100
AcDbEntity
  8
0
100
AcDbBlockBegin
  2
block 216
 70
     0
 10
0.0
 20
0.0
 30
0.0
  3
block 216
  1

  0
POLYLINE
  5
6E6
330
6E2
100
AcDbEntity
  8
49
 62
     4
420
    65535
370
    25
100
AcDb2dPolyline
 66
     1
 10
0.0
 20
0.0
 30
0.0
  0
VERTEX
  5
6E7
330
6E6
100
AcDbEntity
  8
49
 62
     4
420
    65535
370
    25
100
AcDbVertex
100
AcDb2dVertex
 10
49.35378611499695
 20
134.3759879449968
 30
0.0
  0
VERTEX
  5
6E8
330
6E6
100
AcDbEntity
  8
49
 62
     4
420
    65535
370
    25
100
AcDbVertex
100
AcDb2dVertex
 10
49.95378611499697
 20
134.3759879449968
 30
0.0
  0
SEQEND
  5
6E9
330
6E6
100
AcDbEntity
  8
49
 62
     4
420
    65535
370
    25
  0
ENDBLK
  5
6E5
330
6E2
100
AcDbEntity
  8
0
100
AcDbBlockEnd
  0
BLOCK
  5
6EC
330
6EA
100
AcDbEntity
  8
0
100
AcDbBlockBegin
  2
block 217
 70
     0
 10
0.0
 20
0.0
 30
0.0
  3
block 217
  1

  0
POLYLINE
  5
6EE
330
6EA
100
AcDbEntity
  8
49
 62
     4
420
    65535
370
    25
100
AcDb2dPolyline
 66
     1
 10
0.0
 20
0.0
 30
0.0
  0
VERTEX
  5
6EF
330
6EE
100
AcDbEntity
  8
49
 62
     4
420
    65535
370
    25
100
AcDbVertex
100
AcDb2dVertex
 10
49.35378611499695
 20
133.1759879449968
 30
0.0
  0
VERTEX
  5
6F0
330
6EE
100
AcDbEntity
  8
49
 62
     4
420
    65535
370
    25
100
AcDbVertex
100
AcDb2dVertex
 10
49.95378611499697
 20
133.1759879449968
 30
0.0
  0
SEQEND
  5
6F1
330
6EE
100
AcDbEntity
  8
49
 62
     4
420
    65535
370
    25
  0
ENDBLK
  5
6ED
330
6EA
100
AcDbEntity
  8
0
100
AcDbBlockEnd
  0
BLOCK
  5
6F4
330
6F2
100
AcDbEntity
  8
0
100
AcDbBlockBegin
  2
block 218
 70
     0
 10
0.0
 20
0.0
 30
0.0
  3
block 218
  1

  0
POLYLINE
  5
6F6
330
6F2
100
AcDbEntity
  8
49
 62
     4
420
    65535
370
    25
100
AcDb2dPolyline
 66
     1
 10
0.0
 20
0.0
 30
0.0
  0
VERTEX
  5
6F7
330
6F6
100
AcDbEntity
  8
49
 62
     4
420
    65535
370
    25
100
AcDbVertex
100
AcDb2dVertex
 10
49.25378611499695
 20
133.7759879449968
 30
0.0
  0
VERTEX
  5
6F8
330
6F6
100
AcDbEntity
  8
49
 62
     4
420
    65535
370
    25
100
AcDbVertex
100
AcDb2dVertex
 10
45.25378611499681
 20
133.7759879449968
 30
0.0
  0
SEQEND
  5
6F9
330
6F6
100
AcDbEntity
  8
49
 62
     4
420
    65535
370
    25
  0
ENDBLK
  5
6F5
330
6F2
100
AcDbEntity
  8
0
100
AcDbBlockEnd
  0
BLOCK
  5
6FC
330
6FA
100
AcDbEntity
  8
0
100
AcDbBlockBegin
  2
block 219
 70
     0
 10
0.0
 20
0.0
 30
0.0
  3
block 219
  1

  0
POLYLINE
  5
6FE
330
6FA
100
AcDbEntity
  8
49
 62
     4
420
    65535
370
    25
100
AcDb2dPolyline
 66
     1
 10
0.0
 20
0.0
 30
0.0
  0
VERTEX
  5
6FF
330
6FE
100
AcDbEntity
  8
49
 62
     4
420
    65535
370
    25
100
AcDbVertex
100
AcDb2dVertex
 10
60.25378611499701
 20
131.7759879449968
 30
0.0
  0
VERTEX
  5
700
330
6FE
100
AcDbEntity
  8
49
 62
     4
420
    65535
370
    25
100
AcDbVertex
100
AcDb2dVertex
 10
60.25378611499701
 20
147.2759574249969
 30
0.0
  0
SEQEND
  5
701
330
6FE
100
AcDbEntity
  8
49
 62
     4
420
    65535
370
    25
  0
ENDBLK
  5
6FD
330
6FA
100
AcDbEntity
  8
0
100
AcDbBlockEnd
  0
BLOCK
  5
704
330
702
100
AcDbEntity
  8
0
100
AcDbBlockBegin
  2
block 220
 70
     0
 10
0.0
 20
0.0
 30
0.0
  3
block 220
  1

  0
POLYLINE
  5
706
330
702
100
AcDbEntity
  8
49
 62
     4
420
    65535
370
    25
100
AcDb2dPolyline
 66
     1
 10
0.0
 20
0.0
 30
0.0
  0
VERTEX
  5
707
330
706
100
AcDbEntity
  8
49
 62
     4
420
    65535
370
    25
100
AcDbVertex
100
AcDb2dVertex
 10
60.25378611499701
 20
133.7759879449968
 30
0.0
  0
VERTEX
  5
708
330
706
100
AcDbEntity
  8
49
 62
     4
420
    65535
370
    25
100
AcDbVertex
100
AcDb2dVertex
 10
64.25378611499684
 20
133.025987944997
 30
0.0
  0
VERTEX
  5
709
330
706
100
AcDbEntity
  8
49
 62
     4
420
    65535
370
    25
100
AcDbVertex
100
AcDb2dVertex
 10
64.25378611499684
 20
134.525987944997
 30
0.0
  0
VERTEX
  5
70A
330
706
100
AcDbEntity
  8
49
 62
     4
420
    65535
370
    25
100
AcDbVertex
100
AcDb2dVertex
 10
60.25378611499701
 20
133.7759879449968
 30
0.0
  0
SEQEND
  5
70B
330
706
100
AcDbEntity
  8
49
 62
     4
420
    65535
370
    25
  0
ENDBLK
  5
705
330
702
100
AcDbEntity
  8
0
100
AcDbBlockEnd
  0
BLOCK
  5
70E
330
70C
100
AcDbEntity
  8
0
100
AcDbBlockBegin
  2
block 221
 70
     0
 10
0.0
 20
0.0
 30
0.0
  3
block 221
  1

  0
POLYLINE
  5
710
330
70C
100
AcDbEntity
  8
49
 62
     4
420
    65535
370
    25
100
AcDb2dPolyline
 66
     1
 10
0.0
 20
0.0
 30
0.0
  0
VERTEX
  5
711
330
710
100
AcDbEntity
  8
49
 62
     4
420
    65535
370
    25
100
AcDbVertex
100
AcDb2dVertex
 10
64.15378611499683
 20
133.7759879449968
 30
0.0
  0
VERTEX
  5
712
330
710
100
AcDbEntity
  8
49
 62
     4
420
    65535
370
    25
100
AcDbVertex
100
AcDb2dVertex
 10
60.35378611499702
 20
133.7759879449968
 30
0.0
  0
SEQEND
  5
713
330
710
100
AcDbEntity
  8
49
 62
     4
420
    65535
370
    25
  0
ENDBLK
  5
70F
330
70C
100
AcDbEntity
  8
0
100
AcDbBlockEnd
  0
BLOCK
  5
716
330
714
100
AcDbEntity
  8
0
100
AcDbBlockBegin
  2
block 222
 70
     0
 10
0.0
 20
0.0
 30
0.0
  3
block 222
  1

  0
POLYLINE
  5
718
330
714
100
AcDbEntity
  8
49
 62
     4
420
    65535
370
    25
100
AcDb2dPolyline
 66
     1
 10
0.0
 20
0.0
 30
0.0
  0
VERTEX
  5
719
330
718
100
AcDbEntity
  8
49
 62
     4
420
    65535
370
    25
100
AcDbVertex
100
AcDb2dVertex
 10
64.15378611499683
 20
133.5759879449968
 30
0.0
  0
VERTEX
  5
71A
330
718
100
AcDbEntity
  8
49
 62
     4
420
    65535
370
    25
100
AcDbVertex
100
AcDb2dVertex
 10
61.42045277499679
 20
133.5759879449968
 30
0.0
  0
SEQEND
  5
71B
330
718
100
AcDbEntity
  8
49
 62
     4
420
    65535
370
    25
  0
ENDBLK
  5
717
330
714
100
AcDbEntity
  8
0
100
AcDbBlockEnd
  0
BLOCK
  5
71E
330
71C
100
AcDbEntity
  8
0
100
AcDbBlockBegin
  2
block 223
 70
     0
 10
0.0
 20
0.0
 30
0.0
  3
block 223
  1

  0
POLYLINE
  5
720
330
71C
100
AcDbEntity
  8
49
 62
     4
420
    65535
370
    25
100
AcDb2dPolyline
 66
     1
 10
0.0
 20
0.0
 30
0.0
  0
VERTEX
  5
721
330
720
100
AcDbEntity
  8
49
 62
     4
420
    65535
370
    25
100
AcDbVertex
100
AcDb2dVertex
 10
64.15378611499683
 20
133.9759879449968
 30
0.0
  0
VERTEX
  5
722
330
720
100
AcDbEntity
  8
49
 62
     4
420
    65535
370
    25
100
AcDbVertex
100
AcDb2dVertex
 10
61.42045277499679
 20
133.9759879449968
 30
0.0
  0
SEQEND
  5
723
330
720
100
AcDbEntity
  8
49
 62
     4
420
    65535
370
    25
  0
ENDBLK
  5
71F
330
71C
100
AcDbEntity
  8
0
100
AcDbBlockEnd
  0
BLOCK
  5
726
330
724
100
AcDbEntity
  8
0
100
AcDbBlockBegin
  2
block 224
 70
     0
 10
0.0
 20
0.0
 30
0.0
  3
block 224
  1

  0
POLYLINE
  5
728
330
724
100
AcDbEntity
  8
49
 62
     4
420
    65535
370
    25
100
AcDb2dPolyline
 66
     1
 10
0.0
 20
0.0
 30
0.0
  0
VERTEX
  5
729
330
728
100
AcDbEntity
  8
49
 62
     4
420
    65535
370
    25
100
AcDbVertex
100
AcDb2dVertex
 10
64.15378611499683
 20
133.3759879449968
 30
0.0
  0
VERTEX
  5
72A
330
728
100
AcDbEntity
  8
49
 62
     4
420
    65535
370
    25
100
AcDbVertex
100
AcDb2dVertex
 10
62.4871194449968
 20
133.3759879449968
 30
0.0
  0
SEQEND
  5
72B
330
728
100
AcDbEntity
  8
49
 62
     4
420
    65535
370
    25
  0
ENDBLK
  5
727
330
724
100
AcDbEntity
  8
0
100
AcDbBlockEnd
  0
BLOCK
  5
72E
330
72C
100
AcDbEntity
  8
0
100
AcDbBlockBegin
  2
block 225
 70
     0
 10
0.0
 20
0.0
 30
0.0
  3
block 225
  1

  0
POLYLINE
  5
730
330
72C
100
AcDbEntity
  8
49
 62
     4
420
    65535
370
    25
100
AcDb2dPolyline
 66
     1
 10
0.0
 20
0.0
 30
0.0
  0
VERTEX
  5
731
330
730
100
AcDbEntity
  8
49
 62
     4
420
    65535
370
    25
100
AcDbVertex
100
AcDb2dVertex
 10
64.15378611499683
 20
134.1759879449968
 30
0.0
  0
VERTEX
  5
732
330
730
100
AcDbEntity
  8
49
 62
     4
420
    65535
370
    25
100
AcDbVertex
100
AcDb2dVertex
 10
62.4871194449968
 20
134.1759879449968
 30
0.0
  0
SEQEND
  5
733
330
730
100
AcDbEntity
  8
49
 62
     4
420
    65535
370
    25
  0
ENDBLK
  5
72F
330
72C
100
AcDbEntity
  8
0
100
AcDbBlockEnd
  0
BLOCK
  5
736
330
734
100
AcDbEntity
  8
0
100
AcDbBlockBegin
  2
block 226
 70
     0
 10
0.0
 20
0.0
 30
0.0
  3
block 226
  1

  0
POLYLINE
  5
738
330
734
100
AcDbEntity
  8
49
 62
     4
420
    65535
370
    25
100
AcDb2dPolyline
 66
     1
 10
0.0
 20
0.0
 30
0.0
  0
VERTEX
  5
739
330
738
100
AcDbEntity
  8
49
 62
     4
420
    65535
370
    25
100
AcDbVertex
100
AcDb2dVertex
 10
64.15378611499683
 20
133.1759879449968
 30
0.0
  0
VERTEX
  5
73A
330
738
100
AcDbEntity
  8
49
 62
     4
420
    65535
370
    25
100
AcDbVertex
100
AcDb2dVertex
 10
63.55378611499681
 20
133.1759879449968
 30
0.0
  0
SEQEND
  5
73B
330
738
100
AcDbEntity
  8
49
 62
     4
420
    65535
370
    25
  0
ENDBLK
  5
737
330
734
100
AcDbEntity
  8
0
100
AcDbBlockEnd
  0
BLOCK
  5
73E
330
73C
100
AcDbEntity
  8
0
100
AcDbBlockBegin
  2
block 227
 70
     0
 10
0.0
 20
0.0
 30
0.0
  3
block 227
  1

  0
POLYLINE
  5
740
330
73C
100
AcDbEntity
  8
49
 62
     4
420
    65535
370
    25
100
AcDb2dPolyline
 66
     1
 10
0.0
 20
0.0
 30
0.0
  0
VERTEX
  5
741
330
740
100
AcDbEntity
  8
49
 62
     4
420
    65535
370
    25
100
AcDbVertex
100
AcDb2dVertex
 10
64.15378611499683
 20
134.3759879449968
 30
0.0
  0
VERTEX
  5
742
330
740
100
AcDbEntity
  8
49
 62
     4
420
    65535
370
    25
100
AcDbVertex
100
AcDb2dVertex
 10
63.55378611499681
 20
134.3759879449968
 30
0.0
  0
SEQEND
  5
743
330
740
100
AcDbEntity
  8
49
 62
     4
420
    65535
370
    25
  0
ENDBLK
  5
73F
330
73C
100
AcDbEntity
  8
0
100
AcDbBlockEnd
  0
BLOCK
  5
746
330
744
100
AcDbEntity
  8
0
100
AcDbBlockBegin
  2
block 228
 70
     0
 10
0.0
 20
0.0
 30
0.0
  3
block 228
  1

  0
POLYLINE
  5
748
330
744
100
AcDbEntity
  8
49
 62
     4
420
    65535
370
    25
100
AcDb2dPolyline
 66
     1
 10
0.0
 20
0.0
 30
0.0
  0
VERTEX
  5
749
330
748
100
AcDbEntity
  8
49
 62
     4
420
    65535
370
    25
100
AcDbVertex
100
AcDb2dVertex
 10
64.25378611499684
 20
133.7759879449968
 30
0.0
  0
VERTEX
  5
74A
330
748
100
AcDbEntity
  8
49
 62
     4
420
    65535
370
    25
100
AcDbVertex
100
AcDb2dVertex
 10
68.25378611499697
 20
133.7759879449968
 30
0.0
  0
SEQEND
  5
74B
330
748
100
AcDbEntity
  8
49
 62
     4
420
    65535
370
    25
  0
ENDBLK
  5
747
330
744
100
AcDbEntity
  8
0
100
AcDbBlockEnd
  0
BLOCK
  5
74E
330
74C
100
AcDbEntity
  8
0
100
AcDbBlockBegin
  2
block 229
 70
     0
 10
0.0
 20
0.0
 30
0.0
  3
block 229
  1

  0
POLYLINE
  5
750
330
74C
100
AcDbEntity
  8
49
 62
     4
420
    65535
370
    25
100
AcDb2dPolyline
 66
     1
 10
0.0
 20
0.0
 30
0.0
  0
VERTEX
  5
751
330
750
100
AcDbEntity
  8
49
 62
     4
420
    65535
370
    25
100
AcDbVertex
100
AcDb2dVertex
 10
53.25378611499677
 20
133.7759879449968
 30
0.0
  0
VERTEX
  5
752
330
750
100
AcDbEntity
  8
49
 62
     4
420
    65535
370
    25
100
AcDbVertex
100
AcDb2dVertex
 10
60.25378611499701
 20
133.7759879449968
 30
0.0
  0
SEQEND
  5
753
330
750
100
AcDbEntity
  8
49
 62
     4
420
    65535
370
    25
  0
ENDBLK
  5
74F
330
74C
100
AcDbEntity
  8
0
100
AcDbBlockEnd
  0
BLOCK
  5
756
330
754
100
AcDbEntity
  8
0
100
AcDbBlockBegin
  2
block 230
 70
     0
 10
0.0
 20
0.0
 30
0.0
  3
block 230
  1

  0
MTEXT
  5
758
330
754
100
AcDbEntity
  8
49
 62
     2
420
 16776960
100
AcDbMText
 10
46.41381207471382
 20
135.2759913636148
 30
0.0
 40
3.499999953157898
 41
0.0
 46
0.0
 71
     7
 72
     1
  1
\fMyriad Pro|b0|i0|c0|p34;\W0.625;7
 73
     1
 44
1.0
  0
ENDBLK
  5
757
330
754
100
AcDbEntity
  8
0
100
AcDbBlockEnd
  0
BLOCK
  5
75F
330
75D
100
AcDbEntity
  8
0
100
AcDbBlockBegin
  2
block 231
 70
     0
 10
0.0
 20
0.0
 30
0.0
  3
block 231
  1

  0
POLYLINE
  5
761
330
75D
100
AcDbEntity
  8
3
 62
     7
420
 16777215
370
    25
100
AcDb2dPolyline
 66
     1
 10
0.0
 20
0.0
 30
0.0
  0
VERTEX
  5
762
330
761
100
AcDbEntity
  8
3
 62
     7
420
 16777215
370
    25
100
AcDbVertex
100
AcDb2dVertex
 10
110.7537861149969
 20
163.7759879449969
 30
0.0
  0
VERTEX
  5
763
330
761
100
AcDbEntity
  8
3
 62
     7
420
 16777215
370
    25
100
AcDbVertex
100
AcDb2dVertex
 10
110.7537861149969
 20
200.775987944997
 30
0.0
  0
SEQEND
  5
764
330
761
100
AcDbEntity
  8
3
 62
     7
420
 16777215
370
    25
  0
ENDBLK
  5
760
330
75D
100
AcDbEntity
  8
0
100
AcDbBlockEnd
  0
BLOCK
  5
767
330
765
100
AcDbEntity
  8
0
100
AcDbBlockBegin
  2
block 232
 70
     0
 10
0.0
 20
0.0
 30
0.0
  3
block 232
  1

  0
SPLINE
  5
769
330
765
100
AcDbEntity
  8
3
 62
     7
420
 16777215
370
    25
100
AcDbSpline
210
0.0
220
0.0
230
1.0
 70
     8
 71
     3
 72
    11
 73
     7
 74
     0
 42
0.0000000001
 43
0.0000000001
 12
1.0
 22
0.0
 32
0.0
 13
1.0
 23
0.0
 33
0.0
 40
0.0
 40
0.0
 40
0.0
 40
0.0
 40
1.0
 40
1.0
 40
1.0
 40
2.0
 40
2.0
 40
2.0
 40
2.0
 10
143.7537861149968
 20
200.775987944997
 30
0.0
 10
143.7537861149968
 20
209.8886863172051
 30
0.0
 10
136.366484487205
 20
217.2759879449969
 30
0.0
 10
127.2537861149971
 20
217.2759879449969
 30
0.0
 10
118.1410877427886
 20
217.2759879449969
 30
0.0
 10
110.7537861149969
 20
209.8886863172051
 30
0.0
 10
110.7537861149969
 20
200.775987944997
 30
0.0
  0
ENDBLK
  5
768
330
765
100
AcDbEntity
  8
0
100
AcDbBlockEnd
  0
BLOCK
  5
76C
330
76A
100
AcDbEntity
  8
0
100
AcDbBlockBegin
  2
block 233
 70
     0
 10
0.0
 20
0.0
 30
0.0
  3
block 233
  1

  0
POLYLINE
  5
76E
330
76A
100
AcDbEntity
  8
3
 62
     7
420
 16777215
370
    25
100
AcDb2dPolyline
 66
     1
 10
0.0
 20
0.0
 30
0.0
  0
VERTEX
  5
76F
330
76E
100
AcDbEntity
  8
3
 62
     7
420
 16777215
370
    25
100
AcDbVertex
100
AcDb2dVertex
 10
143.7537861149968
 20
200.775987944997
 30
0.0
  0
VERTEX
  5
770
330
76E
100
AcDbEntity
  8
3
 62
     7
420
 16777215
370
    25
100
AcDbVertex
100
AcDb2dVertex
 10
143.7537861149968
 20
163.7759879449969
 30
0.0
  0
SEQEND
  5
771
330
76E
100
AcDbEntity
  8
3
 62
     7
420
 16777215
370
    25
  0
ENDBLK
  5
76D
330
76A
100
AcDbEntity
  8
0
100
AcDbBlockEnd
  0
BLOCK
  5
774
330
772
100
AcDbEntity
  8
0
100
AcDbBlockBegin
  2
block 234
 70
     0
 10
0.0
 20
0.0
 30
0.0
  3
block 234
  1

  0
SPLINE
  5
776
330
772
100
AcDbEntity
  8
3
 62
     7
420
 16777215
370
    25
100
AcDbSpline
210
0.0
220
0.0
230
1.0
 70
     8
 71
     3
 72
    11
 73
     7
 74
     0
 42
0.0000000001
 43
0.0000000001
 12
1.0
 22
0.0
 32
0.0
 13
1.0
 23
0.0
 33
0.0
 40
0.0
 40
0.0
 40
0.0
 40
0.0
 40
1.0
 40
1.0
 40
1.0
 40
2.0
 40
2.0
 40
2.0
 40
2.0
 10
110.7537861149969
 20
163.7759879449969
 30
0.0
 10
110.7537861149969
 20
154.6632895727887
 30
0.0
 10
118.1410877427886
 20
147.275987944997
 30
0.0
 10
127.2537861149971
 20
147.275987944997
 30
0.0
 10
136.366484487205
 20
147.275987944997
 30
0.0
 10
143.7537861149968
 20
154.6632895727887
 30
0.0
 10
143.7537861149968
 20
163.7759879449969
 30
0.0
  0
ENDBLK
  5
775
330
772
100
AcDbEntity
  8
0
100
AcDbBlockEnd
  0
BLOCK
  5
779
330
777
100
AcDbEntity
  8
0
100
AcDbBlockBegin
  2
block 235
 70
     0
 10
0.0
 20
0.0
 30
0.0
  3
block 235
  1

  0
MTEXT
  5
77B
330
777
100
AcDbEntity
  8
3
 62
     2
420
 16776960
100
AcDbMText
 10
114.6378992429877
 20
227.9648319946039
 30
0.0
 40
3.499999953157898
 41
0.0
 46
0.0
 71
     7
 72
     1
  1
\fMyriad Pro|b0|i0|c0|p34;\W0.625;PZ-Lochung
 73
     1
 44
1.0
  0
ENDBLK
  5
77A
330
777
100
AcDbEntity
  8
0
100
AcDbBlockEnd
  0
BLOCK
  5
77E
330
77C
100
AcDbEntity
  8
0
100
AcDbBlockBegin
  2
block 236
 70
     0
 10
0.0
 20
0.0
 30
0.0
  3
block 236
  1

  0
MTEXT
  5
780
330
77C
100
AcDbEntity
  8
3
 62
     2
420
 16776960
100
AcDbMText
 10
120.6287157392927
 20
115.1992667863857
 30
0.0
 40
3.499999953157898
 41
0.0
 46
0.0
 71
     7
 72
     1
  1
\fMyriad Pro|b0|i0|c0|p34;\W0.625;Blind
 73
     1
 44
1.0
  0
ENDBLK
  5
77F
330
77C
100
AcDbEntity
  8
0
100
AcDbBlockEnd
  0
BLOCK
  5
783
330
781
100
AcDbEntity
  8
0
100
AcDbBlockBegin
  2
block 237
 70
     0
 10
0.0
 20
0.0
 30
0.0
  3
block 237
  1

  0
POLYLINE
  5
785
330
781
100
AcDbEntity
  8
3
  6
AI-Linetype-5
 62
     1
420
 16711680
370
    25
100
AcDb2dPolyline
 66
     1
 10
0.0
 20
0.0
 30
0.0
  0
VERTEX
  5
786
330
785
100
AcDbEntity
  8
3
  6
AI-Linetype-5
 62
     1
420
 16711680
370
    25
100
AcDbVertex
100
AcDb2dVertex
 10
119.0037861149967
 20
170.625987944997
 30
0.0
  0
VERTEX
  5
787
330
785
100
AcDbEntity
  8
3
  6
AI-Linetype-5
 62
     1
420
 16711680
370
    25
100
AcDbVertex
100
AcDb2dVertex
 10
135.503786114997
 20
170.625987944997
 30
0.0
  0
SEQEND
  5
789
330
785
100
AcDbEntity
  8
3
  6
AI-Linetype-5
 62
     1
420
 16711680
370
    25
  0
ENDBLK
  5
784
330
781
100
AcDbEntity
  8
0
100
AcDbBlockEnd
  0
BLOCK
  5
78C
330
78A
100
AcDbEntity
  8
0
100
AcDbBlockBegin
  2
block 238
 70
     0
 10
0.0
 20
0.0
 30
0.0
  3
block 238
  1

  0
POLYLINE
  5
78E
330
78A
100
AcDbEntity
  8
3
  6
AI-Linetype-6
 62
     1
420
 16711680
370
    25
100
AcDb2dPolyline
 66
     1
 10
0.0
 20
0.0
 30
0.0
  0
VERTEX
  5
78F
330
78E
100
AcDbEntity
  8
3
  6
AI-Linetype-6
 62
     1
420
 16711680
370
    25
100
AcDbVertex
100
AcDb2dVertex
 10
115.5037861149969
 20
190.425987944997
 30
0.0
  0
VERTEX
  5
790
330
78E
100
AcDbEntity
  8
3
  6
AI-Linetype-6
 62
     1
420
 16711680
370
    25
100
AcDbVertex
100
AcDb2dVertex
 10
139.0037861149968
 20
190.425987944997
 30
0.0
  0
SEQEND
  5
792
330
78E
100
AcDbEntity
  8
3
  6
AI-Linetype-6
 62
     1
420
 16711680
370
    25
  0
ENDBLK
  5
78D
330
78A
100
AcDbEntity
  8
0
100
AcDbBlockEnd
  0
BLOCK
  5
795
330
793
100
AcDbEntity
  8
0
100
AcDbBlockBegin
  2
block 239
 70
     0
 10
0.0
 20
0.0
 30
0.0
  3
block 239
  1

  0
POLYLINE
  5
797
330
793
100
AcDbEntity
  8
3
  6
AI-Linetype-7
 62
     1
420
 16711680
370
    25
100
AcDb2dPolyline
 66
     1
 10
0.0
 20
0.0
 30
0.0
  0
VERTEX
  5
798
330
797
100
AcDbEntity
  8
3
  6
AI-Linetype-7
 62
     1
420
 16711680
370
    25
100
AcDbVertex
100
AcDb2dVertex
 10
127.2537861149971
 20
220.4259879449968
 30
0.0
  0
VERTEX
  5
799
330
797
100
AcDbEntity
  8
3
  6
AI-Linetype-7
 62
     1
420
 16711680
370
    25
100
AcDbVertex
100
AcDb2dVertex
 10
127.2537861149971
 20
144.2759879449969
 30
0.0
  0
SEQEND
  5
79B
330
797
100
AcDbEntity
  8
3
  6
AI-Linetype-7
 62
     1
420
 16711680
370
    25
  0
ENDBLK
  5
796
330
793
100
AcDbEntity
  8
0
100
AcDbBlockEnd
  0
BLOCK
  5
79E
330
79C
100
AcDbEntity
  8
0
100
AcDbBlockBegin
  2
block 240
 70
     0
 10
0.0
 20
0.0
 30
0.0
  3
block 240
  1

  0
SPLINE
  5
7A0
330
79C
100
AcDbEntity
  8
3
 62
     7
420
 16777215
370
    25
100
AcDbSpline
210
0.0
220
0.0
230
1.0
 70
    11
 71
     3
 72
    29
 73
    25
 74
     0
 42
0.0000000001
 43
0.0000000001
 12
1.0
 22
0.0
 32
0.0
 13
1.0
 23
0.0
 33
0.0
 40
0.0
 40
0.0
 40
0.0
 40
0.0
 40
1.0
 40
1.0
 40
1.0
 40
2.0
 40
2.0
 40
2.0
 40
3.0
 40
3.0
 40
3.0
 40
4.0
 40
4.0
 40
4.0
 40
5.0
 40
5.0
 40
5.0
 40
6.0
 40
6.0
 40
6.0
 40
7.0
 40
7.0
 40
7.0
 40
8.0
 40
8.0
 40
8.0
 40
8.0
 10
132.5037861149968
 20
183.4259879449968
 30
0.0
 10
136.3697793638123
 20
186.3254828816085
 30
0.0
 10
137.1532810516084
 20
191.8099946961813
 30
0.0
 10
134.2537861149967
 20
195.6759879449968
 30
0.0
 10
131.354291178385
 20
199.5419811938125
 30
0.0
 10
125.8697793638122
 20
200.3254828816084
 30
0.0
 10
122.0037861149968
 20
197.425987944997
 30
0.0
 10
118.1377928661814
 20
194.5264930083853
 30
0.0
 10
117.3542911783852
 20
189.0419811938124
 30
0.0
 10
120.2537861149969
 20
185.175987944997
 30
0.0
 10
120.751260798055
 20
184.5126883675857
 30
0.0
 10
121.3404865375858
 20
183.9234626280552
 30
0.0
 10
122.0037861149968
 20
183.4259879449968
 30
0.0
 10
122.0037861149968
 20
183.4259879449968
 30
0.0
 10
122.0037861149968
 20
170.625987944997
 30
0.0
 10
122.0037861149968
 20
170.625987944997
 30
0.0
 10
122.0037861149968
 20
167.7264930083853
 30
0.0
 10
124.3542911783854
 20
165.375987944997
 30
0.0
 10
127.2537861149971
 20
165.375987944997
 30
0.0
 10
130.1532810516082
 20
165.375987944997
 30
0.0
 10
132.5037861149968
 20
167.7264930083853
 30
0.0
 10
132.5037861149968
 20
170.625987944997
 30
0.0
 10
132.5037861149968
 20
170.625987944997
 30
0.0
 10
132.5037861149968
 20
183.4259879449968
 30
0.0
 10
132.5037861149968
 20
183.4259879449968
 30
0.0
  0
ENDBLK
  5
79F
330
79C
100
AcDbEntity
  8
0
100
AcDbBlockEnd
  0
BLOCK
  5
7A3
330
7A1
100
AcDbEntity
  8
0
100
AcDbBlockBegin
  2
block 241
 70
     0
 10
0.0
 20
0.0
 30
0.0
  3
block 241
  1

  0
POLYLINE
  5
7A5
330
7A1
100
AcDbEntity
  8
3
 62
     7
420
 16777215
370
    25
100
AcDb2dPolyline
 66
     1
 10
0.0
 20
0.0
 30
0.0
  0
VERTEX
  5
7A6
330
7A5
100
AcDbEntity
  8
3
 62
     7
420
 16777215
370
    25
100
AcDbVertex
100
AcDb2dVertex
 10
110.7537861149969
 20
53.7759879449972
 30
0.0
  0
VERTEX
  5
7A7
330
7A5
100
AcDbEntity
  8
3
 62
     7
420
 16777215
370
    25
100
AcDbVertex
100
AcDb2dVertex
 10
110.7537861149969
 20
90.77598794499723
 30
0.0
  0
SEQEND
  5
7A8
330
7A5
100
AcDbEntity
  8
3
 62
     7
420
 16777215
370
    25
  0
ENDBLK
  5
7A4
330
7A1
100
AcDbEntity
  8
0
100
AcDbBlockEnd
  0
BLOCK
  5
7AB
330
7A9
100
AcDbEntity
  8
0
100
AcDbBlockBegin
  2
block 242
 70
     0
 10
0.0
 20
0.0
 30
0.0
  3
block 242
  1

  0
SPLINE
  5
7AD
330
7A9
100
AcDbEntity
  8
3
 62
     7
420
 16777215
370
    25
100
AcDbSpline
210
0.0
220
0.0
230
1.0
 70
     8
 71
     3
 72
    11
 73
     7
 74
     0
 42
0.0000000001
 43
0.0000000001
 12
1.0
 22
0.0
 32
0.0
 13
1.0
 23
0.0
 33
0.0
 40
0.0
 40
0.0
 40
0.0
 40
0.0
 40
1.0
 40
1.0
 40
1.0
 40
2.0
 40
2.0
 40
2.0
 40
2.0
 10
143.7537861149968
 20
90.77598794499723
 30
0.0
 10
143.7537861149968
 20
99.88868631720511
 30
0.0
 10
136.366484487205
 20
107.2759879449969
 30
0.0
 10
127.2537861149971
 20
107.2759879449969
 30
0.0
 10
118.1410877427886
 20
107.2759879449969
 30
0.0
 10
110.7537861149969
 20
99.88868631720511
 30
0.0
 10
110.7537861149969
 20
90.77598794499723
 30
0.0
  0
ENDBLK
  5
7AC
330
7A9
100
AcDbEntity
  8
0
100
AcDbBlockEnd
  0
BLOCK
  5
7B0
330
7AE
100
AcDbEntity
  8
0
100
AcDbBlockBegin
  2
block 243
 70
     0
 10
0.0
 20
0.0
 30
0.0
  3
block 243
  1

  0
POLYLINE
  5
7B2
330
7AE
100
AcDbEntity
  8
3
 62
     7
420
 16777215
370
    25
100
AcDb2dPolyline
 66
     1
 10
0.0
 20
0.0
 30
0.0
  0
VERTEX
  5
7B3
330
7B2
100
AcDbEntity
  8
3
 62
     7
420
 16777215
370
    25
100
AcDbVertex
100
AcDb2dVertex
 10
143.7537861149968
 20
90.77598794499723
 30
0.0
  0
VERTEX
  5
7B4
330
7B2
100
AcDbEntity
  8
3
 62
     7
420
 16777215
370
    25
100
AcDbVertex
100
AcDb2dVertex
 10
143.7537861149968
 20
53.7759879449972
 30
0.0
  0
SEQEND
  5
7B5
330
7B2
100
AcDbEntity
  8
3
 62
     7
420
 16777215
370
    25
  0
ENDBLK
  5
7B1
330
7AE
100
AcDbEntity
  8
0
100
AcDbBlockEnd
  0
BLOCK
  5
7B8
330
7B6
100
AcDbEntity
  8
0
100
AcDbBlockBegin
  2
block 244
 70
     0
 10
0.0
 20
0.0
 30
0.0
  3
block 244
  1

  0
SPLINE
  5
7BA
330
7B6
100
AcDbEntity
  8
3
 62
     7
420
 16777215
370
    25
100
AcDbSpline
210
0.0
220
0.0
230
1.0
 70
     8
 71
     3
 72
    11
 73
     7
 74
     0
 42
0.0000000001
 43
0.0000000001
 12
1.0
 22
0.0
 32
0.0
 13
1.0
 23
0.0
 33
0.0
 40
0.0
 40
0.0
 40
0.0
 40
0.0
 40
1.0
 40
1.0
 40
1.0
 40
2.0
 40
2.0
 40
2.0
 40
2.0
 10
110.7537861149969
 20
53.7759879449972
 30
0.0
 10
110.7537861149969
 20
44.66328957278869
 30
0.0
 10
118.1410877427886
 20
37.27598794499695
 30
0.0
 10
127.2537861149971
 20
37.27598794499695
 30
0.0
 10
136.366484487205
 20
37.27598794499695
 30
0.0
 10
143.7537861149968
 20
44.66328957278869
 30
0.0
 10
143.7537861149968
 20
53.7759879449972
 30
0.0
  0
ENDBLK
  5
7B9
330
7B6
100
AcDbEntity
  8
0
100
AcDbBlockEnd
  0
BLOCK
  5
7BD
330
7BB
100
AcDbEntity
  8
0
100
AcDbBlockBegin
  2
block 245
 70
     0
 10
0.0
 20
0.0
 30
0.0
  3
block 245
  1

  0
POLYLINE
  5
7BF
330
7BB
100
AcDbEntity
  8
3
  6
AI-Linetype-8
 62
     1
420
 16711680
370
    25
100
AcDb2dPolyline
 66
     1
 10
0.0
 20
0.0
 30
0.0
  0
VERTEX
  5
7C0
330
7BF
100
AcDbEntity
  8
3
  6
AI-Linetype-8
 62
     1
420
 16711680
370
    25
100
AcDbVertex
100
AcDb2dVertex
 10
127.2537861149971
 20
110.4259879449968
 30
0.0
  0
VERTEX
  5
7C1
330
7BF
100
AcDbEntity
  8
3
  6
AI-Linetype-8
 62
     1
420
 16711680
370
    25
100
AcDbVertex
100
AcDb2dVertex
 10
127.2537861149971
 20
34.27598794499684
 30
0.0
  0
SEQEND
  5
7C3
330
7BF
100
AcDbEntity
  8
3
  6
AI-Linetype-8
 62
     1
420
 16711680
370
    25
  0
ENDBLK
  5
7BE
330
7BB
100
AcDbEntity
  8
0
100
AcDbBlockEnd
  0
BLOCK
  5
7C6
330
7C4
100
AcDbEntity
  8
0
100
AcDbBlockBegin
  2
block 246
 70
     0
 10
0.0
 20
0.0
 30
0.0
  3
block 246
  1

  0
SPLINE
  5
7C8
330
7C4
100
AcDbEntity
  8
3
 62
     7
420
 16777215
370
    25
100
AcDbSpline
210
0.0
220
0.0
230
1.0
 70
    11
 71
     3
 72
    23
 73
    19
 74
     0
 42
0.0000000001
 43
0.0000000001
 12
1.0
 22
0.0
 32
0.0
 13
1.0
 23
0.0
 33
0.0
 40
0.0
 40
0.0
 40
0.0
 40
0.0
 40
1.0
 40
1.0
 40
1.0
 40
2.0
 40
2.0
 40
2.0
 40
3.0
 40
3.0
 40
3.0
 40
4.0
 40
4.0
 40
4.0
 40
5.0
 40
5.0
 40
5.0
 40
6.0
 40
6.0
 40
6.0
 40
6.0
 10
60.25378611499701
 20
217.2759574249968
 30
0.0
 10
60.25378611499701
 20
217.2759574249968
 30
0.0
 10
55.25378611499684
 20
217.2759574249968
 30
0.0
 10
55.25378611499684
 20
217.2759574249968
 30
0.0
 10
54.14921661562658
 20
217.2759574242935
 30
0.0
 10
53.25378611570039
 20
216.380526924367
 30
0.0
 10
53.25378611499677
 20
215.275957424997
 30
0.0
 10
53.25378611499677
 20
215.275957424997
 30
0.0
 10
53.25378611499677
 20
149.275957424997
 30
0.0
 10
53.25378611499677
 20
149.275957424997
 30
0.0
 10
53.25378611570039
 20
148.1713879256267
 30
0.0
 10
54.14921661562658
 20
147.2759574257005
 30
0.0
 10
55.25378611499684
 20
147.2759574249969
 30
0.0
 10
55.25378611499684
 20
147.2759574249969
 30
0.0
 10
60.25378611499701
 20
147.2759574249969
 30
0.0
 10
60.25378611499701
 20
147.2759574249969
 30
0.0
 10
60.25378611499701
 20
147.2759574249969
 30
0.0
 10
60.25378611499701
 20
217.2759574249968
 30
0.0
 10
60.25378611499701
 20
217.2759574249968
 30
0.0
  0
ENDBLK
  5
7C7
330
7C4
100
AcDbEntity
  8
0
100
AcDbBlockEnd
  0
BLOCK
  5
7CB
330
7C9
100
AcDbEntity
  8
0
100
AcDbBlockBegin
  2
block 247
 70
     0
 10
0.0
 20
0.0
 30
0.0
  3
block 247
  1

  0
POLYLINE
  5
7CD
330
7C9
100
AcDbEntity
  8
3
 62
     7
420
 16777215
370
    25
100
AcDb2dPolyline
 66
     1
 10
0.0
 20
0.0
 30
0.0
  0
VERTEX
  5
7CE
330
7CD
100
AcDbEntity
  8
3
 62
     7
420
 16777215
370
    25
100
AcDbVertex
100
AcDb2dVertex
 10
67.83045630499694
 20
203.7723151249969
 30
0.0
  0
VERTEX
  5
7CF
330
7CD
100
AcDbEntity
  8
3
 62
     7
420
 16777215
370
    25
100
AcDbVertex
100
AcDb2dVertex
 10
67.83045630499694
 20
210.7723151249968
 30
0.0
  0
VERTEX
  5
7D0
330
7CD
100
AcDbEntity
  8
3
 62
     7
420
 16777215
370
    25
100
AcDbVertex
100
AcDb2dVertex
 10
77.53045630499696
 20
210.7723151249968
 30
0.0
  0
VERTEX
  5
7D1
330
7CD
100
AcDbEntity
  8
3
 62
     7
420
 16777215
370
    25
100
AcDbVertex
100
AcDb2dVertex
 10
78.03045630499697
 20
210.2723151249968
 30
0.0
  0
VERTEX
  5
7D2
330
7CD
100
AcDbEntity
  8
3
 62
     7
420
 16777215
370
    25
100
AcDbVertex
100
AcDb2dVertex
 10
78.03045630499697
 20
204.2723151249969
 30
0.0
  0
VERTEX
  5
7D3
330
7CD
100
AcDbEntity
  8
3
 62
     7
420
 16777215
370
    25
100
AcDbVertex
100
AcDb2dVertex
 10
77.53045630499696
 20
203.7723151249969
 30
0.0
  0
VERTEX
  5
7D4
330
7CD
100
AcDbEntity
  8
3
 62
     7
420
 16777215
370
    25
100
AcDbVertex
100
AcDb2dVertex
 10
67.83045630499694
 20
203.7723151249969
 30
0.0
  0
SEQEND
  5
7D5
330
7CD
100
AcDbEntity
  8
3
 62
     7
420
 16777215
370
    25
  0
ENDBLK
  5
7CC
330
7C9
100
AcDbEntity
  8
0
100
AcDbBlockEnd
  0
BLOCK
  5
7D8
330
7D6
100
AcDbEntity
  8
0
100
AcDbBlockBegin
  2
block 248
 70
     0
 10
0.0
 20
0.0
 30
0.0
  3
block 248
  1

  0
POLYLINE
  5
7DA
330
7D6
100
AcDbEntity
  8
3
 62
     7
420
 16777215
370
    25
100
AcDb2dPolyline
 66
     1
 10
0.0
 20
0.0
 30
0.0
  0
VERTEX
  5
7DB
330
7DA
100
AcDbEntity
  8
3
 62
     7
420
 16777215
370
    25
100
AcDbVertex
100
AcDb2dVertex
 10
67.43045630499692
 20
211.2723151249968
 30
0.0
  0
VERTEX
  5
7DC
330
7DA
100
AcDbEntity
  8
3
 62
     7
420
 16777215
370
    25
100
AcDbVertex
100
AcDb2dVertex
 10
67.43045630499692
 20
203.2723151249969
 30
0.0
  0
SEQEND
  5
7DD
330
7DA
100
AcDbEntity
  8
3
 62
     7
420
 16777215
370
    25
  0
ENDBLK
  5
7D9
330
7D6
100
AcDbEntity
  8
0
100
AcDbBlockEnd
  0
BLOCK
  5
7E0
330
7DE
100
AcDbEntity
  8
0
100
AcDbBlockBegin
  2
block 249
 70
     0
 10
0.0
 20
0.0
 30
0.0
  3
block 249
  1

  0
POLYLINE
  5
7E2
330
7DE
100
AcDbEntity
  8
3
 62
     7
420
 16777215
370
    25
100
AcDb2dPolyline
 66
     1
 10
0.0
 20
0.0
 30
0.0
  0
VERTEX
  5
7E3
330
7E2
100
AcDbEntity
  8
3
 62
     7
420
 16777215
370
    25
100
AcDbVertex
100
AcDb2dVertex
 10
67.43045630499692
 20
211.2723151249968
 30
0.0
  0
VERTEX
  5
7E4
330
7E2
100
AcDbEntity
  8
3
 62
     7
420
 16777215
370
    25
100
AcDbVertex
100
AcDb2dVertex
 10
67.83045630499694
 20
210.7723151249968
 30
0.0
  0
SEQEND
  5
7E5
330
7E2
100
AcDbEntity
  8
3
 62
     7
420
 16777215
370
    25
  0
ENDBLK
  5
7E1
330
7DE
100
AcDbEntity
  8
0
100
AcDbBlockEnd
  0
BLOCK
  5
7E8
330
7E6
100
AcDbEntity
  8
0
100
AcDbBlockBegin
  2
block 250
 70
     0
 10
0.0
 20
0.0
 30
0.0
  3
block 250
  1

  0
POLYLINE
  5
7EA
330
7E6
100
AcDbEntity
  8
3
 62
     7
420
 16777215
370
    25
100
AcDb2dPolyline
 66
     1
 10
0.0
 20
0.0
 30
0.0
  0
VERTEX
  5
7EB
330
7EA
100
AcDbEntity
  8
3
 62
     7
420
 16777215
370
    25
100
AcDbVertex
100
AcDb2dVertex
 10
67.43045630499692
 20
203.2723151249969
 30
0.0
  0
VERTEX
  5
7EC
330
7EA
100
AcDbEntity
  8
3
 62
     7
420
 16777215
370
    25
100
AcDbVertex
100
AcDb2dVertex
 10
67.83045630499694
 20
203.7723151249969
 30
0.0
  0
SEQEND
  5
7ED
330
7EA
100
AcDbEntity
  8
3
 62
     7
420
 16777215
370
    25
  0
ENDBLK
  5
7E9
330
7E6
100
AcDbEntity
  8
0
100
AcDbBlockEnd
  0
BLOCK
  5
7F0
330
7EE
100
AcDbEntity
  8
0
100
AcDbBlockBegin
  2
block 251
 70
     0
 10
0.0
 20
0.0
 30
0.0
  3
block 251
  1

  0
POLYLINE
  5
7F2
330
7EE
100
AcDbEntity
  8
3
 62
     7
420
 16777215
370
    25
100
AcDb2dPolyline
 66
     1
 10
0.0
 20
0.0
 30
0.0
  0
VERTEX
  5
7F3
330
7F2
100
AcDbEntity
  8
3
 62
     7
420
 16777215
370
    25
100
AcDbVertex
100
AcDb2dVertex
 10
67.83045630499694
 20
153.772315124997
 30
0.0
  0
VERTEX
  5
7F4
330
7F2
100
AcDbEntity
  8
3
 62
     7
420
 16777215
370
    25
100
AcDbVertex
100
AcDb2dVertex
 10
67.83045630499694
 20
160.772315124997
 30
0.0
  0
VERTEX
  5
7F5
330
7F2
100
AcDbEntity
  8
3
 62
     7
420
 16777215
370
    25
100
AcDbVertex
100
AcDb2dVertex
 10
77.53045630499696
 20
160.772315124997
 30
0.0
  0
VERTEX
  5
7F6
330
7F2
100
AcDbEntity
  8
3
 62
     7
420
 16777215
370
    25
100
AcDbVertex
100
AcDb2dVertex
 10
78.03045630499697
 20
160.2723151249969
 30
0.0
  0
VERTEX
  5
7F7
330
7F2
100
AcDbEntity
  8
3
 62
     7
420
 16777215
370
    25
100
AcDbVertex
100
AcDb2dVertex
 10
78.03045630499697
 20
154.272315124997
 30
0.0
  0
VERTEX
  5
7F8
330
7F2
100
AcDbEntity
  8
3
 62
     7
420
 16777215
370
    25
100
AcDbVertex
100
AcDb2dVertex
 10
77.53045630499696
 20
153.772315124997
 30
0.0
  0
VERTEX
  5
7F9
330
7F2
100
AcDbEntity
  8
3
 62
     7
420
 16777215
370
    25
100
AcDbVertex
100
AcDb2dVertex
 10
67.83045630499694
 20
153.772315124997
 30
0.0
  0
SEQEND
  5
7FA
330
7F2
100
AcDbEntity
  8
3
 62
     7
420
 16777215
370
    25
  0
ENDBLK
  5
7F1
330
7EE
100
AcDbEntity
  8
0
100
AcDbBlockEnd
  0
BLOCK
  5
7FD
330
7FB
100
AcDbEntity
  8
0
100
AcDbBlockBegin
  2
block 252
 70
     0
 10
0.0
 20
0.0
 30
0.0
  3
block 252
  1

  0
POLYLINE
  5
7FF
330
7FB
100
AcDbEntity
  8
3
 62
     7
420
 16777215
370
    25
100
AcDb2dPolyline
 66
     1
 10
0.0
 20
0.0
 30
0.0
  0
VERTEX
  5
800
330
7FF
100
AcDbEntity
  8
3
 62
     7
420
 16777215
370
    25
100
AcDbVertex
100
AcDb2dVertex
 10
67.43045630499692
 20
161.272315124997
 30
0.0
  0
VERTEX
  5
801
330
7FF
100
AcDbEntity
  8
3
 62
     7
420
 16777215
370
    25
100
AcDbVertex
100
AcDb2dVertex
 10
67.43045630499692
 20
153.272315124997
 30
0.0
  0
SEQEND
  5
802
330
7FF
100
AcDbEntity
  8
3
 62
     7
420
 16777215
370
    25
  0
ENDBLK
  5
7FE
330
7FB
100
AcDbEntity
  8
0
100
AcDbBlockEnd
  0
BLOCK
  5
805
330
803
100
AcDbEntity
  8
0
100
AcDbBlockBegin
  2
block 253
 70
     0
 10
0.0
 20
0.0
 30
0.0
  3
block 253
  1

  0
POLYLINE
  5
807
330
803
100
AcDbEntity
  8
3
 62
     7
420
 16777215
370
    25
100
AcDb2dPolyline
 66
     1
 10
0.0
 20
0.0
 30
0.0
  0
VERTEX
  5
808
330
807
100
AcDbEntity
  8
3
 62
     7
420
 16777215
370
    25
100
AcDbVertex
100
AcDb2dVertex
 10
67.43045630499692
 20
161.272315124997
 30
0.0
  0
VERTEX
  5
809
330
807
100
AcDbEntity
  8
3
 62
     7
420
 16777215
370
    25
100
AcDbVertex
100
AcDb2dVertex
 10
67.83045630499694
 20
160.772315124997
 30
0.0
  0
SEQEND
  5
80A
330
807
100
AcDbEntity
  8
3
 62
     7
420
 16777215
370
    25
  0
ENDBLK
  5
806
330
803
100
AcDbEntity
  8
0
100
AcDbBlockEnd
  0
BLOCK
  5
80D
330
80B
100
AcDbEntity
  8
0
100
AcDbBlockBegin
  2
block 254
 70
     0
 10
0.0
 20
0.0
 30
0.0
  3
block 254
  1

  0
POLYLINE
  5
80F
330
80B
100
AcDbEntity
  8
3
 62
     7
420
 16777215
370
    25
100
AcDb2dPolyline
 66
     1
 10
0.0
 20
0.0
 30
0.0
  0
VERTEX
  5
810
330
80F
100
AcDbEntity
  8
3
 62
     7
420
 16777215
370
    25
100
AcDbVertex
100
AcDb2dVertex
 10
67.43045630499692
 20
153.272315124997
 30
0.0
  0
VERTEX
  5
811
330
80F
100
AcDbEntity
  8
3
 62
     7
420
 16777215
370
    25
100
AcDbVertex
100
AcDb2dVertex
 10
67.83045630499694
 20
153.772315124997
 30
0.0
  0
SEQEND
  5
812
330
80F
100
AcDbEntity
  8
3
 62
     7
420
 16777215
370
    25
  0
ENDBLK
  5
80E
330
80B
100
AcDbEntity
  8
0
100
AcDbBlockEnd
  0
BLOCK
  5
815
330
813
100
AcDbEntity
  8
0
100
AcDbBlockBegin
  2
block 255
 70
     0
 10
0.0
 20
0.0
 30
0.0
  3
block 255
  1

  0
POLYLINE
  5
817
330
813
100
AcDbEntity
  8
3
 62
     7
420
 16777215
370
    25
100
AcDb2dPolyline
 66
     1
 10
0.0
 20
0.0
 30
0.0
  0
VERTEX
  5
818
330
817
100
AcDbEntity
  8
3
 62
     7
420
 16777215
370
    25
100
AcDbVertex
100
AcDb2dVertex
 10
60.25378611499701
 20
204.775957424997
 30
0.0
  0
VERTEX
  5
819
330
817
100
AcDbEntity
  8
3
 62
     7
420
 16777215
370
    25
100
AcDbVertex
100
AcDb2dVertex
 10
67.43045630499692
 20
204.775957424997
 30
0.0
  0
SEQEND
  5
81A
330
817
100
AcDbEntity
  8
3
 62
     7
420
 16777215
370
    25
  0
ENDBLK
  5
816
330
813
100
AcDbEntity
  8
0
100
AcDbBlockEnd
  0
BLOCK
  5
81D
330
81B
100
AcDbEntity
  8
0
100
AcDbBlockBegin
  2
block 256
 70
     0
 10
0.0
 20
0.0
 30
0.0
  3
block 256
  1

  0
POLYLINE
  5
81F
330
81B
100
AcDbEntity
  8
3
 62
     7
420
 16777215
370
    25
100
AcDb2dPolyline
 66
     1
 10
0.0
 20
0.0
 30
0.0
  0
VERTEX
  5
820
330
81F
100
AcDbEntity
  8
3
 62
     7
420
 16777215
370
    25
100
AcDbVertex
100
AcDb2dVertex
 10
67.43045630499692
 20
209.7759574249968
 30
0.0
  0
VERTEX
  5
821
330
81F
100
AcDbEntity
  8
3
 62
     7
420
 16777215
370
    25
100
AcDbVertex
100
AcDb2dVertex
 10
60.25378611499701
 20
209.7759574249968
 30
0.0
  0
SEQEND
  5
822
330
81F
100
AcDbEntity
  8
3
 62
     7
420
 16777215
370
    25
  0
ENDBLK
  5
81E
330
81B
100
AcDbEntity
  8
0
100
AcDbBlockEnd
  0
BLOCK
  5
825
330
823
100
AcDbEntity
  8
0
100
AcDbBlockBegin
  2
block 257
 70
     0
 10
0.0
 20
0.0
 30
0.0
  3
block 257
  1

  0
POLYLINE
  5
827
330
823
100
AcDbEntity
  8
3
 62
     1
420
 16711680
370
    25
100
AcDb2dPolyline
 66
     1
 10
0.0
 20
0.0
 30
0.0
  0
VERTEX
  5
828
330
827
100
AcDbEntity
  8
3
 62
     1
420
 16711680
370
    25
100
AcDbVertex
100
AcDb2dVertex
 10
60.25378611499701
 20
205.275957424997
 30
0.0
  0
VERTEX
  5
829
330
827
100
AcDbEntity
  8
3
 62
     1
420
 16711680
370
    25
100
AcDbVertex
100
AcDb2dVertex
 10
67.43045630499692
 20
205.275957424997
 30
0.0
  0
SEQEND
  5
82A
330
827
100
AcDbEntity
  8
3
 62
     1
420
 16711680
370
    25
  0
ENDBLK
  5
826
330
823
100
AcDbEntity
  8
0
100
AcDbBlockEnd
  0
BLOCK
  5
82D
330
82B
100
AcDbEntity
  8
0
100
AcDbBlockBegin
  2
block 258
 70
     0
 10
0.0
 20
0.0
 30
0.0
  3
block 258
  1

  0
POLYLINE
  5
82F
330
82B
100
AcDbEntity
  8
3
 62
     1
420
 16711680
370
    25
100
AcDb2dPolyline
 66
     1
 10
0.0
 20
0.0
 30
0.0
  0
VERTEX
  5
830
330
82F
100
AcDbEntity
  8
3
 62
     1
420
 16711680
370
    25
100
AcDbVertex
100
AcDb2dVertex
 10
60.25378611499701
 20
209.2759574249968
 30
0.0
  0
VERTEX
  5
831
330
82F
100
AcDbEntity
  8
3
 62
     1
420
 16711680
370
    25
100
AcDbVertex
100
AcDb2dVertex
 10
67.43045630499692
 20
209.2759574249968
 30
0.0
  0
SEQEND
  5
832
330
82F
100
AcDbEntity
  8
3
 62
     1
420
 16711680
370
    25
  0
ENDBLK
  5
82E
330
82B
100
AcDbEntity
  8
0
100
AcDbBlockEnd
  0
BLOCK
  5
835
330
833
100
AcDbEntity
  8
0
100
AcDbBlockBegin
  2
block 259
 70
     0
 10
0.0
 20
0.0
 30
0.0
  3
block 259
  1

  0
POLYLINE
  5
837
330
833
100
AcDbEntity
  8
3
  6
AI-Linetype-9
 62
     1
420
 16711680
370
    25
100
AcDb2dPolyline
 66
     1
 10
0.0
 20
0.0
 30
0.0
  0
VERTEX
  5
838
330
837
100
AcDbEntity
  8
3
  6
AI-Linetype-9
 62
     1
420
 16711680
370
    25
100
AcDbVertex
100
AcDb2dVertex
 10
58.258934014997
 20
207.2759574249971
 30
0.0
  0
VERTEX
  5
839
330
837
100
AcDbEntity
  8
3
  6
AI-Linetype-9
 62
     1
420
 16711680
370
    25
100
AcDbVertex
100
AcDb2dVertex
 10
84.2537861149969
 20
207.2759574249971
 30
0.0
  0
SEQEND
  5
83B
330
837
100
AcDbEntity
  8
3
  6
AI-Linetype-9
 62
     1
420
 16711680
370
    25
  0
ENDBLK
  5
836
330
833
100
AcDbEntity
  8
0
100
AcDbBlockEnd
  0
BLOCK
  5
83E
330
83C
100
AcDbEntity
  8
0
100
AcDbBlockBegin
  2
block 260
 70
     0
 10
0.0
 20
0.0
 30
0.0
  3
block 260
  1

  0
POLYLINE
  5
840
330
83C
100
AcDbEntity
  8
3
 62
     7
420
 16777215
370
    25
100
AcDb2dPolyline
 66
     1
 10
0.0
 20
0.0
 30
0.0
  0
VERTEX
  5
841
330
840
100
AcDbEntity
  8
3
 62
     7
420
 16777215
370
    25
100
AcDbVertex
100
AcDb2dVertex
 10
60.25378611499701
 20
154.7759574249968
 30
0.0
  0
VERTEX
  5
842
330
840
100
AcDbEntity
  8
3
 62
     7
420
 16777215
370
    25
100
AcDbVertex
100
AcDb2dVertex
 10
67.43045630499692
 20
154.7759574249968
 30
0.0
  0
SEQEND
  5
843
330
840
100
AcDbEntity
  8
3
 62
     7
420
 16777215
370
    25
  0
ENDBLK
  5
83F
330
83C
100
AcDbEntity
  8
0
100
AcDbBlockEnd
  0
BLOCK
  5
846
330
844
100
AcDbEntity
  8
0
100
AcDbBlockBegin
  2
block 261
 70
     0
 10
0.0
 20
0.0
 30
0.0
  3
block 261
  1

  0
POLYLINE
  5
848
330
844
100
AcDbEntity
  8
3
 62
     7
420
 16777215
370
    25
100
AcDb2dPolyline
 66
     1
 10
0.0
 20
0.0
 30
0.0
  0
VERTEX
  5
849
330
848
100
AcDbEntity
  8
3
 62
     7
420
 16777215
370
    25
100
AcDbVertex
100
AcDb2dVertex
 10
67.43045630499692
 20
159.775957424997
 30
0.0
  0
VERTEX
  5
84A
330
848
100
AcDbEntity
  8
3
 62
     7
420
 16777215
370
    25
100
AcDbVertex
100
AcDb2dVertex
 10
60.25378611499701
 20
159.775957424997
 30
0.0
  0
SEQEND
  5
84B
330
848
100
AcDbEntity
  8
3
 62
     7
420
 16777215
370
    25
  0
ENDBLK
  5
847
330
844
100
AcDbEntity
  8
0
100
AcDbBlockEnd
  0
BLOCK
  5
84E
330
84C
100
AcDbEntity
  8
0
100
AcDbBlockBegin
  2
block 262
 70
     0
 10
0.0
 20
0.0
 30
0.0
  3
block 262
  1

  0
POLYLINE
  5
850
330
84C
100
AcDbEntity
  8
3
 62
     1
420
 16711680
370
    25
100
AcDb2dPolyline
 66
     1
 10
0.0
 20
0.0
 30
0.0
  0
VERTEX
  5
851
330
850
100
AcDbEntity
  8
3
 62
     1
420
 16711680
370
    25
100
AcDbVertex
100
AcDb2dVertex
 10
60.25378611499701
 20
155.2759574249968
 30
0.0
  0
VERTEX
  5
852
330
850
100
AcDbEntity
  8
3
 62
     1
420
 16711680
370
    25
100
AcDbVertex
100
AcDb2dVertex
 10
67.43045630499692
 20
155.2759574249968
 30
0.0
  0
SEQEND
  5
853
330
850
100
AcDbEntity
  8
3
 62
     1
420
 16711680
370
    25
  0
ENDBLK
  5
84F
330
84C
100
AcDbEntity
  8
0
100
AcDbBlockEnd
  0
BLOCK
  5
856
330
854
100
AcDbEntity
  8
0
100
AcDbBlockBegin
  2
block 263
 70
     0
 10
0.0
 20
0.0
 30
0.0
  3
block 263
  1

  0
POLYLINE
  5
858
330
854
100
AcDbEntity
  8
3
 62
     1
420
 16711680
370
    25
100
AcDb2dPolyline
 66
     1
 10
0.0
 20
0.0
 30
0.0
  0
VERTEX
  5
859
330
858
100
AcDbEntity
  8
3
 62
     1
420
 16711680
370
    25
100
AcDbVertex
100
AcDb2dVertex
 10
60.25378611499701
 20
159.275957424997
 30
0.0
  0
VERTEX
  5
85A
330
858
100
AcDbEntity
  8
3
 62
     1
420
 16711680
370
    25
100
AcDbVertex
100
AcDb2dVertex
 10
67.43045630499692
 20
159.275957424997
 30
0.0
  0
SEQEND
  5
85B
330
858
100
AcDbEntity
  8
3
 62
     1
420
 16711680
370
    25
  0
ENDBLK
  5
857
330
854
100
AcDbEntity
  8
0
100
AcDbBlockEnd
  0
BLOCK
  5
85E
330
85C
100
AcDbEntity
  8
0
100
AcDbBlockBegin
  2
block 264
 70
     0
 10
0.0
 20
0.0
 30
0.0
  3
block 264
  1

  0
POLYLINE
  5
860
330
85C
100
AcDbEntity
  8
3
  6
AI-Linetype-10
 62
     1
420
 16711680
370
    25
100
AcDb2dPolyline
 66
     1
 10
0.0
 20
0.0
 30
0.0
  0
VERTEX
  5
861
330
860
100
AcDbEntity
  8
3
  6
AI-Linetype-10
 62
     1
420
 16711680
370
    25
100
AcDbVertex
100
AcDb2dVertex
 10
58.258934014997
 20
157.2759574249969
 30
0.0
  0
VERTEX
  5
862
330
860
100
AcDbEntity
  8
3
  6
AI-Linetype-10
 62
     1
420
 16711680
370
    25
100
AcDbVertex
100
AcDb2dVertex
 10
84.2537861149969
 20
157.2759574249969
 30
0.0
  0
SEQEND
  5
864
330
860
100
AcDbEntity
  8
3
  6
AI-Linetype-10
 62
     1
420
 16711680
370
    25
  0
ENDBLK
  5
85F
330
85C
100
AcDbEntity
  8
0
100
AcDbBlockEnd
  0
ENDSEC
  0
SECTION
  2
ENTITIES
  0
INSERT
  5
42
330
1F
100
AcDbEntity
  8
1
100
AcDbBlockReference
  2
block 2
 10
0.0
 20
0.0
 30
0.0
  0
INSERT
  5
47
330
1F
100
AcDbEntity
  8
1
100
AcDbBlockReference
  2
block 3
 10
0.0
 20
0.0
 30
0.0
  0
INSERT
  5
4C
330
1F
100
AcDbEntity
  8
1
100
AcDbBlockReference
  2
block 4
 10
0.0
 20
0.0
 30
0.0
  0
INSERT
  5
55
330
1F
100
AcDbEntity
  8
1
100
AcDbBlockReference
  2
block 5
 10
0.0
 20
0.0
 30
0.0
  0
INSERT
  5
5E
330
1F
100
AcDbEntity
  8
1
100
AcDbBlockReference
  2
block 6
 10
0.0
 20
0.0
 30
0.0
  0
INSERT
  5
67
330
1F
100
AcDbEntity
  8
1
100
AcDbBlockReference
  2
block 7
 10
0.0
 20
0.0
 30
0.0
  0
INSERT
  5
6C
330
1F
100
AcDbEntity
  8
1
100
AcDbBlockReference
  2
block 8
 10
0.0
 20
0.0
 30
0.0
  0
INSERT
  5
75
330
1F
100
AcDbEntity
  8
1
100
AcDbBlockReference
  2
block 9
 10
0.0
 20
0.0
 30
0.0
  0
INSERT
  5
7B
330
1F
100
AcDbEntity
  8
49
100
AcDbBlockReference
  2
block 10
 10
0.0
 20
0.0
 30
0.0
  0
INSERT
  5
83
330
1F
100
AcDbEntity
  8
49
100
AcDbBlockReference
  2
block 11
 10
0.0
 20
0.0
 30
0.0
  0
INSERT
  5
8B
330
1F
100
AcDbEntity
  8
49
100
AcDbBlockReference
  2
block 12
 10
0.0
 20
0.0
 30
0.0
  0
INSERT
  5
93
330
1F
100
AcDbEntity
  8
49
100
AcDbBlockReference
  2
block 13
 10
0.0
 20
0.0
 30
0.0
  0
INSERT
  5
9B
330
1F
100
AcDbEntity
  8
49
100
AcDbBlockReference
  2
block 14
 10
0.0
 20
0.0
 30
0.0
  0
INSERT
  5
A3
330
1F
100
AcDbEntity
  8
49
100
AcDbBlockReference
  2
block 15
 10
0.0
 20
0.0
 30
0.0
  0
INSERT
  5
AB
330
1F
100
AcDbEntity
  8
49
100
AcDbBlockReference
  2
block 16
 10
0.0
 20
0.0
 30
0.0
  0
INSERT
  5
B3
330
1F
100
AcDbEntity
  8
49
100
AcDbBlockReference
  2
block 17
 10
0.0
 20
0.0
 30
0.0
  0
INSERT
  5
BB
330
1F
100
AcDbEntity
  8
49
100
AcDbBlockReference
  2
block 18
 10
0.0
 20
0.0
 30
0.0
  0
INSERT
  5
C3
330
1F
100
AcDbEntity
  8
49
100
AcDbBlockReference
  2
block 19
 10
0.0
 20
0.0
 30
0.0
  0
INSERT
  5
CB
330
1F
100
AcDbEntity
  8
49
100
AcDbBlockReference
  2
block 20
 10
0.0
 20
0.0
 30
0.0
  0
INSERT
  5
D3
330
1F
100
AcDbEntity
  8
49
100
AcDbBlockReference
  2
block 21
 10
0.0
 20
0.0
 30
0.0
  0
INSERT
  5
DB
330
1F
100
AcDbEntity
  8
49
100
AcDbBlockReference
  2
block 22
 10
0.0
 20
0.0
 30
0.0
  0
INSERT
  5
E3
330
1F
100
AcDbEntity
  8
49
100
AcDbBlockReference
  2
block 23
 10
0.0
 20
0.0
 30
0.0
  0
INSERT
  5
EB
330
1F
100
AcDbEntity
  8
49
100
AcDbBlockReference
  2
block 24
 10
0.0
 20
0.0
 30
0.0
  0
INSERT
  5
F3
330
1F
100
AcDbEntity
  8
49
100
AcDbBlockReference
  2
block 25
 10
0.0
 20
0.0
 30
0.0
  0
INSERT
  5
FB
330
1F
100
AcDbEntity
  8
49
100
AcDbBlockReference
  2
block 26
 10
0.0
 20
0.0
 30
0.0
  0
INSERT
  5
103
330
1F
100
AcDbEntity
  8
49
100
AcDbBlockReference
  2
block 27
 10
0.0
 20
0.0
 30
0.0
  0
INSERT
  5
10B
330
1F
100
AcDbEntity
  8
49
100
AcDbBlockReference
  2
block 28
 10
0.0
 20
0.0
 30
0.0
  0
INSERT
  5
113
330
1F
100
AcDbEntity
  8
49
100
AcDbBlockReference
  2
block 29
 10
0.0
 20
0.0
 30
0.0
  0
INSERT
  5
11B
330
1F
100
AcDbEntity
  8
49
100
AcDbBlockReference
  2
block 30
 10
0.0
 20
0.0
 30
0.0
  0
INSERT
  5
123
330
1F
100
AcDbEntity
  8
49
100
AcDbBlockReference
  2
block 31
 10
0.0
 20
0.0
 30
0.0
  0
INSERT
  5
12B
330
1F
100
AcDbEntity
  8
49
100
AcDbBlockReference
  2
block 32
 10
0.0
 20
0.0
 30
0.0
  0
INSERT
  5
133
330
1F
100
AcDbEntity
  8
49
100
AcDbBlockReference
  2
block 33
 10
0.0
 20
0.0
 30
0.0
  0
INSERT
  5
138
330
1F
100
AcDbEntity
  8
49
100
AcDbBlockReference
  2
block 34
 10
0.0
 20
0.0
 30
0.0
  0
INSERT
  5
140
330
1F
100
AcDbEntity
  8
49
100
AcDbBlockReference
  2
block 35
 10
0.0
 20
0.0
 30
0.0
  0
INSERT
  5
148
330
1F
100
AcDbEntity
  8
49
100
AcDbBlockReference
  2
block 36
 10
0.0
 20
0.0
 30
0.0
  0
INSERT
  5
150
330
1F
100
AcDbEntity
  8
49
100
AcDbBlockReference
  2
block 37
 10
0.0
 20
0.0
 30
0.0
  0
INSERT
  5
158
330
1F
100
AcDbEntity
  8
49
100
AcDbBlockReference
  2
block 38
 10
0.0
 20
0.0
 30
0.0
  0
INSERT
  5
160
330
1F
100
AcDbEntity
  8
49
100
AcDbBlockReference
  2
block 39
 10
0.0
 20
0.0
 30
0.0
  0
INSERT
  5
168
330
1F
100
AcDbEntity
  8
49
100
AcDbBlockReference
  2
block 40
 10
0.0
 20
0.0
 30
0.0
  0
INSERT
  5
170
330
1F
100
AcDbEntity
  8
49
100
AcDbBlockReference
  2
block 41
 10
0.0
 20
0.0
 30
0.0
  0
INSERT
  5
178
330
1F
100
AcDbEntity
  8
49
100
AcDbBlockReference
  2
block 42
 10
0.0
 20
0.0
 30
0.0
  0
INSERT
  5
180
330
1F
100
AcDbEntity
  8
49
100
AcDbBlockReference
  2
block 43
 10
0.0
 20
0.0
 30
0.0
  0
INSERT
  5
188
330
1F
100
AcDbEntity
  8
49
100
AcDbBlockReference
  2
block 44
 10
0.0
 20
0.0
 30
0.0
  0
INSERT
  5
190
330
1F
100
AcDbEntity
  8
49
100
AcDbBlockReference
  2
block 45
 10
0.0
 20
0.0
 30
0.0
  0
INSERT
  5
198
330
1F
100
AcDbEntity
  8
49
100
AcDbBlockReference
  2
block 46
 10
0.0
 20
0.0
 30
0.0
  0
INSERT
  5
1A0
330
1F
100
AcDbEntity
  8
49
100
AcDbBlockReference
  2
block 47
 10
0.0
 20
0.0
 30
0.0
  0
INSERT
  5
1A8
330
1F
100
AcDbEntity
  8
49
100
AcDbBlockReference
  2
block 48
 10
0.0
 20
0.0
 30
0.0
  0
INSERT
  5
1B0
330
1F
100
AcDbEntity
  8
49
100
AcDbBlockReference
  2
block 49
 10
0.0
 20
0.0
 30
0.0
  0
INSERT
  5
1B8
330
1F
100
AcDbEntity
  8
49
100
AcDbBlockReference
  2
block 50
 10
0.0
 20
0.0
 30
0.0
  0
INSERT
  5
1C0
330
1F
100
AcDbEntity
  8
49
100
AcDbBlockReference
  2
block 51
 10
0.0
 20
0.0
 30
0.0
  0
INSERT
  5
1C8
330
1F
100
AcDbEntity
  8
49
100
AcDbBlockReference
  2
block 52
 10
0.0
 20
0.0
 30
0.0
  0
INSERT
  5
1D0
330
1F
100
AcDbEntity
  8
49
100
AcDbBlockReference
  2
block 53
 10
0.0
 20
0.0
 30
0.0
  0
INSERT
  5
1D8
330
1F
100
AcDbEntity
  8
49
100
AcDbBlockReference
  2
block 54
 10
0.0
 20
0.0
 30
0.0
  0
INSERT
  5
1E0
330
1F
100
AcDbEntity
  8
49
100
AcDbBlockReference
  2
block 55
 10
0.0
 20
0.0
 30
0.0
  0
INSERT
  5
1E8
330
1F
100
AcDbEntity
  8
49
100
AcDbBlockReference
  2
block 56
 10
0.0
 20
0.0
 30
0.0
  0
INSERT
  5
1F0
330
1F
100
AcDbEntity
  8
49
100
AcDbBlockReference
  2
block 57
 10
0.0
 20
0.0
 30
0.0
  0
INSERT
  5
1F5
330
1F
100
AcDbEntity
  8
49
100
AcDbBlockReference
  2
block 58
 10
0.0
 20
0.0
 30
0.0
  0
INSERT
  5
1FD
330
1F
100
AcDbEntity
  8
49
100
AcDbBlockReference
  2
block 59
 10
0.0
 20
0.0
 30
0.0
  0
INSERT
  5
205
330
1F
100
AcDbEntity
  8
49
100
AcDbBlockReference
  2
block 60
 10
0.0
 20
0.0
 30
0.0
  0
INSERT
  5
20D
330
1F
100
AcDbEntity
  8
49
100
AcDbBlockReference
  2
block 61
 10
0.0
 20
0.0
 30
0.0
  0
INSERT
  5
215
330
1F
100
AcDbEntity
  8
49
100
AcDbBlockReference
  2
block 62
 10
0.0
 20
0.0
 30
0.0
  0
INSERT
  5
21D
330
1F
100
AcDbEntity
  8
49
100
AcDbBlockReference
  2
block 63
 10
0.0
 20
0.0
 30
0.0
  0
INSERT
  5
225
330
1F
100
AcDbEntity
  8
49
100
AcDbBlockReference
  2
block 64
 10
0.0
 20
0.0
 30
0.0
  0
INSERT
  5
22D
330
1F
100
AcDbEntity
  8
49
100
AcDbBlockReference
  2
block 65
 10
0.0
 20
0.0
 30
0.0
  0
INSERT
  5
235
330
1F
100
AcDbEntity
  8
49
100
AcDbBlockReference
  2
block 66
 10
0.0
 20
0.0
 30
0.0
  0
INSERT
  5
23D
330
1F
100
AcDbEntity
  8
49
100
AcDbBlockReference
  2
block 67
 10
0.0
 20
0.0
 30
0.0
  0
INSERT
  5
245
330
1F
100
AcDbEntity
  8
49
100
AcDbBlockReference
  2
block 68
 10
0.0
 20
0.0
 30
0.0
  0
INSERT
  5
24D
330
1F
100
AcDbEntity
  8
49
100
AcDbBlockReference
  2
block 69
 10
0.0
 20
0.0
 30
0.0
  0
INSERT
  5
255
330
1F
100
AcDbEntity
  8
49
100
AcDbBlockReference
  2
block 70
 10
0.0
 20
0.0
 30
0.0
  0
INSERT
  5
25D
330
1F
100
AcDbEntity
  8
49
100
AcDbBlockReference
  2
block 71
 10
0.0
 20
0.0
 30
0.0
  0
INSERT
  5
265
330
1F
100
AcDbEntity
  8
49
100
AcDbBlockReference
  2
block 72
 10
0.0
 20
0.0
 30
0.0
  0
INSERT
  5
26D
330
1F
100
AcDbEntity
  8
49
100
AcDbBlockReference
  2
block 73
 10
0.0
 20
0.0
 30
0.0
  0
INSERT
  5
275
330
1F
100
AcDbEntity
  8
49
100
AcDbBlockReference
  2
block 74
 10
0.0
 20
0.0
 30
0.0
  0
INSERT
  5
27D
330
1F
100
AcDbEntity
  8
49
100
AcDbBlockReference
  2
block 75
 10
0.0
 20
0.0
 30
0.0
  0
INSERT
  5
285
330
1F
100
AcDbEntity
  8
49
100
AcDbBlockReference
  2
block 76
 10
0.0
 20
0.0
 30
0.0
  0
INSERT
  5
28D
330
1F
100
AcDbEntity
  8
49
100
AcDbBlockReference
  2
block 77
 10
0.0
 20
0.0
 30
0.0
  0
INSERT
  5
295
330
1F
100
AcDbEntity
  8
49
100
AcDbBlockReference
  2
block 78
 10
0.0
 20
0.0
 30
0.0
  0
INSERT
  5
29D
330
1F
100
AcDbEntity
  8
49
100
AcDbBlockReference
  2
block 79
 10
0.0
 20
0.0
 30
0.0
  0
INSERT
  5
2A5
330
1F
100
AcDbEntity
  8
49
100
AcDbBlockReference
  2
block 80
 10
0.0
 20
0.0
 30
0.0
  0
INSERT
  5
2AD
330
1F
100
AcDbEntity
  8
49
100
AcDbBlockReference
  2
block 81
 10
0.0
 20
0.0
 30
0.0
  0
INSERT
  5
2B2
330
1F
100
AcDbEntity
  8
49
100
AcDbBlockReference
  2
block 82
 10
0.0
 20
0.0
 30
0.0
  0
INSERT
  5
2B7
330
1F
100
AcDbEntity
  8
49
100
AcDbBlockReference
  2
block 83
 10
0.0
 20
0.0
 30
0.0
  0
INSERT
  5
2BF
330
1F
100
AcDbEntity
  8
49
100
AcDbBlockReference
  2
block 84
 10
0.0
 20
0.0
 30
0.0
  0
INSERT
  5
2C7
330
1F
100
AcDbEntity
  8
49
100
AcDbBlockReference
  2
block 85
 10
0.0
 20
0.0
 30
0.0
  0
INSERT
  5
2CF
330
1F
100
AcDbEntity
  8
49
100
AcDbBlockReference
  2
block 86
 10
0.0
 20
0.0
 30
0.0
  0
INSERT
  5
2D7
330
1F
100
AcDbEntity
  8
49
100
AcDbBlockReference
  2
block 87
 10
0.0
 20
0.0
 30
0.0
  0
INSERT
  5
2DF
330
1F
100
AcDbEntity
  8
49
100
AcDbBlockReference
  2
block 88
 10
0.0
 20
0.0
 30
0.0
  0
INSERT
  5
2E7
330
1F
100
AcDbEntity
  8
49
100
AcDbBlockReference
  2
block 89
 10
0.0
 20
0.0
 30
0.0
  0
INSERT
  5
2EF
330
1F
100
AcDbEntity
  8
49
100
AcDbBlockReference
  2
block 90
 10
0.0
 20
0.0
 30
0.0
  0
INSERT
  5
2F7
330
1F
100
AcDbEntity
  8
49
100
AcDbBlockReference
  2
block 91
 10
0.0
 20
0.0
 30
0.0
  0
INSERT
  5
2FF
330
1F
100
AcDbEntity
  8
49
100
AcDbBlockReference
  2
block 92
 10
0.0
 20
0.0
 30
0.0
  0
INSERT
  5
307
330
1F
100
AcDbEntity
  8
49
100
AcDbBlockReference
  2
block 93
 10
0.0
 20
0.0
 30
0.0
  0
INSERT
  5
30F
330
1F
100
AcDbEntity
  8
49
100
AcDbBlockReference
  2
block 94
 10
0.0
 20
0.0
 30
0.0
  0
INSERT
  5
317
330
1F
100
AcDbEntity
  8
49
100
AcDbBlockReference
  2
block 95
 10
0.0
 20
0.0
 30
0.0
  0
INSERT
  5
31F
330
1F
100
AcDbEntity
  8
49
100
AcDbBlockReference
  2
block 96
 10
0.0
 20
0.0
 30
0.0
  0
INSERT
  5
327
330
1F
100
AcDbEntity
  8
49
100
AcDbBlockReference
  2
block 97
 10
0.0
 20
0.0
 30
0.0
  0
INSERT
  5
32F
330
1F
100
AcDbEntity
  8
49
100
AcDbBlockReference
  2
block 98
 10
0.0
 20
0.0
 30
0.0
  0
INSERT
  5
337
330
1F
100
AcDbEntity
  8
49
100
AcDbBlockReference
  2
block 99
 10
0.0
 20
0.0
 30
0.0
  0
INSERT
  5
33F
330
1F
100
AcDbEntity
  8
49
100
AcDbBlockReference
  2
block 100
 10
0.0
 20
0.0
 30
0.0
  0
INSERT
  5
347
330
1F
100
AcDbEntity
  8
49
100
AcDbBlockReference
  2
block 101
 10
0.0
 20
0.0
 30
0.0
  0
INSERT
  5
34F
330
1F
100
AcDbEntity
  8
49
100
AcDbBlockReference
  2
block 102
 10
0.0
 20
0.0
 30
0.0
  0
INSERT
  5
357
330
1F
100
AcDbEntity
  8
49
100
AcDbBlockReference
  2
block 103
 10
0.0
 20
0.0
 30
0.0
  0
INSERT
  5
35F
330
1F
100
AcDbEntity
  8
49
100
AcDbBlockReference
  2
block 104
 10
0.0
 20
0.0
 30
0.0
  0
INSERT
  5
367
330
1F
100
AcDbEntity
  8
49
100
AcDbBlockReference
  2
block 105
 10
0.0
 20
0.0
 30
0.0
  0
INSERT
  5
36F
330
1F
100
AcDbEntity
  8
49
100
AcDbBlockReference
  2
block 106
 10
0.0
 20
0.0
 30
0.0
  0
INSERT
  5
377
330
1F
100
AcDbEntity
  8
49
100
AcDbBlockReference
  2
block 107
 10
0.0
 20
0.0
 30
0.0
  0
INSERT
  5
37F
330
1F
100
AcDbEntity
  8
49
100
AcDbBlockReference
  2
block 108
 10
0.0
 20
0.0
 30
0.0
  0
INSERT
  5
384
330
1F
100
AcDbEntity
  8
49
100
AcDbBlockReference
  2
block 109
 10
0.0
 20
0.0
 30
0.0
  0
INSERT
  5
38C
330
1F
100
AcDbEntity
  8
49
100
AcDbBlockReference
  2
block 110
 10
0.0
 20
0.0
 30
0.0
  0
INSERT
  5
396
330
1F
100
AcDbEntity
  8
49
100
AcDbBlockReference
  2
block 111
 10
0.0
 20
0.0
 30
0.0
  0
INSERT
  5
39E
330
1F
100
AcDbEntity
  8
49
100
AcDbBlockReference
  2
block 112
 10
0.0
 20
0.0
 30
0.0
  0
INSERT
  5
3A6
330
1F
100
AcDbEntity
  8
49
100
AcDbBlockReference
  2
block 113
 10
0.0
 20
0.0
 30
0.0
  0
INSERT
  5
3AE
330
1F
100
AcDbEntity
  8
49
100
AcDbBlockReference
  2
block 114
 10
0.0
 20
0.0
 30
0.0
  0
INSERT
  5
3B6
330
1F
100
AcDbEntity
  8
49
100
AcDbBlockReference
  2
block 115
 10
0.0
 20
0.0
 30
0.0
  0
INSERT
  5
3BE
330
1F
100
AcDbEntity
  8
49
100
AcDbBlockReference
  2
block 116
 10
0.0
 20
0.0
 30
0.0
  0
INSERT
  5
3C6
330
1F
100
AcDbEntity
  8
49
100
AcDbBlockReference
  2
block 117
 10
0.0
 20
0.0
 30
0.0
  0
INSERT
  5
3CE
330
1F
100
AcDbEntity
  8
49
100
AcDbBlockReference
  2
block 118
 10
0.0
 20
0.0
 30
0.0
  0
INSERT
  5
3D6
330
1F
100
AcDbEntity
  8
49
100
AcDbBlockReference
  2
block 119
 10
0.0
 20
0.0
 30
0.0
  0
INSERT
  5
3E0
330
1F
100
AcDbEntity
  8
49
100
AcDbBlockReference
  2
block 120
 10
0.0
 20
0.0
 30
0.0
  0
INSERT
  5
3E8
330
1F
100
AcDbEntity
  8
49
100
AcDbBlockReference
  2
block 121
 10
0.0
 20
0.0
 30
0.0
  0
INSERT
  5
3F0
330
1F
100
AcDbEntity
  8
49
100
AcDbBlockReference
  2
block 122
 10
0.0
 20
0.0
 30
0.0
  0
INSERT
  5
3F8
330
1F
100
AcDbEntity
  8
49
100
AcDbBlockReference
  2
block 123
 10
0.0
 20
0.0
 30
0.0
  0
INSERT
  5
400
330
1F
100
AcDbEntity
  8
49
100
AcDbBlockReference
  2
block 124
 10
0.0
 20
0.0
 30
0.0
  0
INSERT
  5
408
330
1F
100
AcDbEntity
  8
49
100
AcDbBlockReference
  2
block 125
 10
0.0
 20
0.0
 30
0.0
  0
INSERT
  5
410
330
1F
100
AcDbEntity
  8
49
100
AcDbBlockReference
  2
block 126
 10
0.0
 20
0.0
 30
0.0
  0
INSERT
  5
418
330
1F
100
AcDbEntity
  8
49
100
AcDbBlockReference
  2
block 127
 10
0.0
 20
0.0
 30
0.0
  0
INSERT
  5
420
330
1F
100
AcDbEntity
  8
49
100
AcDbBlockReference
  2
block 128
 10
0.0
 20
0.0
 30
0.0
  0
INSERT
  5
425
330
1F
100
AcDbEntity
  8
49
100
AcDbBlockReference
  2
block 129
 10
0.0
 20
0.0
 30
0.0
  0
INSERT
  5
42D
330
1F
100
AcDbEntity
  8
49
100
AcDbBlockReference
  2
block 130
 10
0.0
 20
0.0
 30
0.0
  0
INSERT
  5
437
330
1F
100
AcDbEntity
  8
49
100
AcDbBlockReference
  2
block 131
 10
0.0
 20
0.0
 30
0.0
  0
INSERT
  5
43F
330
1F
100
AcDbEntity
  8
49
100
AcDbBlockReference
  2
block 132
 10
0.0
 20
0.0
 30
0.0
  0
INSERT
  5
447
330
1F
100
AcDbEntity
  8
49
100
AcDbBlockReference
  2
block 133
 10
0.0
 20
0.0
 30
0.0
  0
INSERT
  5
44F
330
1F
100
AcDbEntity
  8
49
100
AcDbBlockReference
  2
block 134
 10
0.0
 20
0.0
 30
0.0
  0
INSERT
  5
457
330
1F
100
AcDbEntity
  8
49
100
AcDbBlockReference
  2
block 135
 10
0.0
 20
0.0
 30
0.0
  0
INSERT
  5
45F
330
1F
100
AcDbEntity
  8
49
100
AcDbBlockReference
  2
block 136
 10
0.0
 20
0.0
 30
0.0
  0
INSERT
  5
467
330
1F
100
AcDbEntity
  8
49
100
AcDbBlockReference
  2
block 137
 10
0.0
 20
0.0
 30
0.0
  0
INSERT
  5
46F
330
1F
100
AcDbEntity
  8
49
100
AcDbBlockReference
  2
block 138
 10
0.0
 20
0.0
 30
0.0
  0
INSERT
  5
477
330
1F
100
AcDbEntity
  8
49
100
AcDbBlockReference
  2
block 139
 10
0.0
 20
0.0
 30
0.0
  0
INSERT
  5
481
330
1F
100
AcDbEntity
  8
49
100
AcDbBlockReference
  2
block 140
 10
0.0
 20
0.0
 30
0.0
  0
INSERT
  5
489
330
1F
100
AcDbEntity
  8
49
100
AcDbBlockReference
  2
block 141
 10
0.0
 20
0.0
 30
0.0
  0
INSERT
  5
491
330
1F
100
AcDbEntity
  8
49
100
AcDbBlockReference
  2
block 142
 10
0.0
 20
0.0
 30
0.0
  0
INSERT
  5
499
330
1F
100
AcDbEntity
  8
49
100
AcDbBlockReference
  2
block 143
 10
0.0
 20
0.0
 30
0.0
  0
INSERT
  5
4A1
330
1F
100
AcDbEntity
  8
49
100
AcDbBlockReference
  2
block 144
 10
0.0
 20
0.0
 30
0.0
  0
INSERT
  5
4A9
330
1F
100
AcDbEntity
  8
49
100
AcDbBlockReference
  2
block 145
 10
0.0
 20
0.0
 30
0.0
  0
INSERT
  5
4B1
330
1F
100
AcDbEntity
  8
49
100
AcDbBlockReference
  2
block 146
 10
0.0
 20
0.0
 30
0.0
  0
INSERT
  5
4B9
330
1F
100
AcDbEntity
  8
49
100
AcDbBlockReference
  2
block 147
 10
0.0
 20
0.0
 30
0.0
  0
INSERT
  5
4C1
330
1F
100
AcDbEntity
  8
49
100
AcDbBlockReference
  2
block 148
 10
0.0
 20
0.0
 30
0.0
  0
INSERT
  5
4C6
330
1F
100
AcDbEntity
  8
49
100
AcDbBlockReference
  2
block 149
 10
0.0
 20
0.0
 30
0.0
  0
INSERT
  5
4CE
330
1F
100
AcDbEntity
  8
49
100
AcDbBlockReference
  2
block 150
 10
0.0
 20
0.0
 30
0.0
  0
INSERT
  5
4D8
330
1F
100
AcDbEntity
  8
49
100
AcDbBlockReference
  2
block 151
 10
0.0
 20
0.0
 30
0.0
  0
INSERT
  5
4E0
330
1F
100
AcDbEntity
  8
49
100
AcDbBlockReference
  2
block 152
 10
0.0
 20
0.0
 30
0.0
  0
INSERT
  5
4E8
330
1F
100
AcDbEntity
  8
49
100
AcDbBlockReference
  2
block 153
 10
0.0
 20
0.0
 30
0.0
  0
INSERT
  5
4F0
330
1F
100
AcDbEntity
  8
49
100
AcDbBlockReference
  2
block 154
 10
0.0
 20
0.0
 30
0.0
  0
INSERT
  5
4F8
330
1F
100
AcDbEntity
  8
49
100
AcDbBlockReference
  2
block 155
 10
0.0
 20
0.0
 30
0.0
  0
INSERT
  5
500
330
1F
100
AcDbEntity
  8
49
100
AcDbBlockReference
  2
block 156
 10
0.0
 20
0.0
 30
0.0
  0
INSERT
  5
508
330
1F
100
AcDbEntity
  8
49
100
AcDbBlockReference
  2
block 157
 10
0.0
 20
0.0
 30
0.0
  0
INSERT
  5
510
330
1F
100
AcDbEntity
  8
49
100
AcDbBlockReference
  2
block 158
 10
0.0
 20
0.0
 30
0.0
  0
INSERT
  5
518
330
1F
100
AcDbEntity
  8
49
100
AcDbBlockReference
  2
block 159
 10
0.0
 20
0.0
 30
0.0
  0
INSERT
  5
522
330
1F
100
AcDbEntity
  8
49
100
AcDbBlockReference
  2
block 160
 10
0.0
 20
0.0
 30
0.0
  0
INSERT
  5
52A
330
1F
100
AcDbEntity
  8
49
100
AcDbBlockReference
  2
block 161
 10
0.0
 20
0.0
 30
0.0
  0
INSERT
  5
532
330
1F
100
AcDbEntity
  8
49
100
AcDbBlockReference
  2
block 162
 10
0.0
 20
0.0
 30
0.0
  0
INSERT
  5
53A
330
1F
100
AcDbEntity
  8
49
100
AcDbBlockReference
  2
block 163
 10
0.0
 20
0.0
 30
0.0
  0
INSERT
  5
542
330
1F
100
AcDbEntity
  8
49
100
AcDbBlockReference
  2
block 164
 10
0.0
 20
0.0
 30
0.0
  0
INSERT
  5
54A
330
1F
100
AcDbEntity
  8
49
100
AcDbBlockReference
  2
block 165
 10
0.0
 20
0.0
 30
0.0
  0
INSERT
  5
552
330
1F
100
AcDbEntity
  8
49
100
AcDbBlockReference
  2
block 166
 10
0.0
 20
0.0
 30
0.0
  0
INSERT
  5
55A
330
1F
100
AcDbEntity
  8
49
100
AcDbBlockReference
  2
block 167
 10
0.0
 20
0.0
 30
0.0
  0
INSERT
  5
562
330
1F
100
AcDbEntity
  8
49
100
AcDbBlockReference
  2
block 168
 10
0.0
 20
0.0
 30
0.0
  0
INSERT
  5
567
330
1F
100
AcDbEntity
  8
49
100
AcDbBlockReference
  2
block 169
 10
0.0
 20
0.0
 30
0.0
  0
INSERT
  5
56F
330
1F
100
AcDbEntity
  8
49
100
AcDbBlockReference
  2
block 170
 10
0.0
 20
0.0
 30
0.0
  0
INSERT
  5
579
330
1F
100
AcDbEntity
  8
49
100
AcDbBlockReference
  2
block 171
 10
0.0
 20
0.0
 30
0.0
  0
INSERT
  5
581
330
1F
100
AcDbEntity
  8
49
100
AcDbBlockReference
  2
block 172
 10
0.0
 20
0.0
 30
0.0
  0
INSERT
  5
589
330
1F
100
AcDbEntity
  8
49
100
AcDbBlockReference
  2
block 173
 10
0.0
 20
0.0
 30
0.0
  0
INSERT
  5
591
330
1F
100
AcDbEntity
  8
49
100
AcDbBlockReference
  2
block 174
 10
0.0
 20
0.0
 30
0.0
  0
INSERT
  5
599
330
1F
100
AcDbEntity
  8
49
100
AcDbBlockReference
  2
block 175
 10
0.0
 20
0.0
 30
0.0
  0
INSERT
  5
5A1
330
1F
100
AcDbEntity
  8
49
100
AcDbBlockReference
  2
block 176
 10
0.0
 20
0.0
 30
0.0
  0
INSERT
  5
5A9
330
1F
100
AcDbEntity
  8
49
100
AcDbBlockReference
  2
block 177
 10
0.0
 20
0.0
 30
0.0
  0
INSERT
  5
5B1
330
1F
100
AcDbEntity
  8
49
100
AcDbBlockReference
  2
block 178
 10
0.0
 20
0.0
 30
0.0
  0
INSERT
  5
5B9
330
1F
100
AcDbEntity
  8
49
100
AcDbBlockReference
  2
block 179
 10
0.0
 20
0.0
 30
0.0
  0
INSERT
  5
5C3
330
1F
100
AcDbEntity
  8
49
100
AcDbBlockReference
  2
block 180
 10
0.0
 20
0.0
 30
0.0
  0
INSERT
  5
5CB
330
1F
100
AcDbEntity
  8
49
100
AcDbBlockReference
  2
block 181
 10
0.0
 20
0.0
 30
0.0
  0
INSERT
  5
5D3
330
1F
100
AcDbEntity
  8
49
100
AcDbBlockReference
  2
block 182
 10
0.0
 20
0.0
 30
0.0
  0
INSERT
  5
5DB
330
1F
100
AcDbEntity
  8
49
100
AcDbBlockReference
  2
block 183
 10
0.0
 20
0.0
 30
0.0
  0
INSERT
  5
5E3
330
1F
100
AcDbEntity
  8
49
100
AcDbBlockReference
  2
block 184
 10
0.0
 20
0.0
 30
0.0
  0
INSERT
  5
5EB
330
1F
100
AcDbEntity
  8
49
100
AcDbBlockReference
  2
block 185
 10
0.0
 20
0.0
 30
0.0
  0
INSERT
  5
5F3
330
1F
100
AcDbEntity
  8
49
100
AcDbBlockReference
  2
block 186
 10
0.0
 20
0.0
 30
0.0
  0
INSERT
  5
5FB
330
1F
100
AcDbEntity
  8
49
100
AcDbBlockReference
  2
block 187
 10
0.0
 20
0.0
 30
0.0
  0
INSERT
  5
603
330
1F
100
AcDbEntity
  8
49
100
AcDbBlockReference
  2
block 188
 10
0.0
 20
0.0
 30
0.0
  0
INSERT
  5
608
330
1F
100
AcDbEntity
  8
49
100
AcDbBlockReference
  2
block 189
 10
0.0
 20
0.0
 30
0.0
  0
INSERT
  5
610
330
1F
100
AcDbEntity
  8
49
100
AcDbBlockReference
  2
block 190
 10
0.0
 20
0.0
 30
0.0
  0
INSERT
  5
61A
330
1F
100
AcDbEntity
  8
49
100
AcDbBlockReference
  2
block 191
 10
0.0
 20
0.0
 30
0.0
  0
INSERT
  5
622
330
1F
100
AcDbEntity
  8
49
100
AcDbBlockReference
  2
block 192
 10
0.0
 20
0.0
 30
0.0
  0
INSERT
  5
62A
330
1F
100
AcDbEntity
  8
49
100
AcDbBlockReference
  2
block 193
 10
0.0
 20
0.0
 30
0.0
  0
INSERT
  5
632
330
1F
100
AcDbEntity
  8
49
100
AcDbBlockReference
  2
block 194
 10
0.0
 20
0.0
 30
0.0
  0
INSERT
  5
63A
330
1F
100
AcDbEntity
  8
49
100
AcDbBlockReference
  2
block 195
 10
0.0
 20
0.0
 30
0.0
  0
INSERT
  5
642
330
1F
100
AcDbEntity
  8
49
100
AcDbBlockReference
  2
block 196
 10
0.0
 20
0.0
 30
0.0
  0
INSERT
  5
64A
330
1F
100
AcDbEntity
  8
49
100
AcDbBlockReference
  2
block 197
 10
0.0
 20
0.0
 30
0.0
  0
INSERT
  5
652
330
1F
100
AcDbEntity
  8
49
100
AcDbBlockReference
  2
block 198
 10
0.0
 20
0.0
 30
0.0
  0
INSERT
  5
65A
330
1F
100
AcDbEntity
  8
49
100
AcDbBlockReference
  2
block 199
 10
0.0
 20
0.0
 30
0.0
  0
INSERT
  5
664
330
1F
100
AcDbEntity
  8
49
100
AcDbBlockReference
  2
block 200
 10
0.0
 20
0.0
 30
0.0
  0
INSERT
  5
66C
330
1F
100
AcDbEntity
  8
49
100
AcDbBlockReference
  2
block 201
 10
0.0
 20
0.0
 30
0.0
  0
INSERT
  5
674
330
1F
100
AcDbEntity
  8
49
100
AcDbBlockReference
  2
block 202
 10
0.0
 20
0.0
 30
0.0
  0
INSERT
  5
67C
330
1F
100
AcDbEntity
  8
49
100
AcDbBlockReference
  2
block 203
 10
0.0
 20
0.0
 30
0.0
  0
INSERT
  5
684
330
1F
100
AcDbEntity
  8
49
100
AcDbBlockReference
  2
block 204
 10
0.0
 20
0.0
 30
0.0
  0
INSERT
  5
68C
330
1F
100
AcDbEntity
  8
49
100
AcDbBlockReference
  2
block 205
 10
0.0
 20
0.0
 30
0.0
  0
INSERT
  5
694
330
1F
100
AcDbEntity
  8
49
100
AcDbBlockReference
  2
block 206
 10
0.0
 20
0.0
 30
0.0
  0
INSERT
  5
69C
330
1F
100
AcDbEntity
  8
49
100
AcDbBlockReference
  2
block 207
 10
0.0
 20
0.0
 30
0.0
  0
INSERT
  5
6A4
330
1F
100
AcDbEntity
  8
49
100
AcDbBlockReference
  2
block 208
 10
0.0
 20
0.0
 30
0.0
  0
INSERT
  5
6A9
330
1F
100
AcDbEntity
  8
49
100
AcDbBlockReference
  2
block 209
 10
0.0
 20
0.0
 30
0.0
  0
INSERT
  5
6B1
330
1F
100
AcDbEntity
  8
49
100
AcDbBlockReference
  2
block 210
 10
0.0
 20
0.0
 30
0.0
  0
INSERT
  5
6BB
330
1F
100
AcDbEntity
  8
49
100
AcDbBlockReference
  2
block 211
 10
0.0
 20
0.0
 30
0.0
  0
INSERT
  5
6C3
330
1F
100
AcDbEntity
  8
49
100
AcDbBlockReference
  2
block 212
 10
0.0
 20
0.0
 30
0.0
  0
INSERT
  5
6CB
330
1F
100
AcDbEntity
  8
49
100
AcDbBlockReference
  2
block 213
 10
0.0
 20
0.0
 30
0.0
  0
INSERT
  5
6D3
330
1F
100
AcDbEntity
  8
49
100
AcDbBlockReference
  2
block 214
 10
0.0
 20
0.0
 30
0.0
  0
INSERT
  5
6DB
330
1F
100
AcDbEntity
  8
49
100
AcDbBlockReference
  2
block 215
 10
0.0
 20
0.0
 30
0.0
  0
INSERT
  5
6E3
330
1F
100
AcDbEntity
  8
49
100
AcDbBlockReference
  2
block 216
 10
0.0
 20
0.0
 30
0.0
  0
INSERT
  5
6EB
330
1F
100
AcDbEntity
  8
49
100
AcDbBlockReference
  2
block 217
 10
0.0
 20
0.0
 30
0.0
  0
INSERT
  5
6F3
330
1F
100
AcDbEntity
  8
49
100
AcDbBlockReference
  2
block 218
 10
0.0
 20
0.0
 30
0.0
  0
INSERT
  5
6FB
330
1F
100
AcDbEntity
  8
49
100
AcDbBlockReference
  2
block 219
 10
0.0
 20
0.0
 30
0.0
  0
INSERT
  5
703
330
1F
100
AcDbEntity
  8
49
100
AcDbBlockReference
  2
block 220
 10
0.0
 20
0.0
 30
0.0
  0
INSERT
  5
70D
330
1F
100
AcDbEntity
  8
49
100
AcDbBlockReference
  2
block 221
 10
0.0
 20
0.0
 30
0.0
  0
INSERT
  5
715
330
1F
100
AcDbEntity
  8
49
100
AcDbBlockReference
  2
block 222
 10
0.0
 20
0.0
 30
0.0
  0
INSERT
  5
71D
330
1F
100
AcDbEntity
  8
49
100
AcDbBlockReference
  2
block 223
 10
0.0
 20
0.0
 30
0.0
  0
INSERT
  5
725
330
1F
100
AcDbEntity
  8
49
100
AcDbBlockReference
  2
block 224
 10
0.0
 20
0.0
 30
0.0
  0
INSERT
  5
72D
330
1F
100
AcDbEntity
  8
49
100
AcDbBlockReference
  2
block 225
 10
0.0
 20
0.0
 30
0.0
  0
INSERT
  5
735
330
1F
100
AcDbEntity
  8
49
100
AcDbBlockReference
  2
block 226
 10
0.0
 20
0.0
 30
0.0
  0
INSERT
  5
73D
330
1F
100
AcDbEntity
  8
49
100
AcDbBlockReference
  2
block 227
 10
0.0
 20
0.0
 30
0.0
  0
INSERT
  5
745
330
1F
100
AcDbEntity
  8
49
100
AcDbBlockReference
  2
block 228
 10
0.0
 20
0.0
 30
0.0
  0
INSERT
  5
74D
330
1F
100
AcDbEntity
  8
49
100
AcDbBlockReference
  2
block 229
 10
0.0
 20
0.0
 30
0.0
  0
INSERT
  5
755
330
1F
100
AcDbEntity
  8
49
100
AcDbBlockReference
  2
block 230
 10
0.0
 20
0.0
 30
0.0
  0
INSERT
  5
75E
330
1F
100
AcDbEntity
  8
3
100
AcDbBlockReference
  2
block 231
 10
0.0
 20
0.0
 30
0.0
  0
INSERT
  5
766
330
1F
100
AcDbEntity
  8
3
100
AcDbBlockReference
  2
block 232
 10
0.0
 20
0.0
 30
0.0
  0
INSERT
  5
76B
330
1F
100
AcDbEntity
  8
3
100
AcDbBlockReference
  2
block 233
 10
0.0
 20
0.0
 30
0.0
  0
INSERT
  5
773
330
1F
100
AcDbEntity
  8
3
100
AcDbBlockReference
  2
block 234
 10
0.0
 20
0.0
 30
0.0
  0
INSERT
  5
778
330
1F
100
AcDbEntity
  8
3
100
AcDbBlockReference
  2
block 235
 10
0.0
 20
0.0
 30
0.0
  0
INSERT
  5
77D
330
1F
100
AcDbEntity
  8
3
100
AcDbBlockReference
  2
block 236
 10
0.0
 20
0.0
 30
0.0
  0
INSERT
  5
782
330
1F
100
AcDbEntity
  8
3
100
AcDbBlockReference
  2
block 237
 10
0.0
 20
0.0
 30
0.0
  0
INSERT
  5
78B
330
1F
100
AcDbEntity
  8
3
100
AcDbBlockReference
  2
block 238
 10
0.0
 20
0.0
 30
0.0
  0
INSERT
  5
794
330
1F
100
AcDbEntity
  8
3
100
AcDbBlockReference
  2
block 239
 10
0.0
 20
0.0
 30
0.0
  0
INSERT
  5
79D
330
1F
100
AcDbEntity
  8
3
100
AcDbBlockReference
  2
block 240
 10
0.0
 20
0.0
 30
0.0
  0
INSERT
  5
7A2
330
1F
100
AcDbEntity
  8
3
100
AcDbBlockReference
  2
block 241
 10
0.0
 20
0.0
 30
0.0
  0
INSERT
  5
7AA
330
1F
100
AcDbEntity
  8
3
100
AcDbBlockReference
  2
block 242
 10
0.0
 20
0.0
 30
0.0
  0
INSERT
  5
7AF
330
1F
100
AcDbEntity
  8
3
100
AcDbBlockReference
  2
block 243
 10
0.0
 20
0.0
 30
0.0
  0
INSERT
  5
7B7
330
1F
100
AcDbEntity
  8
3
100
AcDbBlockReference
  2
block 244
 10
0.0
 20
0.0
 30
0.0
  0
INSERT
  5
7BC
330
1F
100
AcDbEntity
  8
3
100
AcDbBlockReference
  2
block 245
 10
0.0
 20
0.0
 30
0.0
  0
INSERT
  5
7C5
330
1F
100
AcDbEntity
  8
3
100
AcDbBlockReference
  2
block 246
 10
0.0
 20
0.0
 30
0.0
  0
INSERT
  5
7CA
330
1F
100
AcDbEntity
  8
3
100
AcDbBlockReference
  2
block 247
 10
0.0
 20
0.0
 30
0.0
  0
INSERT
  5
7D7
330
1F
100
AcDbEntity
  8
3
100
AcDbBlockReference
  2
block 248
 10
0.0
 20
0.0
 30
0.0
  0
INSERT
  5
7DF
330
1F
100
AcDbEntity
  8
3
100
AcDbBlockReference
  2
block 249
 10
0.0
 20
0.0
 30
0.0
  0
INSERT
  5
7E7
330
1F
100
AcDbEntity
  8
3
100
AcDbBlockReference
  2
block 250
 10
0.0
 20
0.0
 30
0.0
  0
INSERT
  5
7EF
330
1F
100
AcDbEntity
  8
3
100
AcDbBlockReference
  2
block 251
 10
0.0
 20
0.0
 30
0.0
  0
INSERT
  5
7FC
330
1F
100
AcDbEntity
  8
3
100
AcDbBlockReference
  2
block 252
 10
0.0
 20
0.0
 30
0.0
  0
INSERT
  5
804
330
1F
100
AcDbEntity
  8
3
100
AcDbBlockReference
  2
block 253
 10
0.0
 20
0.0
 30
0.0
  0
INSERT
  5
80C
330
1F
100
AcDbEntity
  8
3
100
AcDbBlockReference
  2
block 254
 10
0.0
 20
0.0
 30
0.0
  0
INSERT
  5
814
330
1F
100
AcDbEntity
  8
3
100
AcDbBlockReference
  2
block 255
 10
0.0
 20
0.0
 30
0.0
  0
INSERT
  5
81C
330
1F
100
AcDbEntity
  8
3
100
AcDbBlockReference
  2
block 256
 10
0.0
 20
0.0
 30
0.0
  0
INSERT
  5
824
330
1F
100
AcDbEntity
  8
3
100
AcDbBlockReference
  2
block 257
 10
0.0
 20
0.0
 30
0.0
  0
INSERT
  5
82C
330
1F
100
AcDbEntity
  8
3
100
AcDbBlockReference
  2
block 258
 10
0.0
 20
0.0
 30
0.0
  0
INSERT
  5
834
330
1F
100
AcDbEntity
  8
3
100
AcDbBlockReference
  2
block 259
 10
0.0
 20
0.0
 30
0.0
  0
INSERT
  5
83D
330
1F
100
AcDbEntity
  8
3
100
AcDbBlockReference
  2
block 260
 10
0.0
 20
0.0
 30
0.0
  0
INSERT
  5
845
330
1F
100
AcDbEntity
  8
3
100
AcDbBlockReference
  2
block 261
 10
0.0
 20
0.0
 30
0.0
  0
INSERT
  5
84D
330
1F
100
AcDbEntity
  8
3
100
AcDbBlockReference
  2
block 262
 10
0.0
 20
0.0
 30
0.0
  0
INSERT
  5
855
330
1F
100
AcDbEntity
  8
3
100
AcDbBlockReference
  2
block 263
 10
0.0
 20
0.0
 30
0.0
  0
INSERT
  5
85D
330
1F
100
AcDbEntity
  8
3
100
AcDbBlockReference
  2
block 264
 10
0.0
 20
0.0
 30
0.0
  0
ENDSEC
  0
SECTION
  2
OBJECTS
  0
DICTIONARY
  5
C
330
0
100
AcDbDictionary
281
     1
  3
ACAD_GROUP
350
D
  3
ACAD_LAYOUT
350
1A
  3
ACAD_MATERIAL
350
3B
  3
ACAD_MLEADERSTYLE
350
866
  3
ACAD_MLINESTYLE
350
17
  3
ACAD_PLOTSETTINGS
350
19
  3
ACAD_PLOTSTYLENAME
350
E
  3
ACAD_TABLESTYLE
350
865
  3
ACAD_VISUALSTYLE
350
2A
  0
SUN
  5
3F
330
29
100
AcDbSun
 90
        1
290
     0
 63
     7
421
 16777215
 40
1.0
291
     1
 91
  2455826
 92
 54000000
292
     0
 70
     2
 71
   256
280
     1
  0
DICTIONARY
  5
D
102
{ACAD_REACTORS
330
C
102
}
330
C
100
AcDbDictionary
281
     1
  0
DICTIONARY
  5
1A
102
{ACAD_REACTORS
330
C
102
}
330
C
100
AcDbDictionary
281
     1
  3
Layout1
350
1E
  3
Layout2
350
26
  3
Model
350
22
  0
DICTIONARY
  5
3B
102
{ACAD_REACTORS
330
C
102
}
330
C
100
AcDbDictionary
281
     1
  3
ByBlock
350
3D
  3
ByLayer
350
3C
  3
Global
350
3E
  0
DICTIONARY
  5
866
102
{ACAD_REACTORS
330
C
102
}
330
C
100
AcDbDictionary
281
     1
  0
DICTIONARY
  5
17
102
{ACAD_REACTORS
330
C
102
}
330
C
100
AcDbDictionary
281
     1
  3
Standard
350
18
  0
DICTIONARY
  5
19
102
{ACAD_REACTORS
330
C
102
}
330
C
100
AcDbDictionary
281
     1
  0
ACDBDICTIONARYWDFLT
  5
E
102
{ACAD_REACTORS
330
C
102
}
330
C
100
AcDbDictionary
281
     1
  3
Normal
350
F
100
AcDbDictionaryWithDefault
340
F
  0
DICTIONARY
  5
865
102
{ACAD_REACTORS
330
C
102
}
330
C
100
AcDbDictionary
281
     1
  0
DICTIONARY
  5
2A
102
{ACAD_REACTORS
330
C
102
}
330
C
100
AcDbDictionary
281
     1
  3
2dWireframe
350
2F
  3
3D Hidden
350
31
  3
3dWireframe
350
30
  3
Basic
350
32
  3
Brighten
350
36
  3
ColorChange
350
3A
  3
Conceptual
350
34
  3
Dim
350
35
  3
Facepattern
350
39
  3
Flat
350
2B
  3
FlatWithEdges
350
2C
  3
Gouraud
350
2D
  3
GouraudWithEdges
350
2E
  3
Linepattern
350
38
  3
Realistic
350
33
  3
Thicken
350
37
  0
LAYOUT
  5
1E
102
{ACAD_REACTORS
330
1A
102
}
330
1A
100
AcDbPlotSettings
  1

  2
none_device
  4

  6

 40
0.0
 41
0.0
 42
0.0
 43
0.0
 44
0.0
 45
0.0
 46
0.0
 47
0.0
 48
0.0
 49
0.0
140
0.0
141
0.0
142
1.0
143
1.0
 70
   688
 72
     0
 73
     0
 74
     5
  7

 75
    16
 76
     0
 77
     2
 78
   300
147
1.0
148
0.0
149
0.0
100
AcDbLayout
  1
Layout1
 70
     1
 71
     1
 10
0.0
 20
0.0
 11
12.0
 21
9.0
 12
0.0
 22
0.0
 32
0.0
 14
1.000000000000000E+20
 24
1.000000000000000E+20
 34
1.000000000000000E+20
 15
-1.000000000000000E+20
 25
-1.000000000000000E+20
 35
-1.000000000000000E+20
146
0.0
 13
0.0
 23
0.0
 33
0.0
 16
1.0
 26
0.0
 36
0.0
 17
0.0
 27
1.0
 37
0.0
 76
     0
330
1B
  0
LAYOUT
  5
26
102
{ACAD_REACTORS
330
1A
102
}
330
1A
100
AcDbPlotSettings
  1

  2
none_device
  4

  6

 40
0.0
 41
0.0
 42
0.0
 43
0.0
 44
0.0
 45
0.0
 46
0.0
 47
0.0
 48
0.0
 49
0.0
140
0.0
141
0.0
142
1.0
143
1.0
 70
   688
 72
     0
 73
     0
 74
     5
  7

 75
    16
 76
     0
 77
     2
 78
   300
147
1.0
148
0.0
149
0.0
100
AcDbLayout
  1
Layout2
 70
     1
 71
     2
 10
0.0
 20
0.0
 11
0.0
 21
0.0
 12
0.0
 22
0.0
 32
0.0
 14
0.0
 24
0.0
 34
0.0
 15
0.0
 25
0.0
 35
0.0
146
0.0
 13
0.0
 23
0.0
 33
0.0
 16
1.0
 26
0.0
 36
0.0
 17
0.0
 27
1.0
 37
0.0
 76
     0
330
23
  0
LAYOUT
  5
22
102
{ACAD_REACTORS
330
1A
102
}
330
1A
100
AcDbPlotSettings
  1

  2
none_device
  4

  6

 40
0.0
 41
0.0
 42
0.0
 43
0.0
 44
0.0
 45
0.0
 46
0.0
 47
0.0
 48
0.0
 49
0.0
140
0.0
141
0.0
142
1.0
143
1.0
 70
  1712
 72
     0
 73
     0
 74
     0
  7

 75
     0
 76
     0
 77
     2
 78
   300
147
1.0
148
0.0
149
0.0
100
AcDbLayout
  1
Model
 70
     1
 71
     0
 10
0.0
 20
0.0
 11
12.0
 21
9.0
 12
0.0
 22
0.0
 32
0.0
 14
1.000000000000000E+20
 24
1.000000000000000E+20
 34
1.000000000000000E+20
 15
-1.000000000000000E+20
 25
-1.000000000000000E+20
 35
-1.000000000000000E+20
146
0.0
 13
0.0
 23
0.0
 33
0.0
 16
1.0
 26
0.0
 36
0.0
 17
0.0
 27
1.0
 37
0.0
 76
     0
330
1F
331
29
  0
MATERIAL
  5
3D
102
{ACAD_REACTORS
330
3B
102
}
330
3B
100
AcDbMaterial
  1
ByBlock
 72
     1
 94
      127
  0
MATERIAL
  5
3C
102
{ACAD_REACTORS
330
3B
102
}
330
3B
100
AcDbMaterial
  1
ByLayer
 72
     1
 94
      127
  0
MATERIAL
  5
3E
102
{ACAD_REACTORS
330
3B
102
}
330
3B
100
AcDbMaterial
  1
Global
 72
     1
 94
      127
  0
MLINESTYLE
  5
18
102
{ACAD_REACTORS
330
17
102
}
330
17
100
AcDbMlineStyle
  2
Standard
 70
     0
  3

 62
   256
 51
90.0
 52
90.0
 71
     2
 49
0.5
 62
   256
  6
BYLAYER
 49
-0.5
 62
   256
  6
BYLAYER
  0
ACDBPLACEHOLDER
  5
F
102
{ACAD_REACTORS
330
E
102
}
330
E
  0
VISUALSTYLE
  5
2F
102
{ACAD_REACTORS
330
2A
102
}
330
2A
100
AcDbVisualStyle
  2
2dWireframe
 70
     4
177
     2
291
     0
 71
     0
176
     1
 72
     2
176
     1
 73
     0
176
     1
 90
        0
176
     1
 40
-0.6
176
     1
 41
-30.0
176
     1
 62
     5
 63
     7
421
 16777215
176
     1
 74
     1
176
     1
 91
        4
176
     1
 64
     7
176
     1
 65
   257
176
     1
 75
     1
176
     1
175
     1
176
     1
 42
1.0
176
     1
 92
        0
176
     1
 66
   257
176
     1
 43
1.0
176
     1
 76
     1
176
     1
 77
     6
176
     1
 78
     2
176
     1
 67
     7
176
     1
 79
     5
176
     1
170
     0
176
     1
171
     0
176
     1
290
     0
176
     1
 93
        1
176
     1
 44
0.0
176
     1
173
     0
176
     1
  0
VISUALSTYLE
  5
31
102
{ACAD_REACTORS
330
2A
102
}
330
2A
100
AcDbVisualStyle
  2
3D Hidden
 70
     6
177
     2
291
     0
 71
     1
176
     1
 72
     2
176
     1
 73
     2
176
     1
 90
        0
176
     1
 40
-0.6
176
     1
 41
-30.0
176
     1
 62
     5
 63
     7
421
 16777215
176
     1
 74
     2
176
     1
 91
        2
176
     1
 64
     7
176
     1
 65
   257
176
     1
 75
     2
176
     1
175
     1
176
     1
 42
40.0
176
     1
 92
        0
176
     1
 66
   257
176
     1
 43
1.0
176
     1
 76
     1
176
     1
 77
     6
176
     1
 78
     2
176
     1
 67
     7
176
     1
 79
     3
176
     1
170
     0
176
     1
171
     0
176
     1
290
     0
176
     1
 93
        1
176
     1
 44
0.0
176
     1
173
     0
176
     1
  0
VISUALSTYLE
  5
30
102
{ACAD_REACTORS
330
2A
102
}
330
2A
100
AcDbVisualStyle
  2
3dWireframe
 70
     5
177
     2
291
     0
 71
     0
176
     1
 72
     2
176
     1
 73
     0
176
     1
 90
        0
176
     1
 40
-0.6
176
     1
 41
-30.0
176
     1
 62
     5
 63
     7
421
 16777215
176
     1
 74
     1
176
     1
 91
        4
176
     1
 64
     7
176
     1
 65
   257
176
     1
 75
     1
176
     1
175
     1
176
     1
 42
1.0
176
     1
 92
        0
176
     1
 66
   257
176
     1
 43
1.0
176
     1
 76
     1
176
     1
 77
     6
176
     1
 78
     2
176
     1
 67
     7
176
     1
 79
     5
176
     1
170
     0
176
     1
171
     0
176
     1
290
     0
176
     1
 93
        1
176
     1
 44
0.0
176
     1
173
     0
176
     1
  0
VISUALSTYLE
  5
32
102
{ACAD_REACTORS
330
2A
102
}
330
2A
100
AcDbVisualStyle
  2
Basic
 70
     7
177
     2
291
     1
 71
     1
176
     1
 72
     0
176
     1
 73
     1
176
     1
 90
        0
176
     1
 40
-0.6
176
     1
 41
-30.0
176
     1
 62
     5
 63
     7
421
 16777215
176
     1
 74
     0
176
     1
 91
        4
176
     1
 64
     7
176
     1
 65
   257
176
     1
 75
     1
176
     1
175
     1
176
     1
 42
1.0
176
     1
 92
        8
176
     1
 66
     7
176
     1
 43
1.0
176
     1
 76
     1
176
     1
 77
     6
176
     1
 78
     2
176
     1
 67
     7
176
     1
 79
     5
176
     1
170
     0
176
     1
171
     0
176
     1
290
     0
176
     1
 93
        1
176
     1
 44
0.0
176
     1
173
     0
176
     1
  0
VISUALSTYLE
  5
36
102
{ACAD_REACTORS
330
2A
102
}
330
2A
100
AcDbVisualStyle
  2
Brighten
 70
    12
177
     2
291
     1
 71
     2
176
     1
 72
     2
176
     1
 73
     0
176
     1
 90
        0
176
     1
 40
-0.6
176
     1
 41
-30.0
176
     1
 62
     5
 63
     7
421
 16777215
176
     1
 74
     1
176
     1
 91
        4
176
     1
 64
     7
176
     1
 65
   257
176
     1
 75
     1
176
     1
175
     1
176
     1
 42
1.0
176
     1
 92
        8
176
     1
 66
     7
176
     1
 43
1.0
176
     1
 76
     1
176
     1
 77
     6
176
     1
 78
     2
176
     1
 67
     7
176
     1
 79
     5
176
     1
170
     0
176
     1
171
     0
176
     1
290
     0
176
     1
 93
        1
176
     1
 44
50.0
176
     1
173
     0
176
     1
  0
VISUALSTYLE
  5
3A
102
{ACAD_REACTORS
330
2A
102
}
330
2A
100
AcDbVisualStyle
  2
ColorChange
 70
    16
177
     2
291
     1
 71
     2
176
     1
 72
     2
176
     1
 73
     3
176
     1
 90
        0
176
     1
 40
-0.6
176
     1
 41
-30.0
176
     1
 62
     5
 63
     8
421
  8421504
176
     1
 74
     1
176
     1
 91
        4
176
     1
 64
     7
176
     1
 65
   257
176
     1
 75
     1
176
     1
175
     1
176
     1
 42
1.0
176
     1
 92
        8
176
     1
 66
     8
424
  8421504
176
     1
 43
1.0
176
     1
 76
     1
176
     1
 77
     6
176
     1
 78
     2
176
     1
 67
     7
176
     1
 79
     5
176
     1
170
     0
176
     1
171
     0
176
     1
290
     0
176
     1
 93
        1
176
     1
 44
0.0
176
     1
173
     0
176
     1
  0
VISUALSTYLE
  5
34
102
{ACAD_REACTORS
330
2A
102
}
330
2A
100
AcDbVisualStyle
  2
Conceptual
 70
     9
177
     2
291
     0
 71
     3
176
     1
 72
     2
176
     1
 73
     0
176
     1
 90
        0
176
     1
 40
-0.6
176
     1
 41
-30.0
176
     1
 62
     5
 63
     7
421
 16777215
176
     1
 74
     2
176
     1
 91
        2
176
     1
 64
     7
176
     1
 65
   257
176
     1
 75
     1
176
     1
175
     1
176
     1
 42
40.0
176
     1
 92
        8
176
     1
 66
     7
176
     1
 43
1.0
176
     1
 76
     1
176
     1
 77
     6
176
     1
 78
     2
176
     1
 67
     7
176
     1
 79
     3
176
     1
170
     0
176
     1
171
     0
176
     1
290
     0
176
     1
 93
        1
176
     1
 44
0.0
176
     1
173
     0
176
     1
  0
VISUALSTYLE
  5
35
102
{ACAD_REACTORS
330
2A
102
}
330
2A
100
AcDbVisualStyle
  2
Dim
 70
    11
177
     2
291
     1
 71
     2
176
     1
 72
     2
176
     1
 73
     0
176
     1
 90
        0
176
     1
 40
-0.6
176
     1
 41
-30.0
176
     1
 62
     5
 63
     7
421
 16777215
176
     1
 74
     1
176
     1
 91
        4
176
     1
 64
     7
176
     1
 65
   257
176
     1
 75
     1
176
     1
175
     1
176
     1
 42
1.0
176
     1
 92
        8
176
     1
 66
     7
176
     1
 43
1.0
176
     1
 76
     1
176
     1
 77
     6
176
     1
 78
     2
176
     1
 67
     7
176
     1
 79
     5
176
     1
170
     0
176
     1
171
     0
176
     1
290
     0
176
     1
 93
        1
176
     1
 44
-50.0
176
     1
173
     0
176
     1
  0
VISUALSTYLE
  5
39
102
{ACAD_REACTORS
330
2A
102
}
330
2A
100
AcDbVisualStyle
  2
Facepattern
 70
    15
177
     2
291
     1
 71
     2
176
     1
 72
     2
176
     1
 73
     0
176
     1
 90
        0
176
     1
 40
-0.6
176
     1
 41
-30.0
176
     1
 62
     5
 63
     7
421
 16777215
176
     1
 74
     1
176
     1
 91
        4
176
     1
 64
     7
176
     1
 65
   257
176
     1
 75
     1
176
     1
175
     1
176
     1
 42
1.0
176
     1
 92
        8
176
     1
 66
     7
176
     1
 43
1.0
176
     1
 76
     1
176
     1
 77
     6
176
     1
 78
     2
176
     1
 67
     7
176
     1
 79
     5
176
     1
170
     0
176
     1
171
     0
176
     1
290
     0
176
     1
 93
        1
176
     1
 44
0.0
176
     1
173
     0
176
     1
  0
VISUALSTYLE
  5
2B
102
{ACAD_REACTORS
330
2A
102
}
330
2A
100
AcDbVisualStyle
  2
Flat
 70
     0
177
     2
291
     1
 71
     2
176
     1
 72
     1
176
     1
 73
     1
176
     1
 90
        2
176
     1
 40
-0.6
176
     1
 41
30.0
176
     1
 62
     5
 63
     7
421
 16777215
176
     1
 74
     0
176
     1
 91
        4
176
     1
 64
     7
176
     1
 65
   257
176
     1
 75
     1
176
     1
175
     1
176
     1
 42
1.0
176
     1
 92
        8
176
     1
 66
     7
176
     1
 43
1.0
176
     1
 76
     1
176
     1
 77
     6
176
     1
 78
     2
176
     1
 67
     7
176
     1
 79
     5
176
     1
170
     0
176
     1
171
     0
176
     1
290
     0
176
     1
 93
       13
176
     1
 44
0.0
176
     1
173
     0
176
     1
  0
VISUALSTYLE
  5
2C
102
{ACAD_REACTORS
330
2A
102
}
330
2A
100
AcDbVisualStyle
  2
FlatWithEdges
 70
     1
177
     2
291
     1
 71
     2
176
     1
 72
     1
176
     1
 73
     1
176
     1
 90
        2
176
     1
 40
-0.6
176
     1
 41
30.0
176
     1
 62
     5
 63
     7
421
 16777215
176
     1
 74
     1
176
     1
 91
        4
176
     1
 64
     7
176
     1
 65
   257
176
     1
 75
     1
176
     1
175
     1
176
     1
 42
1.0
176
     1
 92
        0
176
     1
 66
   257
176
     1
 43
1.0
176
     1
 76
     1
176
     1
 77
     6
176
     1
 78
     2
176
     1
 67
     7
176
     1
 79
     5
176
     1
170
     0
176
     1
171
     0
176
     1
290
     0
176
     1
 93
       13
176
     1
 44
0.0
176
     1
173
     0
176
     1
  0
VISUALSTYLE
  5
2D
102
{ACAD_REACTORS
330
2A
102
}
330
2A
100
AcDbVisualStyle
  2
Gouraud
 70
     2
177
     2
291
     1
 71
     2
176
     1
 72
     2
176
     1
 73
     1
176
     1
 90
        2
176
     1
 40
-0.6
176
     1
 41
30.0
176
     1
 62
     5
 63
     7
421
 16777215
176
     1
 74
     0
176
     1
 91
        4
176
     1
 64
     7
176
     1
 65
   257
176
     1
 75
     1
176
     1
175
     1
176
     1
 42
1.0
176
     1
 92
        0
176
     1
 66
     7
176
     1
 43
1.0
176
     1
 76
     1
176
     1
 77
     6
176
     1
 78
     2
176
     1
 67
     7
176
     1
 79
     5
176
     1
170
     0
176
     1
171
     0
176
     1
290
     0
176
     1
 93
       13
176
     1
 44
0.0
176
     1
173
     0
176
     1
  0
VISUALSTYLE
  5
2E
102
{ACAD_REACTORS
330
2A
102
}
330
2A
100
AcDbVisualStyle
  2
GouraudWithEdges
 70
     3
177
     2
291
     1
 71
     2
176
     1
 72
     2
176
     1
 73
     1
176
     1
 90
        2
176
     1
 40
-0.6
176
     1
 41
30.0
176
     1
 62
     5
 63
     7
421
 16777215
176
     1
 74
     1
176
     1
 91
        4
176
     1
 64
     7
176
     1
 65
   257
176
     1
 75
     1
176
     1
175
     1
176
     1
 42
1.0
176
     1
 92
        0
176
     1
 66
   257
176
     1
 43
1.0
176
     1
 76
     1
176
     1
 77
     6
176
     1
 78
     2
176
     1
 67
     7
176
     1
 79
     5
176
     1
170
     0
176
     1
171
     0
176
     1
290
     0
176
     1
 93
       13
176
     1
 44
0.0
176
     1
173
     0
176
     1
  0
VISUALSTYLE
  5
38
102
{ACAD_REACTORS
330
2A
102
}
330
2A
100
AcDbVisualStyle
  2
Linepattern
 70
    14
177
     2
291
     1
 71
     2
176
     1
 72
     2
176
     1
 73
     0
176
     1
 90
        0
176
     1
 40
-0.6
176
     1
 41
-30.0
176
     1
 62
     5
 63
     7
421
 16777215
176
     1
 74
     1
176
     1
 91
        4
176
     1
 64
     7
176
     1
 65
   257
176
     1
 75
     7
176
     1
175
     7
176
     1
 42
1.0
176
     1
 92
        8
176
     1
 66
     7
176
     1
 43
1.0
176
     1
 76
     1
176
     1
 77
     6
176
     1
 78
     2
176
     1
 67
     7
176
     1
 79
     5
176
     1
170
     0
176
     1
171
     0
176
     1
290
     0
176
     1
 93
        1
176
     1
 44
0.0
176
     1
173
     0
176
     1
  0
VISUALSTYLE
  5
33
102
{ACAD_REACTORS
330
2A
102
}
330
2A
100
AcDbVisualStyle
  2
Realistic
 70
     8
177
     2
291
     0
 71
     2
176
     1
 72
     2
176
     1
 73
     0
176
     1
 90
        0
176
     1
 40
-0.6
176
     1
 41
-30.0
176
     1
 62
     5
 63
     7
421
 16777215
176
     1
 74
     1
176
     1
 91
        0
176
     1
 64
     7
176
     1
 65
   257
176
     1
 75
     1
176
     1
175
     1
176
     1
 42
1.0
176
     1
 92
        8
176
     1
 66
     8
424
  7895160
176
     1
 43
1.0
176
     1
 76
     1
176
     1
 77
     6
176
     1
 78
     2
176
     1
 67
     7
176
     1
 79
     5
176
     1
170
     0
176
     1
171
     0
176
     1
290
     0
176
     1
 93
       13
176
     1
 44
0.0
176
     1
173
     0
176
     1
  0
VISUALSTYLE
  5
37
102
{ACAD_REACTORS
330
2A
102
}
330
2A
100
AcDbVisualStyle
  2
Thicken
 70
    13
177
     2
291
     1
 71
     2
176
     1
 72
     2
176
     1
 73
     0
176
     1
 90
        0
176
     1
 40
-0.6
176
     1
 41
-30.0
176
     1
 62
     5
 63
     7
421
 16777215
176
     1
 74
     1
176
     1
 91
        4
176
     1
 64
     7
176
     1
 65
   257
176
     1
 75
     1
176
     1
175
     1
176
     1
 42
1.0
176
     1
 92
       12
176
     1
 66
     7
176
     1
 43
1.0
176
     1
 76
     1
176
     1
 77
     6
176
     1
 78
     2
176
     1
 67
     7
176
     1
 79
     5
176
     1
170
     0
176
     1
171
     0
176
     1
290
     0
176
     1
 93
        1
176
     1
 44
0.0
176
     1
173
     0
176
     1
  0
ENDSEC
  0
EOF
