999
NT  :  3.1 - 1211
  0
SECTION
  2
HEADER
  9
$ACADVER
  1
AC1015
  9
$DWGCODEPAGE
  3
ANSI_1252
  9
$INSBASE
 10
0.0
 20
0.0
 30
0.0
  9
$EXTMIN
 10
-8.40000031
 20
-68.46200983
 30
0.0
  9
$EXTMAX
 10
848.40003082
 20
662.46204798
 30
0.0
  9
$LIMMIN
 10
-8.40000031
 20
-68.46200983
  9
$LIMMAX
 10
848.40003082
 20
662.46204798
  9
$FILLMODE
 70
     0
  9
$QTEXTMODE
 70
     0
  9
$LTSCALE
 40
1.0
  9
$ATTMODE
 70
     1
  9
$TEXTSTYLE
  7
Standard
  9
$LUNITS
 70
     2
  9
$LUPREC
 70
     4
  9
$AUNITS
 70
     0
  9
$AUPREC
 70
     0
  9
$ANGBASE
 50
0.0
  9
$ANGDIR
 70
     0
  9
$HANDSEED
  5
7A9
  9
$TILEMODE
 70
     1
  9
$VISRETAIN
 70
     0
  0
ENDSEC
  0
SECTION
  2
CLASSES
  0
ENDSEC
  0
SECTION
  2
TABLES
  0
TABLE
  2
VPORT
  5
1
100
AcDbSymbolTable
 70
     1
  0
VPORT
  5
2
100
AcDbSymbolTableRecord
100
AcDbViewportTableRecord
  2
*Active
 70
     0
 10
0.0
 20
0.0
 11
1.0
 21
1.0
 12
420.00001526
 22
297.00001907
 13
0.0
 23
0.0
 14
1.0
 24
1.0
 15
0.0
 25
0.0
 16
0.0
 26
0.0
 36
1.0
 17
0.0
 27
0.0
 37
0.0
 40
730.924057805
 41
1.172214845
 42
50.0
 43
0.0
 44
0.0
 50
0.0
 51
0.0
 71
     0
 72
   100
 73
     1
 74
     1
 75
     0
 76
     0
 77
     0
 78
     0
  0
ENDTAB
  0
TABLE
  2
LTYPE
  5
3
100
AcDbSymbolTable
 70
    21
  0
LTYPE
  5
4
100
AcDbSymbolTableRecord
100
AcDbLinetypeTableRecord
  2
ByBlock
 70
    64
  3

 72
    65
 73
     0
 40
0.0
  0
LTYPE
  5
5
100
AcDbSymbolTableRecord
100
AcDbLinetypeTableRecord
  2
ByLayer
 70
    64
  3

 72
    65
 73
     0
 40
0.0
  0
LTYPE
  5
6
100
AcDbSymbolTableRecord
100
AcDbLinetypeTableRecord
  2
CONTINUOUS
 70
    64
  3
Solid line
 72
    65
 73
     0
 40
0.0
  0
LTYPE
  5
7
100
AcDbSymbolTableRecord
100
AcDbLinetypeTableRecord
  2
DOT
 70
    64
  3
..............
 72
    65
 73
     2
 40
2.000
 49
0.500
 74
     0
 49
-1.500
 74
     0
  0
LTYPE
  5
8
100
AcDbSymbolTableRecord
100
AcDbLinetypeTableRecord
  2
HIDDEN
 70
    64
  3
-- -- -- -- --
 72
    65
 73
     2
 40
7.000
 49
4.000
 74
     0
 49
-3.000
 74
     0
  0
LTYPE
  5
9
100
AcDbSymbolTableRecord
100
AcDbLinetypeTableRecord
  2
DASHDOT
 70
    64
  3
--.--.--.--.--
 72
    65
 73
     4
 40
8.500
 49
4.000
 74
     0
 49
-2.000
 74
     0
 49
0.500
 74
     0
 49
-2.000
 74
     0
  0
LTYPE
  5
A
100
AcDbSymbolTableRecord
100
AcDbLinetypeTableRecord
  2
STRICHPUNKT2
 70
    64
  3
--.--.--.--.--
 72
    65
 73
     4
 40
18.500
 49
10.000
 74
     0
 49
-4.000
 74
     0
 49
0.500
 74
     0
 49
-4.000
 74
     0
  0
LTYPE
  5
B
100
AcDbSymbolTableRecord
100
AcDbLinetypeTableRecord
  2
STRICHPUNKT3
 70
    64
  3
--.--.--.--.--
 72
    65
 73
     4
 40
35.500
 49
25.000
 74
     0
 49
-5.000
 74
     0
 49
0.500
 74
     0
 49
-5.000
 74
     0
  0
LTYPE
  5
13F
100
AcDbSymbolTableRecord
100
AcDbLinetypeTableRecord
  2
PHANTOM
 70
    64
  3
--..--..--..--
 72
    65
 73
     6
 40
23.000
 49
10.000
 74
     0
 49
-4.000
 74
     0
 49
0.500
 74
     0
 49
-4.000
 74
     0
 49
0.500
 74
     0
 49
-4.000
 74
     0
  0
LTYPE
  5
140
100
AcDbSymbolTableRecord
100
AcDbLinetypeTableRecord
  2
PHANTOM2
 70
    64
  3
--..--..--..--
 72
    65
 73
     6
 40
33.000
 49
20.000
 74
     0
 49
-4.000
 74
     0
 49
0.500
 74
     0
 49
-4.000
 74
     0
 49
0.500
 74
     0
 49
-4.000
 74
     0
  0
LTYPE
  5
141
100
AcDbSymbolTableRecord
100
AcDbLinetypeTableRecord
  2
PHANTOM3
 70
    64
  3
--..--..--..--
 72
    65
 73
     6
 40
50.000
 49
37.000
 74
     0
 49
-4.000
 74
     0
 49
0.500
 74
     0
 49
-4.000
 74
     0
 49
0.500
 74
     0
 49
-4.000
 74
     0
  0
LTYPE
  5
142
100
AcDbSymbolTableRecord
100
AcDbLinetypeTableRecord
  2
STR3PKT
 70
    64
  3
--...--...--...
 72
    65
 73
     8
 40
31.500
 49
20.000
 74
     0
 49
-2.500
 74
     0
 49
0.500
 74
     0
 49
-2.500
 74
     0
 49
0.500
 74
     0
 49
-2.500
 74
     0
 49
0.500
 74
     0
 49
-2.500
 74
     0
  0
LTYPE
  5
143
100
AcDbSymbolTableRecord
100
AcDbLinetypeTableRecord
  2
2STRPKT
 70
    64
  3
--.--.--.--.--
 72
    65
 73
     6
 40
28.000
 49
10.000
 74
     0
 49
-2.500
 74
     0
 49
10.000
 74
     0
 49
-2.500
 74
     0
 49
0.500
 74
     0
 49
-2.500
 74
     0
  0
LTYPE
  5
144
100
AcDbSymbolTableRecord
100
AcDbLinetypeTableRecord
  2
GESTRICHELT2
 70
    64
  3
-- -- -- -- --
 72
    65
 73
     2
 40
25.000
 49
10.000
 74
     0
 49
-15.000
 74
     0
  0
LTYPE
  5
145
100
AcDbSymbolTableRecord
100
AcDbLinetypeTableRecord
  2
2STR2PKT
 70
    64
  3
--..--..--..--
 72
    65
 73
     8
 40
31.000
 49
10.000
 74
     0
 49
-2.500
 74
     0
 49
10.000
 74
     0
 49
-2.500
 74
     0
 49
0.500
 74
     0
 49
-2.500
 74
     0
 49
0.500
 74
     0
 49
-2.500
 74
     0
  0
LTYPE
  5
146
100
AcDbSymbolTableRecord
100
AcDbLinetypeTableRecord
  2
STR3PKT2
 70
    64
  3
--...--...--...
 72
    65
 73
     8
 40
21.000
 49
10.000
 74
     0
 49
-2.500
 74
     0
 49
0.500
 74
     0
 49
-2.500
 74
     0
 49
0.500
 74
     0
 49
-2.500
 74
     0
 49
0.500
 74
     0
 49
-2.000
 74
     0
  0
LTYPE
  5
147
100
AcDbSymbolTableRecord
100
AcDbLinetypeTableRecord
  2
2STR3PKT
 70
    64
  3
--...--...--...
 72
    65
 73
    10
 40
34.000
 49
10.000
 74
     0
 49
-2.500
 74
     0
 49
10.000
 74
     0
 49
-2.500
 74
     0
 49
0.500
 74
     0
 49
-2.500
 74
     0
 49
0.500
 74
     0
 49
-2.500
 74
     0
 49
0.500
 74
     0
 49
-2.500
 74
     0
  0
LTYPE
  5
148
100
AcDbSymbolTableRecord
100
AcDbLinetypeTableRecord
  2
STRKSTR
 70
    64
  3
-- - -- - -- -
 72
    65
 73
     4
 40
30.000
 49
20.000
 74
     0
 49
-2.500
 74
     0
 49
5.000
 74
     0
 49
-2.500
 74
     0
  0
LTYPE
  5
149
100
AcDbSymbolTableRecord
100
AcDbLinetypeTableRecord
  2
STRKSTR2
 70
    64
  3
-- - -- - -- -
 72
    65
 73
     6
 40
37.500
 49
20.000
 74
     0
 49
-2.500
 74
     0
 49
5.000
 74
     0
 49
-2.500
 74
     0
 49
5.000
 74
     0
 49
-2.500
 74
     0
  0
LTYPE
  5
14A
100
AcDbSymbolTableRecord
100
AcDbLinetypeTableRecord
  2
STRKSTR3
 70
    64
  3
-- - -- - -- -
 72
    65
 73
     8
 40
45.000
 49
20.000
 74
     0
 49
-2.500
 74
     0
 49
5.000
 74
     0
 49
-2.500
 74
     0
 49
5.000
 74
     0
 49
-2.500
 74
     0
 49
5.000
 74
     0
 49
-2.500
 74
     0
  0
LTYPE
  5
14B
100
AcDbSymbolTableRecord
100
AcDbLinetypeTableRecord
  2
PUNKT2
 70
    64
  3
..............
 72
    65
 73
     2
 40
3.500
 49
0.500
 74
     0
 49
-3.000
 74
     0
  0
ENDTAB
  0
TABLE
  2
LAYER
  5
14C
100
AcDbSymbolTable
 70
    18
  0
LAYER
  5
14D
100
AcDbSymbolTableRecord
100
AcDbLayerTableRecord
  2
0
 70
    64
 62
     7
  6
CONTINUOUS
370
    -3
390
F
  0
LAYER
  5
14E
100
AcDbSymbolTableRecord
100
AcDbLayerTableRecord
  2
LE_RED
 70
    64
 62
     1
  6
CONTINUOUS
370
    -3
390
F
  0
LAYER
  5
14F
100
AcDbSymbolTableRecord
100
AcDbLayerTableRecord
  2
LE_NORM
 70
    64
 62
     7
  6
CONTINUOUS
370
    50
390
F
  0
LAYER
  5
150
100
AcDbSymbolTableRecord
100
AcDbLayerTableRecord
  2
LE_HIDDEN1
 70
    64
 62
     3
  6
HIDDEN
370
    -3
390
F
  0
LAYER
  5
151
100
AcDbSymbolTableRecord
100
AcDbLayerTableRecord
  2
LE_HIDDEN
 70
    64
 62
     7
  6
CONTINUOUS
370
    -3
390
F
  0
LAYER
  5
152
100
AcDbSymbolTableRecord
100
AcDbLayerTableRecord
  2
LE_MIDDLE
 70
    64
 62
     7
  6
CONTINUOUS
370
    -3
390
F
  0
LAYER
  5
153
100
AcDbSymbolTableRecord
100
AcDbLayerTableRecord
  2
OLD_FORMAT
 70
    64
 62
     7
  6
CONTINUOUS
370
    -3
390
F
  0
LAYER
  5
154
100
AcDbSymbolTableRecord
100
AcDbLayerTableRecord
  2
TXT_YELLOW
 70
    64
 62
     2
  6
CONTINUOUS
370
    -3
390
F
  0
LAYER
  5
155
100
AcDbSymbolTableRecord
100
AcDbLayerTableRecord
  2
TXT_DIM49
 70
    64
 62
     2
  6
CONTINUOUS
370
    -3
390
F
  0
LAYER
  5
156
100
AcDbSymbolTableRecord
100
AcDbLayerTableRecord
  2
TXT_ALL
 70
    64
 62
     7
  6
CONTINUOUS
370
    -3
390
F
  0
LAYER
  5
157
100
AcDbSymbolTableRecord
100
AcDbLayerTableRecord
  2
DIM49
 70
    64
 62
     4
  6
CONTINUOUS
370
    -3
390
F
  0
LAYER
  5
158
100
AcDbSymbolTableRecord
100
AcDbLayerTableRecord
  2
HATCH
 70
    64
 62
     3
  6
CONTINUOUS
370
    -3
390
F
  0
LAYER
  5
159
100
AcDbSymbolTableRecord
100
AcDbLayerTableRecord
  2
K
 70
    64
 62
     7
  6
CONTINUOUS
370
    -3
390
F
  0
LAYER
  5
15A
100
AcDbSymbolTableRecord
100
AcDbLayerTableRecord
  2
APPLE
 70
    64
 62
     7
  6
CONTINUOUS
370
    -3
390
F
  0
LAYER
  5
15B
100
AcDbSymbolTableRecord
100
AcDbLayerTableRecord
  2
RAHMEN
 70
    64
 62
     7
  6
CONTINUOUS
370
    -3
390
F
  0
LAYER
  5
15C
100
AcDbSymbolTableRecord
100
AcDbLayerTableRecord
  2
S
 70
    64
 62
     7
  6
CONTINUOUS
370
    -3
390
F
  0
LAYER
  5
15D
100
AcDbSymbolTableRecord
100
AcDbLayerTableRecord
  2
10
 70
    64
 62
     7
  6
CONTINUOUS
370
    -3
390
F
  0
LAYER
  5
15E
100
AcDbSymbolTableRecord
100
AcDbLayerTableRecord
  2
49
 70
    64
 62
     7
  6
CONTINUOUS
370
    -3
390
F
  0
ENDTAB
  0
TABLE
  2
STYLE
  5
15F
100
AcDbSymbolTable
 70
     2
  0
STYLE
  5
160
100
AcDbSymbolTableRecord
100
AcDbTextStyleTableRecord
  2
MONOTXT
 70
     0
 40
0.0
 41
1.000
 50
0.0
 71
     0
 42
1.000
  3
monotxt.shx
  4

  0
STYLE
  5
161
100
AcDbSymbolTableRecord
100
AcDbTextStyleTableRecord
  2
STANDARD
 70
     0
 40
0.0
 41
1.000
 50
0.0
 71
     0
 42
1.000
  3
txt
  4

  0
ENDTAB
  0
TABLE
  2
VIEW
  5
162
100
AcDbSymbolTable
 70
     0
  0
ENDTAB
  0
TABLE
  2
UCS
  5
163
100
AcDbSymbolTable
 70
     0
  0
ENDTAB
  0
TABLE
  2
APPID
  5
164
100
AcDbSymbolTable
 70
     1
  0
APPID
  5
165
100
AcDbSymbolTableRecord
100
AcDbRegAppTableRecord
  2
ACAD
 70
     0
  0
ENDTAB
  0
TABLE
  2
DIMSTYLE
  5
166
100
AcDbSymbolTable
100
AcDbDimStyleTable
 70
     0
  0
ENDTAB
  0
TABLE
  2
BLOCK_RECORD
  5
167
100
AcDbSymbolTable
 70
    69
  0
BLOCK_RECORD
  5
1E
100
AcDbSymbolTableRecord
100
AcDbBlockTableRecord
  2
*Model_Space
  0
BLOCK_RECORD
  5
1A
100
AcDbSymbolTableRecord
100
AcDbBlockTableRecord
  2
*Paper_Space
  0
BLOCK_RECORD
  5
795
100
AcDbSymbolTableRecord
100
AcDbBlockTableRecord
  2
BEM_0001
  0
BLOCK_RECORD
  5
796
100
AcDbSymbolTableRecord
100
AcDbBlockTableRecord
  2
BEM_0002
  0
BLOCK_RECORD
  5
797
100
AcDbSymbolTableRecord
100
AcDbBlockTableRecord
  2
BEM_0003
  0
BLOCK_RECORD
  5
798
100
AcDbSymbolTableRecord
100
AcDbBlockTableRecord
  2
BEM_0004
  0
BLOCK_RECORD
  5
799
100
AcDbSymbolTableRecord
100
AcDbBlockTableRecord
  2
BEM_0005
  0
BLOCK_RECORD
  5
79A
100
AcDbSymbolTableRecord
100
AcDbBlockTableRecord
  2
BEM_0006
  0
BLOCK_RECORD
  5
79B
100
AcDbSymbolTableRecord
100
AcDbBlockTableRecord
  2
BEM_0007
  0
BLOCK_RECORD
  5
79C
100
AcDbSymbolTableRecord
100
AcDbBlockTableRecord
  2
BEM_0008
  0
BLOCK_RECORD
  5
79D
100
AcDbSymbolTableRecord
100
AcDbBlockTableRecord
  2
BEM_0009
  0
BLOCK_RECORD
  5
79E
100
AcDbSymbolTableRecord
100
AcDbBlockTableRecord
  2
BEM_0010
  0
BLOCK_RECORD
  5
79F
100
AcDbSymbolTableRecord
100
AcDbBlockTableRecord
  2
BEM_0011
  0
BLOCK_RECORD
  5
7A0
100
AcDbSymbolTableRecord
100
AcDbBlockTableRecord
  2
BEM_0012
  0
BLOCK_RECORD
  5
7A1
100
AcDbSymbolTableRecord
100
AcDbBlockTableRecord
  2
BEM_0013
  0
BLOCK_RECORD
  5
7A2
100
AcDbSymbolTableRecord
100
AcDbBlockTableRecord
  2
BEM_0014
  0
BLOCK_RECORD
  5
7A3
100
AcDbSymbolTableRecord
100
AcDbBlockTableRecord
  2
BEM_0015
  0
BLOCK_RECORD
  5
7A4
100
AcDbSymbolTableRecord
100
AcDbBlockTableRecord
  2
BEM_0016
  0
BLOCK_RECORD
  5
7A5
100
AcDbSymbolTableRecord
100
AcDbBlockTableRecord
  2
BEM_0017
  0
BLOCK_RECORD
  5
7A6
100
AcDbSymbolTableRecord
100
AcDbBlockTableRecord
  2
*X1
  0
BLOCK_RECORD
  5
7A7
100
AcDbSymbolTableRecord
100
AcDbBlockTableRecord
  2
*X2
  0
BLOCK_RECORD
  5
7A8
100
AcDbSymbolTableRecord
100
AcDbBlockTableRecord
  2
*X3
  0
BLOCK_RECORD
  5
168
100
AcDbSymbolTableRecord
100
AcDbBlockTableRecord
  2
DECKEL______________00001
  0
BLOCK_RECORD
  5
169
100
AcDbSymbolTableRecord
100
AcDbBlockTableRecord
  2
LIN_________________00002
  0
BLOCK_RECORD
  5
16A
100
AcDbSymbolTableRecord
100
AcDbBlockTableRecord
  2
KONT________________00003
  0
BLOCK_RECORD
  5
16B
100
AcDbSymbolTableRecord
100
AcDbBlockTableRecord
  2
LIN_________________00004
  0
BLOCK_RECORD
  5
16C
100
AcDbSymbolTableRecord
100
AcDbBlockTableRecord
  2
ML__________________00005
  0
BLOCK_RECORD
  5
16D
100
AcDbSymbolTableRecord
100
AcDbBlockTableRecord
  2
A-A_________________00006
  0
BLOCK_RECORD
  5
16E
100
AcDbSymbolTableRecord
100
AcDbBlockTableRecord
  2
BOHRUNG_1___________00007
  0
BLOCK_RECORD
  5
16F
100
AcDbSymbolTableRecord
100
AcDbBlockTableRecord
  2
BOHRUNG_2___________00008
  0
BLOCK_RECORD
  5
170
100
AcDbSymbolTableRecord
100
AcDbBlockTableRecord
  2
BOHRUNG_3___________00009
  0
BLOCK_RECORD
  5
171
100
AcDbSymbolTableRecord
100
AcDbBlockTableRecord
  2
SCHNITT_____________00010
  0
BLOCK_RECORD
  5
172
100
AcDbSymbolTableRecord
100
AcDbBlockTableRecord
  2
DIN 66-5____________00011
  0
BLOCK_RECORD
  5
173
100
AcDbSymbolTableRecord
100
AcDbBlockTableRecord
  2
DIN 66-5____________00012
  0
BLOCK_RECORD
  5
174
100
AcDbSymbolTableRecord
100
AcDbBlockTableRecord
  2
DIN 66-5____________00013
  0
BLOCK_RECORD
  5
175
100
AcDbSymbolTableRecord
100
AcDbBlockTableRecord
  2
DIN 66-5____________00014
  0
BLOCK_RECORD
  5
176
100
AcDbSymbolTableRecord
100
AcDbBlockTableRecord
  2
HAUBE EDELST._______00015
  0
BLOCK_RECORD
  5
177
100
AcDbSymbolTableRecord
100
AcDbBlockTableRecord
  2
DS__________________00016
  0
BLOCK_RECORD
  5
178
100
AcDbSymbolTableRecord
100
AcDbBlockTableRecord
  2
BOHR________________00017
  0
BLOCK_RECORD
  5
179
100
AcDbSymbolTableRecord
100
AcDbBlockTableRecord
  2
KAPPE_______________00018
  0
BLOCK_RECORD
  5
17A
100
AcDbSymbolTableRecord
100
AcDbBlockTableRecord
  2
DRAUFSICHT HAUBE____00019
  0
BLOCK_RECORD
  5
17B
100
AcDbSymbolTableRecord
100
AcDbBlockTableRecord
  2
MONTAGEBOHRUNGEN____00020
  0
BLOCK_RECORD
  5
17C
100
AcDbSymbolTableRecord
100
AcDbBlockTableRecord
  2
_KF_XXXX____________00021
  0
BLOCK_RECORD
  5
17D
100
AcDbSymbolTableRecord
100
AcDbBlockTableRecord
  2
DINA3_______________00022
  0
BLOCK_RECORD
  5
17E
100
AcDbSymbolTableRecord
100
AcDbBlockTableRecord
  2
SCHRIFE_____________00023
  0
BLOCK_RECORD
  5
17F
100
AcDbSymbolTableRecord
100
AcDbBlockTableRecord
  2
ECO_LOGO____________00024
  0
BLOCK_RECORD
  5
180
100
AcDbSymbolTableRecord
100
AcDbBlockTableRecord
  2
LOGO________________00025
  0
BLOCK_RECORD
  5
181
100
AcDbSymbolTableRecord
100
AcDbBlockTableRecord
  2
INNEN_______________00026
  0
BLOCK_RECORD
  5
182
100
AcDbSymbolTableRecord
100
AcDbBlockTableRecord
  2
ALLGEMEI____________00027
  0
BLOCK_RECORD
  5
183
100
AcDbSymbolTableRecord
100
AcDbBlockTableRecord
  2
0___________________00028
  0
BLOCK_RECORD
  5
184
100
AcDbSymbolTableRecord
100
AcDbBlockTableRecord
  2
FIG_________________00029
  0
BLOCK_RECORD
  5
185
100
AcDbSymbolTableRecord
100
AcDbBlockTableRecord
  2
_KF_XXXX____________00030
  0
BLOCK_RECORD
  5
186
100
AcDbSymbolTableRecord
100
AcDbBlockTableRecord
  2
_KF_XXXX____________00031
  0
BLOCK_RECORD
  5
187
100
AcDbSymbolTableRecord
100
AcDbBlockTableRecord
  2
_Z1_XXXX____________00032
  0
BLOCK_RECORD
  5
188
100
AcDbSymbolTableRecord
100
AcDbBlockTableRecord
  2
_MG_________________00033
  0
BLOCK_RECORD
  5
189
100
AcDbSymbolTableRecord
100
AcDbBlockTableRecord
  2
FIG_________________00034
  0
BLOCK_RECORD
  5
18A
100
AcDbSymbolTableRecord
100
AcDbBlockTableRecord
  2
_KF_XXXX____________00035
  0
BLOCK_RECORD
  5
18B
100
AcDbSymbolTableRecord
100
AcDbBlockTableRecord
  2
_KF_XXXX____________00036
  0
BLOCK_RECORD
  5
18C
100
AcDbSymbolTableRecord
100
AcDbBlockTableRecord
  2
_KF_XXXX____________00037
  0
BLOCK_RECORD
  5
18D
100
AcDbSymbolTableRecord
100
AcDbBlockTableRecord
  2
_Z1_XXXX____________00038
  0
BLOCK_RECORD
  5
18E
100
AcDbSymbolTableRecord
100
AcDbBlockTableRecord
  2
_Z1_XXXX____________00039
  0
BLOCK_RECORD
  5
18F
100
AcDbSymbolTableRecord
100
AcDbBlockTableRecord
  2
FIG_________________00040
  0
BLOCK_RECORD
  5
190
100
AcDbSymbolTableRecord
100
AcDbBlockTableRecord
  2
_KF_XXXX____________00041
  0
BLOCK_RECORD
  5
191
100
AcDbSymbolTableRecord
100
AcDbBlockTableRecord
  2
_MG_________________00042
  0
BLOCK_RECORD
  5
192
100
AcDbSymbolTableRecord
100
AcDbBlockTableRecord
  2
_KF_XXXX____________00043
  0
BLOCK_RECORD
  5
193
100
AcDbSymbolTableRecord
100
AcDbBlockTableRecord
  2
_FOLIEN_____________00044
  0
BLOCK_RECORD
  5
194
100
AcDbSymbolTableRecord
100
AcDbBlockTableRecord
  2
FLÜGEL______________00045
  0
BLOCK_RECORD
  5
195
100
AcDbSymbolTableRecord
100
AcDbBlockTableRecord
  2
FIG_________________00046
  0
BLOCK_RECORD
  5
196
100
AcDbSymbolTableRecord
100
AcDbBlockTableRecord
  2
FIG_________________00047
  0
ENDTAB
  0
ENDSEC
  0
SECTION
  2
BLOCKS
  0
BLOCK
  5
197
100
AcDbEntity
  8
0
100
AcDbBlockBegin
  2
*Model_Space
 70
     0
 10
0.0
 20
0.0
 30
0.0
  3
*Model_Space
  1

  0
ENDBLK
  5
198
100
AcDbEntity
  8
0
100
AcDbBlockEnd
  0
BLOCK
  5
199
100
AcDbEntity
100
AcDbBlockBegin
 67
     1
  8
0
  2
*Paper_Space
 70
     0
 10
0.0
 20
0.0
 30
0.0
  3
*Paper_Space
  1

  0
ENDBLK
  5
19A
100
AcDbEntity
100
AcDbBlockEnd
 67
     1
  8
0
  0
BLOCK
  5
19B
100
AcDbEntity
  8
0
100
AcDbBlockBegin
  2
BEM_0001
 70
    64
 10
696.14062500
 20
431.80200195
 30
0.0
  3
BEM_0001
  0
LINE
  5
19C
100
AcDbEntity
  8
DIM49
100
AcDbLine
 10
696.14062500
 20
455.80200195
 30
0.0
 11
696.14062500
 21
435.80200195
 31
0.0
  0
LINE
  5
19D
100
AcDbEntity
  8
DIM49
100
AcDbLine
 10
696.14062500
 20
451.80200195
 30
0.0
 11
704.14062500
 21
453.30200195
 31
0.0
  0
LINE
  5
19E
100
AcDbEntity
  8
DIM49
100
AcDbLine
 10
704.14062500
 20
453.30200195
 30
0.0
 11
704.14062500
 21
450.30200195
 31
0.0
  0
LINE
  5
19F
100
AcDbEntity
  8
DIM49
100
AcDbLine
 10
704.14062500
 20
450.30200195
 30
0.0
 11
696.14062500
 21
451.80200195
 31
0.0
  0
LINE
  5
1A0
100
AcDbEntity
  8
DIM49
100
AcDbLine
 10
703.94062500
 20
451.80200195
 30
0.0
 11
696.34062500
 21
451.80200195
 31
0.0
  0
LINE
  5
1A1
100
AcDbEntity
  8
DIM49
100
AcDbLine
 10
703.94062500
 20
451.40200195
 30
0.0
 11
698.47395833
 21
451.40200195
 31
0.0
  0
LINE
  5
1A2
100
AcDbEntity
  8
DIM49
100
AcDbLine
 10
703.94062500
 20
452.20200195
 30
0.0
 11
698.47395833
 21
452.20200195
 31
0.0
  0
LINE
  5
1A3
100
AcDbEntity
  8
DIM49
100
AcDbLine
 10
703.94062500
 20
451.00200195
 30
0.0
 11
700.60729167
 21
451.00200195
 31
0.0
  0
LINE
  5
1A4
100
AcDbEntity
  8
DIM49
100
AcDbLine
 10
703.94062500
 20
452.60200195
 30
0.0
 11
700.60729167
 21
452.60200195
 31
0.0
  0
LINE
  5
1A5
100
AcDbEntity
  8
DIM49
100
AcDbLine
 10
703.94062500
 20
450.60200195
 30
0.0
 11
702.74062500
 21
450.60200195
 31
0.0
  0
LINE
  5
1A6
100
AcDbEntity
  8
DIM49
100
AcDbLine
 10
703.94062500
 20
453.00200195
 30
0.0
 11
702.74062500
 21
453.00200195
 31
0.0
  0
LINE
  5
1A7
100
AcDbEntity
  8
DIM49
100
AcDbLine
 10
727.44061279
 20
455.80200195
 30
0.0
 11
727.44061279
 21
413.09490967
 31
0.0
  0
LINE
  5
1A8
100
AcDbEntity
  8
DIM49
100
AcDbLine
 10
727.44061279
 20
451.80200195
 30
0.0
 11
719.44061279
 21
450.30200195
 31
0.0
  0
LINE
  5
1A9
100
AcDbEntity
  8
DIM49
100
AcDbLine
 10
719.44061279
 20
450.30200195
 30
0.0
 11
719.44061279
 21
453.30200195
 31
0.0
  0
LINE
  5
1AA
100
AcDbEntity
  8
DIM49
100
AcDbLine
 10
719.44061279
 20
453.30200195
 30
0.0
 11
727.44061279
 21
451.80200195
 31
0.0
  0
LINE
  5
1AB
100
AcDbEntity
  8
DIM49
100
AcDbLine
 10
719.64061279
 20
451.80200195
 30
0.0
 11
727.24061279
 21
451.80200195
 31
0.0
  0
LINE
  5
1AC
100
AcDbEntity
  8
DIM49
100
AcDbLine
 10
719.64061279
 20
452.20200195
 30
0.0
 11
725.10727946
 21
452.20200195
 31
0.0
  0
LINE
  5
1AD
100
AcDbEntity
  8
DIM49
100
AcDbLine
 10
719.64061279
 20
451.40200195
 30
0.0
 11
725.10727946
 21
451.40200195
 31
0.0
  0
LINE
  5
1AE
100
AcDbEntity
  8
DIM49
100
AcDbLine
 10
719.64061279
 20
452.60200195
 30
0.0
 11
722.97394613
 21
452.60200195
 31
0.0
  0
LINE
  5
1AF
100
AcDbEntity
  8
DIM49
100
AcDbLine
 10
719.64061279
 20
451.00200195
 30
0.0
 11
722.97394613
 21
451.00200195
 31
0.0
  0
LINE
  5
1B0
100
AcDbEntity
  8
DIM49
100
AcDbLine
 10
719.64061279
 20
453.00200195
 30
0.0
 11
720.84061279
 21
453.00200195
 31
0.0
  0
LINE
  5
1B1
100
AcDbEntity
  8
DIM49
100
AcDbLine
 10
719.64061279
 20
450.60200195
 30
0.0
 11
720.84061279
 21
450.60200195
 31
0.0
  0
LINE
  5
1B2
100
AcDbEntity
  8
DIM49
100
AcDbLine
 10
704.14062500
 20
451.80200195
 30
0.0
 11
719.44061279
 21
451.80200195
 31
0.0
  0
TEXT
  5
1B3
100
AcDbEntity
  8
TXT_DIM49
100
AcDbText
 10
700.89905605
 20
454.80200195
 30
0.0
 40
7.00000000
  1
31,3
 50
0.000000000
 41
0.812
 51
0.0
  7
MONOTXT
100
AcDbText
  0
ENDBLK
  5
1B4
100
AcDbEntity
  8
0
100
AcDbBlockEnd
  0
BLOCK
  5
1B5
100
AcDbEntity
  8
0
100
AcDbBlockBegin
  2
BEM_0002
 70
    64
 10
724.94061279
 20
390.09490967
 30
0.0
  3
BEM_0002
  0
LINE
  5
1B6
100
AcDbEntity
  8
DIM49
100
AcDbLine
 10
748.94062805
 20
390.09490967
 30
0.0
 11
728.94061279
 21
390.09490967
 31
0.0
  0
LINE
  5
1B7
100
AcDbEntity
  8
DIM49
100
AcDbLine
 10
748.33474060
 20
386.70079712
 30
0.0
 11
741.54651550
 21
393.48902222
 31
0.0
  0
LINE
  5
1B8
100
AcDbEntity
  8
DIM49
100
AcDbLine
 10
744.94062805
 20
390.09490967
 30
0.0
 11
744.94062805
 21
381.89490967
 31
0.0
  0
LINE
  5
1B9
100
AcDbEntity
  8
DIM49
100
AcDbLine
 10
748.94062805
 20
411.59490967
 30
0.0
 11
728.94062805
 21
411.59490967
 31
0.0
  0
LINE
  5
1BA
100
AcDbEntity
  8
DIM49
100
AcDbLine
 10
744.94062805
 20
411.59490967
 30
0.0
 11
746.44062805
 21
419.59490967
 31
0.0
  0
LINE
  5
1BB
100
AcDbEntity
  8
DIM49
100
AcDbLine
 10
746.44062805
 20
419.59490967
 30
0.0
 11
743.44062805
 21
419.59490967
 31
0.0
  0
LINE
  5
1BC
100
AcDbEntity
  8
DIM49
100
AcDbLine
 10
743.44062805
 20
419.59490967
 30
0.0
 11
744.94062805
 21
411.59490967
 31
0.0
  0
LINE
  5
1BD
100
AcDbEntity
  8
DIM49
100
AcDbLine
 10
744.94062805
 20
419.39490967
 30
0.0
 11
744.94062805
 21
411.79490967
 31
0.0
  0
LINE
  5
1BE
100
AcDbEntity
  8
DIM49
100
AcDbLine
 10
745.34062805
 20
419.39490967
 30
0.0
 11
745.34062805
 21
413.92824300
 31
0.0
  0
LINE
  5
1BF
100
AcDbEntity
  8
DIM49
100
AcDbLine
 10
744.54062805
 20
419.39490967
 30
0.0
 11
744.54062805
 21
413.92824300
 31
0.0
  0
LINE
  5
1C0
100
AcDbEntity
  8
DIM49
100
AcDbLine
 10
745.74062805
 20
419.39490967
 30
0.0
 11
745.74062805
 21
416.06157633
 31
0.0
  0
LINE
  5
1C1
100
AcDbEntity
  8
DIM49
100
AcDbLine
 10
744.14062805
 20
419.39490967
 30
0.0
 11
744.14062805
 21
416.06157633
 31
0.0
  0
LINE
  5
1C2
100
AcDbEntity
  8
DIM49
100
AcDbLine
 10
746.14062805
 20
419.39490967
 30
0.0
 11
746.14062805
 21
418.19490967
 31
0.0
  0
LINE
  5
1C3
100
AcDbEntity
  8
DIM49
100
AcDbLine
 10
743.74062805
 20
419.39490967
 30
0.0
 11
743.74062805
 21
418.19490967
 31
0.0
  0
LINE
  5
1C4
100
AcDbEntity
  8
DIM49
100
AcDbLine
 10
744.94062805
 20
419.59490967
 30
0.0
 11
744.94062805
 21
438.19803484
 31
0.0
  0
LINE
  5
1C5
100
AcDbEntity
  8
DIM49
100
AcDbLine
 10
744.94062805
 20
390.09490967
 30
0.0
 11
744.94062805
 21
411.59490967
 31
0.0
  0
TEXT
  5
1C6
100
AcDbEntity
  8
TXT_DIM49
100
AcDbText
 10
741.94062805
 20
416.41490984
 30
0.0
 40
7.00000000
  1
21,5
 50
90.000000000
 41
0.812
 51
0.0
  7
MONOTXT
100
AcDbText
  0
ENDBLK
  5
1C7
100
AcDbEntity
  8
0
100
AcDbBlockEnd
  0
BLOCK
  5
1C8
100
AcDbEntity
  8
0
100
AcDbBlockBegin
  2
BEM_0003
 70
    64
 10
702.40594482
 20
335.84490967
 30
0.0
  3
BEM_0003
  0
LINE
  5
1C9
100
AcDbEntity
  8
DIM49
100
AcDbLine
 10
784.99412537
 20
335.84490967
 30
0.0
 11
706.40594482
 21
335.84490967
 31
0.0
  0
LINE
  5
1CA
100
AcDbEntity
  8
DIM49
100
AcDbLine
 10
780.99412537
 20
335.84490967
 30
0.0
 11
779.49412537
 21
343.84490967
 31
0.0
  0
LINE
  5
1CB
100
AcDbEntity
  8
DIM49
100
AcDbLine
 10
779.49412537
 20
343.84490967
 30
0.0
 11
782.49412537
 21
343.84490967
 31
0.0
  0
LINE
  5
1CC
100
AcDbEntity
  8
DIM49
100
AcDbLine
 10
782.49412537
 20
343.84490967
 30
0.0
 11
780.99412537
 21
335.84490967
 31
0.0
  0
LINE
  5
1CD
100
AcDbEntity
  8
DIM49
100
AcDbLine
 10
780.99412537
 20
343.64490967
 30
0.0
 11
780.99412537
 21
336.04490967
 31
0.0
  0
LINE
  5
1CE
100
AcDbEntity
  8
DIM49
100
AcDbLine
 10
781.39412537
 20
343.64490967
 30
0.0
 11
781.39412537
 21
338.17824300
 31
0.0
  0
LINE
  5
1CF
100
AcDbEntity
  8
DIM49
100
AcDbLine
 10
780.59412537
 20
343.64490967
 30
0.0
 11
780.59412537
 21
338.17824300
 31
0.0
  0
LINE
  5
1D0
100
AcDbEntity
  8
DIM49
100
AcDbLine
 10
781.79412537
 20
343.64490967
 30
0.0
 11
781.79412537
 21
340.31157633
 31
0.0
  0
LINE
  5
1D1
100
AcDbEntity
  8
DIM49
100
AcDbLine
 10
780.19412537
 20
343.64490967
 30
0.0
 11
780.19412537
 21
340.31157633
 31
0.0
  0
LINE
  5
1D2
100
AcDbEntity
  8
DIM49
100
AcDbLine
 10
782.19412537
 20
343.64490967
 30
0.0
 11
782.19412537
 21
342.44490967
 31
0.0
  0
LINE
  5
1D3
100
AcDbEntity
  8
DIM49
100
AcDbLine
 10
779.79412537
 20
343.64490967
 30
0.0
 11
779.79412537
 21
342.44490967
 31
0.0
  0
LINE
  5
1D4
100
AcDbEntity
  8
DIM49
100
AcDbLine
 10
732.94061279
 20
400.84490967
 30
0.0
 11
739.52780578
 21
400.84490967
 31
0.0
  0
LINE
  5
1D5
100
AcDbEntity
  8
DIM49
100
AcDbLine
 10
749.52780578
 20
400.84490967
 30
0.0
 11
784.99412537
 21
400.84490967
 31
0.0
  0
LINE
  5
1D6
100
AcDbEntity
  8
DIM49
100
AcDbLine
 10
780.99412537
 20
400.84490967
 30
0.0
 11
782.49412537
 21
392.84490967
 31
0.0
  0
LINE
  5
1D7
100
AcDbEntity
  8
DIM49
100
AcDbLine
 10
782.49412537
 20
392.84490967
 30
0.0
 11
779.49412537
 21
392.84490967
 31
0.0
  0
LINE
  5
1D8
100
AcDbEntity
  8
DIM49
100
AcDbLine
 10
779.49412537
 20
392.84490967
 30
0.0
 11
780.99412537
 21
400.84490967
 31
0.0
  0
LINE
  5
1D9
100
AcDbEntity
  8
DIM49
100
AcDbLine
 10
780.99412537
 20
393.04490967
 30
0.0
 11
780.99412537
 21
400.64490967
 31
0.0
  0
LINE
  5
1DA
100
AcDbEntity
  8
DIM49
100
AcDbLine
 10
780.59412537
 20
393.04490967
 30
0.0
 11
780.59412537
 21
398.51157633
 31
0.0
  0
LINE
  5
1DB
100
AcDbEntity
  8
DIM49
100
AcDbLine
 10
781.39412537
 20
393.04490967
 30
0.0
 11
781.39412537
 21
398.51157633
 31
0.0
  0
LINE
  5
1DC
100
AcDbEntity
  8
DIM49
100
AcDbLine
 10
780.19412537
 20
393.04490967
 30
0.0
 11
780.19412537
 21
396.37824300
 31
0.0
  0
LINE
  5
1DD
100
AcDbEntity
  8
DIM49
100
AcDbLine
 10
781.79412537
 20
393.04490967
 30
0.0
 11
781.79412537
 21
396.37824300
 31
0.0
  0
LINE
  5
1DE
100
AcDbEntity
  8
DIM49
100
AcDbLine
 10
779.79412537
 20
393.04490967
 30
0.0
 11
779.79412537
 21
394.24490967
 31
0.0
  0
LINE
  5
1DF
100
AcDbEntity
  8
DIM49
100
AcDbLine
 10
782.19412537
 20
393.04490967
 30
0.0
 11
782.19412537
 21
394.24490967
 31
0.0
  0
LINE
  5
1E0
100
AcDbEntity
  8
DIM49
100
AcDbLine
 10
780.99412537
 20
343.84490967
 30
0.0
 11
780.99412537
 21
392.84490967
 31
0.0
  0
TEXT
  5
1E1
100
AcDbEntity
  8
TXT_DIM49
100
AcDbText
 10
777.99412537
 20
348.06972665
 30
0.0
 40
7.00000000
  1
65
 50
90.000000000
 41
0.812
 51
0.0
  7
MONOTXT
100
AcDbText
  0
TEXT
  5
1E2
100
AcDbEntity
  8
TXT_ALL
100
AcDbText
 62
     1
 10
777.99412537
 20
361.47785165
 30
0.0
 40
5.00000000
  1
+1,0
 50
90.000000000
 41
0.812
 51
0.0
  7
MONOTXT
100
AcDbText
  0
ENDBLK
  5
1E3
100
AcDbEntity
  8
0
100
AcDbBlockEnd
  0
BLOCK
  5
1E4
100
AcDbEntity
  8
0
100
AcDbBlockBegin
  2
BEM_0004
 70
    64
 10
696.14062500
 20
377.84490967
 30
0.0
  3
BEM_0004
  0
LINE
  5
1E5
100
AcDbEntity
  8
DIM49
100
AcDbLine
 10
766.40594482
 20
377.84490967
 30
0.0
 11
700.14062500
 21
377.84490967
 31
0.0
  0
LINE
  5
1E6
100
AcDbEntity
  8
DIM49
100
AcDbLine
 10
762.40594482
 20
377.84490967
 30
0.0
 11
763.90594482
 21
369.84490967
 31
0.0
  0
LINE
  5
1E7
100
AcDbEntity
  8
DIM49
100
AcDbLine
 10
763.90594482
 20
369.84490967
 30
0.0
 11
760.90594482
 21
369.84490967
 31
0.0
  0
LINE
  5
1E8
100
AcDbEntity
  8
DIM49
100
AcDbLine
 10
760.90594482
 20
369.84490967
 30
0.0
 11
762.40594482
 21
377.84490967
 31
0.0
  0
LINE
  5
1E9
100
AcDbEntity
  8
DIM49
100
AcDbLine
 10
762.40594482
 20
370.04490967
 30
0.0
 11
762.40594482
 21
377.64490967
 31
0.0
  0
LINE
  5
1EA
100
AcDbEntity
  8
DIM49
100
AcDbLine
 10
762.00594482
 20
370.04490967
 30
0.0
 11
762.00594482
 21
375.51157633
 31
0.0
  0
LINE
  5
1EB
100
AcDbEntity
  8
DIM49
100
AcDbLine
 10
762.80594482
 20
370.04490967
 30
0.0
 11
762.80594482
 21
375.51157633
 31
0.0
  0
LINE
  5
1EC
100
AcDbEntity
  8
DIM49
100
AcDbLine
 10
761.60594482
 20
370.04490967
 30
0.0
 11
761.60594482
 21
373.37824300
 31
0.0
  0
LINE
  5
1ED
100
AcDbEntity
  8
DIM49
100
AcDbLine
 10
763.20594482
 20
370.04490967
 30
0.0
 11
763.20594482
 21
373.37824300
 31
0.0
  0
LINE
  5
1EE
100
AcDbEntity
  8
DIM49
100
AcDbLine
 10
761.20594482
 20
370.04490967
 30
0.0
 11
761.20594482
 21
371.24490967
 31
0.0
  0
LINE
  5
1EF
100
AcDbEntity
  8
DIM49
100
AcDbLine
 10
763.60594482
 20
370.04490967
 30
0.0
 11
763.60594482
 21
371.24490967
 31
0.0
  0
LINE
  5
1F0
100
AcDbEntity
  8
DIM49
100
AcDbLine
 10
766.40594482
 20
335.84490967
 30
0.0
 11
706.40594482
 21
335.84490967
 31
0.0
  0
LINE
  5
1F1
100
AcDbEntity
  8
DIM49
100
AcDbLine
 10
762.40594482
 20
335.84490967
 30
0.0
 11
760.90594482
 21
343.84490967
 31
0.0
  0
LINE
  5
1F2
100
AcDbEntity
  8
DIM49
100
AcDbLine
 10
760.90594482
 20
343.84490967
 30
0.0
 11
763.90594482
 21
343.84490967
 31
0.0
  0
LINE
  5
1F3
100
AcDbEntity
  8
DIM49
100
AcDbLine
 10
763.90594482
 20
343.84490967
 30
0.0
 11
762.40594482
 21
335.84490967
 31
0.0
  0
LINE
  5
1F4
100
AcDbEntity
  8
DIM49
100
AcDbLine
 10
762.40594482
 20
343.64490967
 30
0.0
 11
762.40594482
 21
336.04490967
 31
0.0
  0
LINE
  5
1F5
100
AcDbEntity
  8
DIM49
100
AcDbLine
 10
762.80594482
 20
343.64490967
 30
0.0
 11
762.80594482
 21
338.17824300
 31
0.0
  0
LINE
  5
1F6
100
AcDbEntity
  8
DIM49
100
AcDbLine
 10
762.00594482
 20
343.64490967
 30
0.0
 11
762.00594482
 21
338.17824300
 31
0.0
  0
LINE
  5
1F7
100
AcDbEntity
  8
DIM49
100
AcDbLine
 10
763.20594482
 20
343.64490967
 30
0.0
 11
763.20594482
 21
340.31157633
 31
0.0
  0
LINE
  5
1F8
100
AcDbEntity
  8
DIM49
100
AcDbLine
 10
761.60594482
 20
343.64490967
 30
0.0
 11
761.60594482
 21
340.31157633
 31
0.0
  0
LINE
  5
1F9
100
AcDbEntity
  8
DIM49
100
AcDbLine
 10
763.60594482
 20
343.64490967
 30
0.0
 11
763.60594482
 21
342.44490967
 31
0.0
  0
LINE
  5
1FA
100
AcDbEntity
  8
DIM49
100
AcDbLine
 10
761.20594482
 20
343.64490967
 30
0.0
 11
761.20594482
 21
342.44490967
 31
0.0
  0
LINE
  5
1FB
100
AcDbEntity
  8
DIM49
100
AcDbLine
 10
762.40594482
 20
343.84490967
 30
0.0
 11
762.40594482
 21
369.84490967
 31
0.0
  0
TEXT
  5
1FC
100
AcDbEntity
  8
TXT_DIM49
100
AcDbText
 10
759.40594482
 20
342.39240920
 30
0.0
 40
7.00000000
  1
42
 50
90.000000000
 41
0.812
 51
0.0
  7
MONOTXT
100
AcDbText
  0
TEXT
  5
1FD
100
AcDbEntity
  8
TXT_ALL
100
AcDbText
 62
     1
 10
759.40594482
 20
355.80053420
 30
0.0
 40
5.00000000
  1
+1,0
 50
90.000000000
 41
0.812
 51
0.0
  7
MONOTXT
100
AcDbText
  0
ENDBLK
  5
1FE
100
AcDbEntity
  8
0
100
AcDbBlockEnd
  0
BLOCK
  5
1FF
100
AcDbEntity
  8
0
100
AcDbBlockBegin
  2
BEM_0005
 70
    64
 10
702.40594482
 20
319.84490967
 30
0.0
  3
BEM_0005
  0
LINE
  5
200
100
AcDbEntity
  8
DIM49
100
AcDbLine
 10
766.40594482
 20
319.84490967
 30
0.0
 11
702.40594482
 21
319.84490967
 31
0.0
  0
LINE
  5
201
100
AcDbEntity
  8
DIM49
100
AcDbLine
 10
762.40594482
 20
319.84490967
 30
0.0
 11
760.90594482
 21
311.84490967
 31
0.0
  0
LINE
  5
202
100
AcDbEntity
  8
DIM49
100
AcDbLine
 10
760.90594482
 20
311.84490967
 30
0.0
 11
763.90594482
 21
311.84490967
 31
0.0
  0
LINE
  5
203
100
AcDbEntity
  8
DIM49
100
AcDbLine
 10
763.90594482
 20
311.84490967
 30
0.0
 11
762.40594482
 21
319.84490967
 31
0.0
  0
LINE
  5
204
100
AcDbEntity
  8
DIM49
100
AcDbLine
 10
762.40594482
 20
312.04490967
 30
0.0
 11
762.40594482
 21
319.64490967
 31
0.0
  0
LINE
  5
205
100
AcDbEntity
  8
DIM49
100
AcDbLine
 10
762.00594482
 20
312.04490967
 30
0.0
 11
762.00594482
 21
317.51157633
 31
0.0
  0
LINE
  5
206
100
AcDbEntity
  8
DIM49
100
AcDbLine
 10
762.80594482
 20
312.04490967
 30
0.0
 11
762.80594482
 21
317.51157633
 31
0.0
  0
LINE
  5
207
100
AcDbEntity
  8
DIM49
100
AcDbLine
 10
761.60594482
 20
312.04490967
 30
0.0
 11
761.60594482
 21
315.37824300
 31
0.0
  0
LINE
  5
208
100
AcDbEntity
  8
DIM49
100
AcDbLine
 10
763.20594482
 20
312.04490967
 30
0.0
 11
763.20594482
 21
315.37824300
 31
0.0
  0
LINE
  5
209
100
AcDbEntity
  8
DIM49
100
AcDbLine
 10
761.20594482
 20
312.04490967
 30
0.0
 11
761.20594482
 21
313.24490967
 31
0.0
  0
LINE
  5
20A
100
AcDbEntity
  8
DIM49
100
AcDbLine
 10
763.60594482
 20
312.04490967
 30
0.0
 11
763.60594482
 21
313.24490967
 31
0.0
  0
LINE
  5
20B
100
AcDbEntity
  8
DIM49
100
AcDbLine
 10
762.40594482
 20
311.84490967
 30
0.0
 11
762.40594482
 21
303.84490967
 31
0.0
  0
LINE
  5
20C
100
AcDbEntity
  8
DIM49
100
AcDbLine
 10
766.40594482
 20
335.84490967
 30
0.0
 11
702.40594482
 21
335.84490967
 31
0.0
  0
LINE
  5
20D
100
AcDbEntity
  8
DIM49
100
AcDbLine
 10
762.40594482
 20
335.84490967
 30
0.0
 11
763.90594482
 21
343.84490967
 31
0.0
  0
LINE
  5
20E
100
AcDbEntity
  8
DIM49
100
AcDbLine
 10
763.90594482
 20
343.84490967
 30
0.0
 11
760.90594482
 21
343.84490967
 31
0.0
  0
LINE
  5
20F
100
AcDbEntity
  8
DIM49
100
AcDbLine
 10
760.90594482
 20
343.84490967
 30
0.0
 11
762.40594482
 21
335.84490967
 31
0.0
  0
LINE
  5
210
100
AcDbEntity
  8
DIM49
100
AcDbLine
 10
762.40594482
 20
343.64490967
 30
0.0
 11
762.40594482
 21
336.04490967
 31
0.0
  0
LINE
  5
211
100
AcDbEntity
  8
DIM49
100
AcDbLine
 10
762.80594482
 20
343.64490967
 30
0.0
 11
762.80594482
 21
338.17824300
 31
0.0
  0
LINE
  5
212
100
AcDbEntity
  8
DIM49
100
AcDbLine
 10
762.00594482
 20
343.64490967
 30
0.0
 11
762.00594482
 21
338.17824300
 31
0.0
  0
LINE
  5
213
100
AcDbEntity
  8
DIM49
100
AcDbLine
 10
763.20594482
 20
343.64490967
 30
0.0
 11
763.20594482
 21
340.31157633
 31
0.0
  0
LINE
  5
214
100
AcDbEntity
  8
DIM49
100
AcDbLine
 10
761.60594482
 20
343.64490967
 30
0.0
 11
761.60594482
 21
340.31157633
 31
0.0
  0
LINE
  5
215
100
AcDbEntity
  8
DIM49
100
AcDbLine
 10
763.60594482
 20
343.64490967
 30
0.0
 11
763.60594482
 21
342.44490967
 31
0.0
  0
LINE
  5
216
100
AcDbEntity
  8
DIM49
100
AcDbLine
 10
761.20594482
 20
343.64490967
 30
0.0
 11
761.20594482
 21
342.44490967
 31
0.0
  0
LINE
  5
217
100
AcDbEntity
  8
DIM49
100
AcDbLine
 10
762.40594482
 20
343.84490967
 30
0.0
 11
762.40594482
 21
351.84490967
 31
0.0
  0
LINE
  5
218
100
AcDbEntity
  8
DIM49
100
AcDbLine
 10
762.40594482
 20
319.84490967
 30
0.0
 11
762.40594482
 21
335.84490967
 31
0.0
  0
TEXT
  5
219
100
AcDbEntity
  8
TXT_DIM49
100
AcDbText
 10
759.40594482
 20
322.64084699
 30
0.0
 40
7.00000000
  1
16
 50
90.000000000
 41
0.812
 51
0.0
  7
MONOTXT
100
AcDbText
  0
ENDBLK
  5
21A
100
AcDbEntity
  8
0
100
AcDbBlockEnd
  0
BLOCK
  5
21B
100
AcDbEntity
  8
0
100
AcDbBlockBegin
  2
BEM_0006
 70
    64
 10
696.14062500
 20
220.63733373
 30
0.0
  3
BEM_0006
  0
LINE
  5
21C
100
AcDbEntity
  8
DIM49
100
AcDbLine
 10
696.14062500
 20
196.63733373
 30
0.0
 11
696.14062500
 21
216.63733373
 31
0.0
  0
LINE
  5
21D
100
AcDbEntity
  8
DIM49
100
AcDbLine
 10
696.14062500
 20
200.63733373
 30
0.0
 11
704.14062491
 21
202.13733421
 31
0.0
  0
LINE
  5
21E
100
AcDbEntity
  8
DIM49
100
AcDbLine
 10
704.14062491
 20
202.13733421
 30
0.0
 11
704.14062509
 21
199.13733421
 31
0.0
  0
LINE
  5
21F
100
AcDbEntity
  8
DIM49
100
AcDbLine
 10
704.14062509
 20
199.13733421
 30
0.0
 11
696.14062500
 21
200.63733373
 31
0.0
  0
LINE
  5
220
100
AcDbEntity
  8
DIM49
100
AcDbLine
 10
703.94062500
 20
200.63733420
 30
0.0
 11
696.34062500
 21
200.63733375
 31
0.0
  0
LINE
  5
221
100
AcDbEntity
  8
DIM49
100
AcDbLine
 10
703.94062502
 20
200.23733420
 30
0.0
 11
698.47395836
 21
200.23733387
 31
0.0
  0
LINE
  5
222
100
AcDbEntity
  8
DIM49
100
AcDbLine
 10
703.94062498
 20
201.03733420
 30
0.0
 11
698.47395831
 21
201.03733387
 31
0.0
  0
LINE
  5
223
100
AcDbEntity
  8
DIM49
100
AcDbLine
 10
703.94062505
 20
199.83733420
 30
0.0
 11
700.60729171
 21
199.83733400
 31
0.0
  0
LINE
  5
224
100
AcDbEntity
  8
DIM49
100
AcDbLine
 10
703.94062495
 20
201.43733420
 30
0.0
 11
700.60729162
 21
201.43733400
 31
0.0
  0
LINE
  5
225
100
AcDbEntity
  8
DIM49
100
AcDbLine
 10
703.94062507
 20
199.43733420
 30
0.0
 11
702.74062507
 21
199.43733412
 31
0.0
  0
LINE
  5
226
100
AcDbEntity
  8
DIM49
100
AcDbLine
 10
703.94062493
 20
201.83733420
 30
0.0
 11
702.74062493
 21
201.83733412
 31
0.0
  0
LINE
  5
227
100
AcDbEntity
  8
DIM49
100
AcDbLine
 10
746.64062500
 20
196.63733673
 30
0.0
 11
746.64062500
 21
305.34490967
 31
0.0
  0
LINE
  5
228
100
AcDbEntity
  8
DIM49
100
AcDbLine
 10
746.64062500
 20
200.63733673
 30
0.0
 11
738.64062509
 21
199.13733626
 31
0.0
  0
LINE
  5
229
100
AcDbEntity
  8
DIM49
100
AcDbLine
 10
738.64062509
 20
199.13733626
 30
0.0
 11
738.64062491
 21
202.13733626
 31
0.0
  0
LINE
  5
22A
100
AcDbEntity
  8
DIM49
100
AcDbLine
 10
738.64062491
 20
202.13733626
 30
0.0
 11
746.64062500
 21
200.63733673
 31
0.0
  0
LINE
  5
22B
100
AcDbEntity
  8
DIM49
100
AcDbLine
 10
738.84062500
 20
200.63733627
 30
0.0
 11
746.44062500
 21
200.63733672
 31
0.0
  0
LINE
  5
22C
100
AcDbEntity
  8
DIM49
100
AcDbLine
 10
738.84062498
 20
201.03733627
 30
0.0
 11
744.30729164
 21
201.03733659
 31
0.0
  0
LINE
  5
22D
100
AcDbEntity
  8
DIM49
100
AcDbLine
 10
738.84062502
 20
200.23733627
 30
0.0
 11
744.30729169
 21
200.23733659
 31
0.0
  0
LINE
  5
22E
100
AcDbEntity
  8
DIM49
100
AcDbLine
 10
738.84062495
 20
201.43733627
 30
0.0
 11
742.17395829
 21
201.43733647
 31
0.0
  0
LINE
  5
22F
100
AcDbEntity
  8
DIM49
100
AcDbLine
 10
738.84062505
 20
199.83733627
 30
0.0
 11
742.17395838
 21
199.83733647
 31
0.0
  0
LINE
  5
230
100
AcDbEntity
  8
DIM49
100
AcDbLine
 10
738.84062493
 20
201.83733627
 30
0.0
 11
740.04062493
 21
201.83733634
 31
0.0
  0
LINE
  5
231
100
AcDbEntity
  8
DIM49
100
AcDbLine
 10
738.84062507
 20
199.43733627
 30
0.0
 11
740.04062507
 21
199.43733634
 31
0.0
  0
LINE
  5
232
100
AcDbEntity
  8
DIM49
100
AcDbLine
 10
704.14062500
 20
200.63733421
 30
0.0
 11
738.64062500
 21
200.63733626
 31
0.0
  0
TEXT
  5
233
100
AcDbEntity
  8
TXT_DIM49
100
AcDbText
 10
710.49906176
 20
203.63733459
 30
0.0
 40
7.00000000
  1
50,5
 50
0.000003401
 41
0.812
 51
0.0
  7
MONOTXT
100
AcDbText
  0
ENDBLK
  5
234
100
AcDbEntity
  8
0
100
AcDbBlockEnd
  0
BLOCK
  5
235
100
AcDbEntity
  8
0
100
AcDbBlockBegin
  2
BEM_0007
 70
    64
 10
477.08715820
 20
407.34490967
 30
0.0
  3
BEM_0007
  0
LINE
  5
236
100
AcDbEntity
  8
DIM49
100
AcDbLine
 10
477.08715820
 20
471.34490967
 30
0.0
 11
477.08715820
 21
407.34490967
 31
0.0
  0
LINE
  5
237
100
AcDbEntity
  8
DIM49
100
AcDbLine
 10
477.08715820
 20
467.34490967
 30
0.0
 11
485.08715820
 21
468.84490967
 31
0.0
  0
LINE
  5
238
100
AcDbEntity
  8
DIM49
100
AcDbLine
 10
485.08715820
 20
468.84490967
 30
0.0
 11
485.08715820
 21
465.84490967
 31
0.0
  0
LINE
  5
239
100
AcDbEntity
  8
DIM49
100
AcDbLine
 10
485.08715820
 20
465.84490967
 30
0.0
 11
477.08715820
 21
467.34490967
 31
0.0
  0
LINE
  5
23A
100
AcDbEntity
  8
DIM49
100
AcDbLine
 10
484.88715820
 20
467.34490967
 30
0.0
 11
477.28715820
 21
467.34490967
 31
0.0
  0
LINE
  5
23B
100
AcDbEntity
  8
DIM49
100
AcDbLine
 10
484.88715820
 20
466.94490967
 30
0.0
 11
479.42049154
 21
466.94490967
 31
0.0
  0
LINE
  5
23C
100
AcDbEntity
  8
DIM49
100
AcDbLine
 10
484.88715820
 20
467.74490967
 30
0.0
 11
479.42049154
 21
467.74490967
 31
0.0
  0
LINE
  5
23D
100
AcDbEntity
  8
DIM49
100
AcDbLine
 10
484.88715820
 20
466.54490967
 30
0.0
 11
481.55382487
 21
466.54490967
 31
0.0
  0
LINE
  5
23E
100
AcDbEntity
  8
DIM49
100
AcDbLine
 10
484.88715820
 20
468.14490967
 30
0.0
 11
481.55382487
 21
468.14490967
 31
0.0
  0
LINE
  5
23F
100
AcDbEntity
  8
DIM49
100
AcDbLine
 10
484.88715820
 20
466.14490967
 30
0.0
 11
483.68715820
 21
466.14490967
 31
0.0
  0
LINE
  5
240
100
AcDbEntity
  8
DIM49
100
AcDbLine
 10
484.88715820
 20
468.54490967
 30
0.0
 11
483.68715820
 21
468.54490967
 31
0.0
  0
LINE
  5
241
100
AcDbEntity
  8
DIM49
100
AcDbLine
 10
597.08715820
 20
471.34490967
 30
0.0
 11
597.08715820
 21
345.41876221
 31
0.0
  0
LINE
  5
242
100
AcDbEntity
  8
DIM49
100
AcDbLine
 10
597.08715820
 20
467.34490967
 30
0.0
 11
589.08715820
 21
465.84490967
 31
0.0
  0
LINE
  5
243
100
AcDbEntity
  8
DIM49
100
AcDbLine
 10
589.08715820
 20
465.84490967
 30
0.0
 11
589.08715820
 21
468.84490967
 31
0.0
  0
LINE
  5
244
100
AcDbEntity
  8
DIM49
100
AcDbLine
 10
589.08715820
 20
468.84490967
 30
0.0
 11
597.08715820
 21
467.34490967
 31
0.0
  0
LINE
  5
245
100
AcDbEntity
  8
DIM49
100
AcDbLine
 10
589.28715820
 20
467.34490967
 30
0.0
 11
596.88715820
 21
467.34490967
 31
0.0
  0
LINE
  5
246
100
AcDbEntity
  8
DIM49
100
AcDbLine
 10
589.28715820
 20
467.74490967
 30
0.0
 11
594.75382487
 21
467.74490967
 31
0.0
  0
LINE
  5
247
100
AcDbEntity
  8
DIM49
100
AcDbLine
 10
589.28715820
 20
466.94490967
 30
0.0
 11
594.75382487
 21
466.94490967
 31
0.0
  0
LINE
  5
248
100
AcDbEntity
  8
DIM49
100
AcDbLine
 10
589.28715820
 20
468.14490967
 30
0.0
 11
592.62049154
 21
468.14490967
 31
0.0
  0
LINE
  5
249
100
AcDbEntity
  8
DIM49
100
AcDbLine
 10
589.28715820
 20
466.54490967
 30
0.0
 11
592.62049154
 21
466.54490967
 31
0.0
  0
LINE
  5
24A
100
AcDbEntity
  8
DIM49
100
AcDbLine
 10
589.28715820
 20
468.54490967
 30
0.0
 11
590.48715820
 21
468.54490967
 31
0.0
  0
LINE
  5
24B
100
AcDbEntity
  8
DIM49
100
AcDbLine
 10
589.28715820
 20
466.14490967
 30
0.0
 11
590.48715820
 21
466.14490967
 31
0.0
  0
LINE
  5
24C
100
AcDbEntity
  8
DIM49
100
AcDbLine
 10
485.08715820
 20
467.34490967
 30
0.0
 11
589.08715820
 21
467.34490967
 31
0.0
  0
TEXT
  5
24D
100
AcDbEntity
  8
TXT_DIM49
100
AcDbText
 10
527.78922821
 20
470.34490967
 30
0.0
 40
7.00000000
  1
120
 50
0.0
 41
0.812
 51
0.0
  7
MONOTXT
100
AcDbText
  0
ENDBLK
  5
24E
100
AcDbEntity
  8
0
100
AcDbBlockEnd
  0
BLOCK
  5
24F
100
AcDbEntity
  8
0
100
AcDbBlockBegin
  2
BEM_0008
 70
    64
 10
477.08715820
 20
407.34490967
 30
0.0
  3
BEM_0008
  0
LINE
  5
250
100
AcDbEntity
  8
DIM49
100
AcDbLine
 10
477.08715820
 20
453.09490967
 30
0.0
 11
477.08715820
 21
411.34490967
 31
0.0
  0
LINE
  5
251
100
AcDbEntity
  8
DIM49
100
AcDbLine
 10
477.08715820
 20
449.09490967
 30
0.0
 11
469.08715820
 21
450.59490967
 31
0.0
  0
LINE
  5
252
100
AcDbEntity
  8
DIM49
100
AcDbLine
 10
469.08715820
 20
450.59490967
 30
0.0
 11
469.08715820
 21
447.59490967
 31
0.0
  0
LINE
  5
253
100
AcDbEntity
  8
DIM49
100
AcDbLine
 10
469.08715820
 20
447.59490967
 30
0.0
 11
477.08715820
 21
449.09490967
 31
0.0
  0
LINE
  5
254
100
AcDbEntity
  8
DIM49
100
AcDbLine
 10
469.28715820
 20
449.09490967
 30
0.0
 11
476.88715820
 21
449.09490967
 31
0.0
  0
LINE
  5
255
100
AcDbEntity
  8
DIM49
100
AcDbLine
 10
469.28715820
 20
449.49490967
 30
0.0
 11
474.75382487
 21
449.49490967
 31
0.0
  0
LINE
  5
256
100
AcDbEntity
  8
DIM49
100
AcDbLine
 10
469.28715820
 20
448.69490967
 30
0.0
 11
474.75382487
 21
448.69490967
 31
0.0
  0
LINE
  5
257
100
AcDbEntity
  8
DIM49
100
AcDbLine
 10
469.28715820
 20
449.89490967
 30
0.0
 11
472.62049154
 21
449.89490967
 31
0.0
  0
LINE
  5
258
100
AcDbEntity
  8
DIM49
100
AcDbLine
 10
469.28715820
 20
448.29490967
 30
0.0
 11
472.62049154
 21
448.29490967
 31
0.0
  0
LINE
  5
259
100
AcDbEntity
  8
DIM49
100
AcDbLine
 10
469.28715820
 20
450.29490967
 30
0.0
 11
470.48715820
 21
450.29490967
 31
0.0
  0
LINE
  5
25A
100
AcDbEntity
  8
DIM49
100
AcDbLine
 10
469.28715820
 20
447.89490967
 30
0.0
 11
470.48715820
 21
447.89490967
 31
0.0
  0
LINE
  5
25B
100
AcDbEntity
  8
DIM49
100
AcDbLine
 10
469.08715820
 20
449.09490967
 30
0.0
 11
461.08715820
 21
449.09490967
 31
0.0
  0
LINE
  5
25C
100
AcDbEntity
  8
DIM49
100
AcDbLine
 10
494.08718872
 20
453.09490966
 30
0.0
 11
494.08718872
 21
413.09490966
 31
0.0
  0
LINE
  5
25D
100
AcDbEntity
  8
DIM49
100
AcDbLine
 10
494.08718872
 20
449.09490966
 30
0.0
 11
502.08718872
 21
447.59490966
 31
0.0
  0
LINE
  5
25E
100
AcDbEntity
  8
DIM49
100
AcDbLine
 10
502.08718872
 20
447.59490966
 30
0.0
 11
502.08718872
 21
450.59490966
 31
0.0
  0
LINE
  5
25F
100
AcDbEntity
  8
DIM49
100
AcDbLine
 10
502.08718872
 20
450.59490966
 30
0.0
 11
494.08718872
 21
449.09490966
 31
0.0
  0
LINE
  5
260
100
AcDbEntity
  8
DIM49
100
AcDbLine
 10
501.88718872
 20
449.09490966
 30
0.0
 11
494.28718872
 21
449.09490966
 31
0.0
  0
LINE
  5
261
100
AcDbEntity
  8
DIM49
100
AcDbLine
 10
501.88718872
 20
448.69490966
 30
0.0
 11
496.42052205
 21
448.69490966
 31
0.0
  0
LINE
  5
262
100
AcDbEntity
  8
DIM49
100
AcDbLine
 10
501.88718872
 20
449.49490966
 30
0.0
 11
496.42052205
 21
449.49490966
 31
0.0
  0
LINE
  5
263
100
AcDbEntity
  8
DIM49
100
AcDbLine
 10
501.88718872
 20
448.29490966
 30
0.0
 11
498.55385539
 21
448.29490966
 31
0.0
  0
LINE
  5
264
100
AcDbEntity
  8
DIM49
100
AcDbLine
 10
501.88718872
 20
449.89490966
 30
0.0
 11
498.55385539
 21
449.89490966
 31
0.0
  0
LINE
  5
265
100
AcDbEntity
  8
DIM49
100
AcDbLine
 10
501.88718872
 20
447.89490966
 30
0.0
 11
500.68718872
 21
447.89490966
 31
0.0
  0
LINE
  5
266
100
AcDbEntity
  8
DIM49
100
AcDbLine
 10
501.88718872
 20
450.29490966
 30
0.0
 11
500.68718872
 21
450.29490966
 31
0.0
  0
LINE
  5
267
100
AcDbEntity
  8
DIM49
100
AcDbLine
 10
502.08718872
 20
449.09490966
 30
0.0
 11
516.05337341
 21
449.09490966
 31
0.0
  0
LINE
  5
268
100
AcDbEntity
  8
DIM49
100
AcDbLine
 10
477.08715820
 20
449.09490967
 30
0.0
 11
494.08718872
 21
449.09490966
 31
0.0
  0
TEXT
  5
269
100
AcDbEntity
  8
TXT_DIM49
100
AcDbText
 10
505.64524841
 20
452.09490966
 30
0.0
 40
7.00000000
  1
17
 50
359.999999987
 41
0.812
 51
0.0
  7
MONOTXT
100
AcDbText
  0
ENDBLK
  5
26A
100
AcDbEntity
  8
0
100
AcDbBlockEnd
  0
BLOCK
  5
26B
100
AcDbEntity
  8
0
100
AcDbBlockBegin
  2
BEM_0009
 70
    64
 10
39.58715057
 20
409.09490965
 30
0.0
  3
BEM_0009
  0
LINE
  5
26C
100
AcDbEntity
  8
DIM49
100
AcDbLine
 10
39.58715057
 20
453.09490965
 30
0.0
 11
39.58715057
 21
413.09490965
 31
0.0
  0
LINE
  5
26D
100
AcDbEntity
  8
DIM49
100
AcDbLine
 10
39.58715057
 20
449.09490965
 30
0.0
 11
31.58715055
 21
450.59490954
 31
0.0
  0
LINE
  5
26E
100
AcDbEntity
  8
DIM49
100
AcDbLine
 10
31.58715055
 20
450.59490954
 30
0.0
 11
31.58715059
 21
447.59490954
 31
0.0
  0
LINE
  5
26F
100
AcDbEntity
  8
DIM49
100
AcDbLine
 10
31.58715059
 20
447.59490954
 30
0.0
 11
39.58715057
 21
449.09490965
 31
0.0
  0
LINE
  5
270
100
AcDbEntity
  8
DIM49
100
AcDbLine
 10
31.78715057
 20
449.09490954
 30
0.0
 11
39.38715057
 21
449.09490964
 31
0.0
  0
LINE
  5
271
100
AcDbEntity
  8
DIM49
100
AcDbLine
 10
31.78715057
 20
449.49490954
 30
0.0
 11
37.25381724
 21
449.49490961
 31
0.0
  0
LINE
  5
272
100
AcDbEntity
  8
DIM49
100
AcDbLine
 10
31.78715058
 20
448.69490954
 30
0.0
 11
37.25381725
 21
448.69490961
 31
0.0
  0
LINE
  5
273
100
AcDbEntity
  8
DIM49
100
AcDbLine
 10
31.78715056
 20
449.89490954
 30
0.0
 11
35.12048390
 21
449.89490959
 31
0.0
  0
LINE
  5
274
100
AcDbEntity
  8
DIM49
100
AcDbLine
 10
31.78715058
 20
448.29490954
 30
0.0
 11
35.12048392
 21
448.29490959
 31
0.0
  0
LINE
  5
275
100
AcDbEntity
  8
DIM49
100
AcDbLine
 10
31.78715056
 20
450.29490954
 30
0.0
 11
32.98715056
 21
450.29490956
 31
0.0
  0
LINE
  5
276
100
AcDbEntity
  8
DIM49
100
AcDbLine
 10
31.78715059
 20
447.89490954
 30
0.0
 11
32.98715059
 21
447.89490956
 31
0.0
  0
LINE
  5
277
100
AcDbEntity
  8
DIM49
100
AcDbLine
 10
31.58715057
 20
449.09490954
 30
0.0
 11
23.58715057
 21
449.09490943
 31
0.0
  0
LINE
  5
278
100
AcDbEntity
  8
DIM49
100
AcDbLine
 10
48.58715057
 20
453.09490977
 30
0.0
 11
48.58715057
 21
411.34490977
 31
0.0
  0
LINE
  5
279
100
AcDbEntity
  8
DIM49
100
AcDbLine
 10
48.58715057
 20
449.09490977
 30
0.0
 11
56.58715059
 21
447.59490987
 31
0.0
  0
LINE
  5
27A
100
AcDbEntity
  8
DIM49
100
AcDbLine
 10
56.58715059
 20
447.59490987
 30
0.0
 11
56.58715055
 21
450.59490987
 31
0.0
  0
LINE
  5
27B
100
AcDbEntity
  8
DIM49
100
AcDbLine
 10
56.58715055
 20
450.59490987
 30
0.0
 11
48.58715057
 21
449.09490977
 31
0.0
  0
LINE
  5
27C
100
AcDbEntity
  8
DIM49
100
AcDbLine
 10
56.38715057
 20
449.09490987
 30
0.0
 11
48.78715057
 21
449.09490977
 31
0.0
  0
LINE
  5
27D
100
AcDbEntity
  8
DIM49
100
AcDbLine
 10
56.38715058
 20
448.69490987
 30
0.0
 11
50.92048391
 21
448.69490980
 31
0.0
  0
LINE
  5
27E
100
AcDbEntity
  8
DIM49
100
AcDbLine
 10
56.38715057
 20
449.49490987
 30
0.0
 11
50.92048390
 21
449.49490980
 31
0.0
  0
LINE
  5
27F
100
AcDbEntity
  8
DIM49
100
AcDbLine
 10
56.38715058
 20
448.29490987
 30
0.0
 11
53.05381725
 21
448.29490983
 31
0.0
  0
LINE
  5
280
100
AcDbEntity
  8
DIM49
100
AcDbLine
 10
56.38715056
 20
449.89490987
 30
0.0
 11
53.05381723
 21
449.89490983
 31
0.0
  0
LINE
  5
281
100
AcDbEntity
  8
DIM49
100
AcDbLine
 10
56.38715059
 20
447.89490987
 30
0.0
 11
55.18715059
 21
447.89490986
 31
0.0
  0
LINE
  5
282
100
AcDbEntity
  8
DIM49
100
AcDbLine
 10
56.38715056
 20
450.29490987
 30
0.0
 11
55.18715056
 21
450.29490986
 31
0.0
  0
LINE
  5
283
100
AcDbEntity
  8
DIM49
100
AcDbLine
 10
56.58715057
 20
449.09490987
 30
0.0
 11
64.58715057
 21
449.09490998
 31
0.0
  0
LINE
  5
284
100
AcDbEntity
  8
DIM49
100
AcDbLine
 10
39.58715057
 20
449.09490965
 30
0.0
 11
48.58715057
 21
449.09490977
 31
0.0
  0
TEXT
  5
285
100
AcDbEntity
  8
TXT_DIM49
100
AcDbText
 10
25.16652572
 20
452.09490945
 30
0.0
 40
7.00000000
  1
9
 50
0.000000768
 41
0.812
 51
0.0
  7
MONOTXT
100
AcDbText
  0
ENDBLK
  5
286
100
AcDbEntity
  8
0
100
AcDbBlockEnd
  0
BLOCK
  5
287
100
AcDbEntity
  8
0
100
AcDbBlockBegin
  2
BEM_0010
 70
    64
 10
461.08718872
 20
335.84487915
 30
0.0
  3
BEM_0010
  0
LINE
  5
288
100
AcDbEntity
  8
DIM49
100
AcDbLine
 10
532.03494263
 20
335.84487915
 30
0.0
 11
461.08718872
 21
335.84487915
 31
0.0
  0
LINE
  5
289
100
AcDbEntity
  8
DIM49
100
AcDbLine
 10
528.03494263
 20
335.84487915
 30
0.0
 11
526.53494263
 21
343.84487915
 31
0.0
  0
LINE
  5
28A
100
AcDbEntity
  8
DIM49
100
AcDbLine
 10
526.53494263
 20
343.84487915
 30
0.0
 11
529.53494263
 21
343.84487915
 31
0.0
  0
LINE
  5
28B
100
AcDbEntity
  8
DIM49
100
AcDbLine
 10
529.53494263
 20
343.84487915
 30
0.0
 11
528.03494263
 21
335.84487915
 31
0.0
  0
LINE
  5
28C
100
AcDbEntity
  8
DIM49
100
AcDbLine
 10
528.03494263
 20
343.64487915
 30
0.0
 11
528.03494263
 21
336.04487915
 31
0.0
  0
LINE
  5
28D
100
AcDbEntity
  8
DIM49
100
AcDbLine
 10
528.43494263
 20
343.64487915
 30
0.0
 11
528.43494263
 21
338.17821248
 31
0.0
  0
LINE
  5
28E
100
AcDbEntity
  8
DIM49
100
AcDbLine
 10
527.63494263
 20
343.64487915
 30
0.0
 11
527.63494263
 21
338.17821248
 31
0.0
  0
LINE
  5
28F
100
AcDbEntity
  8
DIM49
100
AcDbLine
 10
528.83494263
 20
343.64487915
 30
0.0
 11
528.83494263
 21
340.31154582
 31
0.0
  0
LINE
  5
290
100
AcDbEntity
  8
DIM49
100
AcDbLine
 10
527.23494263
 20
343.64487915
 30
0.0
 11
527.23494263
 21
340.31154582
 31
0.0
  0
LINE
  5
291
100
AcDbEntity
  8
DIM49
100
AcDbLine
 10
529.23494263
 20
343.64487915
 30
0.0
 11
529.23494263
 21
342.44487915
 31
0.0
  0
LINE
  5
292
100
AcDbEntity
  8
DIM49
100
AcDbLine
 10
526.83494263
 20
343.64487915
 30
0.0
 11
526.83494263
 21
342.44487915
 31
0.0
  0
LINE
  5
293
100
AcDbEntity
  8
DIM49
100
AcDbLine
 10
532.03494263
 20
377.84490967
 30
0.0
 11
461.08718872
 21
377.84490967
 31
0.0
  0
LINE
  5
294
100
AcDbEntity
  8
DIM49
100
AcDbLine
 10
528.03494263
 20
377.84490967
 30
0.0
 11
529.53494263
 21
369.84490967
 31
0.0
  0
LINE
  5
295
100
AcDbEntity
  8
DIM49
100
AcDbLine
 10
529.53494263
 20
369.84490967
 30
0.0
 11
526.53494263
 21
369.84490967
 31
0.0
  0
LINE
  5
296
100
AcDbEntity
  8
DIM49
100
AcDbLine
 10
526.53494263
 20
369.84490967
 30
0.0
 11
528.03494263
 21
377.84490967
 31
0.0
  0
LINE
  5
297
100
AcDbEntity
  8
DIM49
100
AcDbLine
 10
528.03494263
 20
370.04490967
 30
0.0
 11
528.03494263
 21
377.64490967
 31
0.0
  0
LINE
  5
298
100
AcDbEntity
  8
DIM49
100
AcDbLine
 10
527.63494263
 20
370.04490967
 30
0.0
 11
527.63494263
 21
375.51157633
 31
0.0
  0
LINE
  5
299
100
AcDbEntity
  8
DIM49
100
AcDbLine
 10
528.43494263
 20
370.04490967
 30
0.0
 11
528.43494263
 21
375.51157633
 31
0.0
  0
LINE
  5
29A
100
AcDbEntity
  8
DIM49
100
AcDbLine
 10
527.23494263
 20
370.04490967
 30
0.0
 11
527.23494263
 21
373.37824300
 31
0.0
  0
LINE
  5
29B
100
AcDbEntity
  8
DIM49
100
AcDbLine
 10
528.83494263
 20
370.04490967
 30
0.0
 11
528.83494263
 21
373.37824300
 31
0.0
  0
LINE
  5
29C
100
AcDbEntity
  8
DIM49
100
AcDbLine
 10
526.83494263
 20
370.04490967
 30
0.0
 11
526.83494263
 21
371.24490967
 31
0.0
  0
LINE
  5
29D
100
AcDbEntity
  8
DIM49
100
AcDbLine
 10
529.23494263
 20
370.04490967
 30
0.0
 11
529.23494263
 21
371.24490967
 31
0.0
  0
LINE
  5
29E
100
AcDbEntity
  8
DIM49
100
AcDbLine
 10
528.03494263
 20
343.84487915
 30
0.0
 11
528.03494263
 21
369.84490967
 31
0.0
  0
TEXT
  5
29F
100
AcDbEntity
  8
TXT_DIM49
100
AcDbText
 10
525.03494263
 20
342.13471226
 30
0.0
 40
7.00000000
  1
42
 50
90.000000000
 41
0.812
 51
0.0
  7
MONOTXT
100
AcDbText
  0
TEXT
  5
2A0
100
AcDbEntity
  8
TXT_ALL
100
AcDbText
 62
     1
 10
525.03494263
 20
355.54283726
 30
0.0
 40
5.00000000
  1
+1,0
 50
90.000000000
 41
0.812
 51
0.0
  7
MONOTXT
100
AcDbText
  0
ENDBLK
  5
2A1
100
AcDbEntity
  8
0
100
AcDbBlockEnd
  0
BLOCK
  5
2A2
100
AcDbEntity
  8
0
100
AcDbBlockBegin
  2
BEM_0011
 70
    64
 10
461.08718872
 20
319.84487915
 30
0.0
  3
BEM_0011
  0
LINE
  5
2A3
100
AcDbEntity
  8
DIM49
100
AcDbLine
 10
513.13763809
 20
319.84487915
 30
0.0
 11
461.08718872
 21
319.84487915
 31
0.0
  0
LINE
  5
2A4
100
AcDbEntity
  8
DIM49
100
AcDbLine
 10
509.13763809
 20
319.84487915
 30
0.0
 11
507.63763809
 21
311.84487915
 31
0.0
  0
LINE
  5
2A5
100
AcDbEntity
  8
DIM49
100
AcDbLine
 10
507.63763809
 20
311.84487915
 30
0.0
 11
510.63763809
 21
311.84487915
 31
0.0
  0
LINE
  5
2A6
100
AcDbEntity
  8
DIM49
100
AcDbLine
 10
510.63763809
 20
311.84487915
 30
0.0
 11
509.13763809
 21
319.84487915
 31
0.0
  0
LINE
  5
2A7
100
AcDbEntity
  8
DIM49
100
AcDbLine
 10
509.13763809
 20
312.04487915
 30
0.0
 11
509.13763809
 21
319.64487915
 31
0.0
  0
LINE
  5
2A8
100
AcDbEntity
  8
DIM49
100
AcDbLine
 10
508.73763809
 20
312.04487915
 30
0.0
 11
508.73763809
 21
317.51154582
 31
0.0
  0
LINE
  5
2A9
100
AcDbEntity
  8
DIM49
100
AcDbLine
 10
509.53763809
 20
312.04487915
 30
0.0
 11
509.53763809
 21
317.51154582
 31
0.0
  0
LINE
  5
2AA
100
AcDbEntity
  8
DIM49
100
AcDbLine
 10
508.33763809
 20
312.04487915
 30
0.0
 11
508.33763809
 21
315.37821248
 31
0.0
  0
LINE
  5
2AB
100
AcDbEntity
  8
DIM49
100
AcDbLine
 10
509.93763809
 20
312.04487915
 30
0.0
 11
509.93763809
 21
315.37821248
 31
0.0
  0
LINE
  5
2AC
100
AcDbEntity
  8
DIM49
100
AcDbLine
 10
507.93763809
 20
312.04487915
 30
0.0
 11
507.93763809
 21
313.24487915
 31
0.0
  0
LINE
  5
2AD
100
AcDbEntity
  8
DIM49
100
AcDbLine
 10
510.33763809
 20
312.04487915
 30
0.0
 11
510.33763809
 21
313.24487915
 31
0.0
  0
LINE
  5
2AE
100
AcDbEntity
  8
DIM49
100
AcDbLine
 10
509.13763809
 20
311.84487915
 30
0.0
 11
509.13763809
 21
295.29777710
 31
0.0
  0
LINE
  5
2AF
100
AcDbEntity
  8
DIM49
100
AcDbLine
 10
513.13763809
 20
335.84487915
 30
0.0
 11
461.08718872
 21
335.84487915
 31
0.0
  0
LINE
  5
2B0
100
AcDbEntity
  8
DIM49
100
AcDbLine
 10
509.13763809
 20
335.84487915
 30
0.0
 11
510.63763809
 21
343.84487915
 31
0.0
  0
LINE
  5
2B1
100
AcDbEntity
  8
DIM49
100
AcDbLine
 10
510.63763809
 20
343.84487915
 30
0.0
 11
507.63763809
 21
343.84487915
 31
0.0
  0
LINE
  5
2B2
100
AcDbEntity
  8
DIM49
100
AcDbLine
 10
507.63763809
 20
343.84487915
 30
0.0
 11
509.13763809
 21
335.84487915
 31
0.0
  0
LINE
  5
2B3
100
AcDbEntity
  8
DIM49
100
AcDbLine
 10
509.13763809
 20
343.64487915
 30
0.0
 11
509.13763809
 21
336.04487915
 31
0.0
  0
LINE
  5
2B4
100
AcDbEntity
  8
DIM49
100
AcDbLine
 10
509.53763809
 20
343.64487915
 30
0.0
 11
509.53763809
 21
338.17821248
 31
0.0
  0
LINE
  5
2B5
100
AcDbEntity
  8
DIM49
100
AcDbLine
 10
508.73763809
 20
343.64487915
 30
0.0
 11
508.73763809
 21
338.17821248
 31
0.0
  0
LINE
  5
2B6
100
AcDbEntity
  8
DIM49
100
AcDbLine
 10
509.93763809
 20
343.64487915
 30
0.0
 11
509.93763809
 21
340.31154582
 31
0.0
  0
LINE
  5
2B7
100
AcDbEntity
  8
DIM49
100
AcDbLine
 10
508.33763809
 20
343.64487915
 30
0.0
 11
508.33763809
 21
340.31154582
 31
0.0
  0
LINE
  5
2B8
100
AcDbEntity
  8
DIM49
100
AcDbLine
 10
510.33763809
 20
343.64487915
 30
0.0
 11
510.33763809
 21
342.44487915
 31
0.0
  0
LINE
  5
2B9
100
AcDbEntity
  8
DIM49
100
AcDbLine
 10
507.93763809
 20
343.64487915
 30
0.0
 11
507.93763809
 21
342.44487915
 31
0.0
  0
LINE
  5
2BA
100
AcDbEntity
  8
DIM49
100
AcDbLine
 10
509.13763809
 20
343.84487915
 30
0.0
 11
509.13763809
 21
351.84487915
 31
0.0
  0
LINE
  5
2BB
100
AcDbEntity
  8
DIM49
100
AcDbLine
 10
509.13763809
 20
319.84487915
 30
0.0
 11
509.13763809
 21
335.84487915
 31
0.0
  0
TEXT
  5
2BC
100
AcDbEntity
  8
TXT_DIM49
100
AcDbText
 10
506.13763809
 20
295.29777710
 30
0.0
 40
7.00000000
  1
16
 50
90.000000000
 41
0.812
 51
0.0
  7
MONOTXT
100
AcDbText
  0
ENDBLK
  5
2BD
100
AcDbEntity
  8
0
100
AcDbBlockEnd
  0
BLOCK
  5
2BE
100
AcDbEntity
  8
0
100
AcDbBlockBegin
  2
BEM_0012
 70
    64
 10
461.08718872
 20
335.84487915
 30
0.0
  3
BEM_0012
  0
LINE
  5
2BF
100
AcDbEntity
  8
DIM49
100
AcDbLine
 10
555.58718872
 20
335.84487915
 30
0.0
 11
461.08718872
 21
335.84487915
 31
0.0
  0
LINE
  5
2C0
100
AcDbEntity
  8
DIM49
100
AcDbLine
 10
551.58718872
 20
335.84487915
 30
0.0
 11
550.08718872
 21
343.84487915
 31
0.0
  0
LINE
  5
2C1
100
AcDbEntity
  8
DIM49
100
AcDbLine
 10
550.08718872
 20
343.84487915
 30
0.0
 11
553.08718872
 21
343.84487915
 31
0.0
  0
LINE
  5
2C2
100
AcDbEntity
  8
DIM49
100
AcDbLine
 10
553.08718872
 20
343.84487915
 30
0.0
 11
551.58718872
 21
335.84487915
 31
0.0
  0
LINE
  5
2C3
100
AcDbEntity
  8
DIM49
100
AcDbLine
 10
551.58718872
 20
343.64487915
 30
0.0
 11
551.58718872
 21
336.04487915
 31
0.0
  0
LINE
  5
2C4
100
AcDbEntity
  8
DIM49
100
AcDbLine
 10
551.98718872
 20
343.64487915
 30
0.0
 11
551.98718872
 21
338.17821248
 31
0.0
  0
LINE
  5
2C5
100
AcDbEntity
  8
DIM49
100
AcDbLine
 10
551.18718872
 20
343.64487915
 30
0.0
 11
551.18718872
 21
338.17821248
 31
0.0
  0
LINE
  5
2C6
100
AcDbEntity
  8
DIM49
100
AcDbLine
 10
552.38718872
 20
343.64487915
 30
0.0
 11
552.38718872
 21
340.31154582
 31
0.0
  0
LINE
  5
2C7
100
AcDbEntity
  8
DIM49
100
AcDbLine
 10
550.78718872
 20
343.64487915
 30
0.0
 11
550.78718872
 21
340.31154582
 31
0.0
  0
LINE
  5
2C8
100
AcDbEntity
  8
DIM49
100
AcDbLine
 10
552.78718872
 20
343.64487915
 30
0.0
 11
552.78718872
 21
342.44487915
 31
0.0
  0
LINE
  5
2C9
100
AcDbEntity
  8
DIM49
100
AcDbLine
 10
550.38718872
 20
343.64487915
 30
0.0
 11
550.38718872
 21
342.44487915
 31
0.0
  0
LINE
  5
2CA
100
AcDbEntity
  8
DIM49
100
AcDbLine
 10
555.58718872
 20
400.84490967
 30
0.0
 11
491.58718872
 21
400.84490967
 31
0.0
  0
LINE
  5
2CB
100
AcDbEntity
  8
DIM49
100
AcDbLine
 10
551.58718872
 20
400.84490967
 30
0.0
 11
553.08718872
 21
392.84490967
 31
0.0
  0
LINE
  5
2CC
100
AcDbEntity
  8
DIM49
100
AcDbLine
 10
553.08718872
 20
392.84490967
 30
0.0
 11
550.08718872
 21
392.84490967
 31
0.0
  0
LINE
  5
2CD
100
AcDbEntity
  8
DIM49
100
AcDbLine
 10
550.08718872
 20
392.84490967
 30
0.0
 11
551.58718872
 21
400.84490967
 31
0.0
  0
LINE
  5
2CE
100
AcDbEntity
  8
DIM49
100
AcDbLine
 10
551.58718872
 20
393.04490967
 30
0.0
 11
551.58718872
 21
400.64490967
 31
0.0
  0
LINE
  5
2CF
100
AcDbEntity
  8
DIM49
100
AcDbLine
 10
551.18718872
 20
393.04490967
 30
0.0
 11
551.18718872
 21
398.51157633
 31
0.0
  0
LINE
  5
2D0
100
AcDbEntity
  8
DIM49
100
AcDbLine
 10
551.98718872
 20
393.04490967
 30
0.0
 11
551.98718872
 21
398.51157633
 31
0.0
  0
LINE
  5
2D1
100
AcDbEntity
  8
DIM49
100
AcDbLine
 10
550.78718872
 20
393.04490967
 30
0.0
 11
550.78718872
 21
396.37824300
 31
0.0
  0
LINE
  5
2D2
100
AcDbEntity
  8
DIM49
100
AcDbLine
 10
552.38718872
 20
393.04490967
 30
0.0
 11
552.38718872
 21
396.37824300
 31
0.0
  0
LINE
  5
2D3
100
AcDbEntity
  8
DIM49
100
AcDbLine
 10
550.38718872
 20
393.04490967
 30
0.0
 11
550.38718872
 21
394.24490967
 31
0.0
  0
LINE
  5
2D4
100
AcDbEntity
  8
DIM49
100
AcDbLine
 10
552.78718872
 20
393.04490967
 30
0.0
 11
552.78718872
 21
394.24490967
 31
0.0
  0
LINE
  5
2D5
100
AcDbEntity
  8
DIM49
100
AcDbLine
 10
551.58718872
 20
343.84487915
 30
0.0
 11
551.58718872
 21
392.84490967
 31
0.0
  0
TEXT
  5
2D6
100
AcDbEntity
  8
TXT_DIM49
100
AcDbText
 10
548.58718872
 20
343.00633420
 30
0.0
 40
7.00000000
  1
65
 50
90.000000000
 41
0.812
 51
0.0
  7
MONOTXT
100
AcDbText
  0
TEXT
  5
2D7
100
AcDbEntity
  8
TXT_ALL
100
AcDbText
 62
     1
 10
548.58718872
 20
356.41445920
 30
0.0
 40
5.00000000
  1
+1,0
 50
90.000000000
 41
0.812
 51
0.0
  7
MONOTXT
100
AcDbText
  0
ENDBLK
  5
2D8
100
AcDbEntity
  8
0
100
AcDbBlockEnd
  0
BLOCK
  5
2D9
100
AcDbEntity
  8
0
100
AcDbBlockBegin
  2
BEM_0013
 70
    64
 10
48.58715057
 20
407.34490977
 30
0.0
  3
BEM_0013
  0
LINE
  5
2DA
100
AcDbEntity
  8
DIM49
100
AcDbLine
 10
48.58715057
 20
453.09490977
 30
0.0
 11
48.58715057
 21
407.34490977
 31
0.0
  0
LINE
  5
2DB
100
AcDbEntity
  8
DIM49
100
AcDbLine
 10
48.58715057
 20
449.09490977
 30
0.0
 11
56.58715057
 21
450.59490977
 31
0.0
  0
LINE
  5
2DC
100
AcDbEntity
  8
DIM49
100
AcDbLine
 10
56.58715057
 20
450.59490977
 30
0.0
 11
56.58715057
 21
447.59490977
 31
0.0
  0
LINE
  5
2DD
100
AcDbEntity
  8
DIM49
100
AcDbLine
 10
56.58715057
 20
447.59490977
 30
0.0
 11
48.58715057
 21
449.09490977
 31
0.0
  0
LINE
  5
2DE
100
AcDbEntity
  8
DIM49
100
AcDbLine
 10
56.38715057
 20
449.09490977
 30
0.0
 11
48.78715057
 21
449.09490977
 31
0.0
  0
LINE
  5
2DF
100
AcDbEntity
  8
DIM49
100
AcDbLine
 10
56.38715057
 20
448.69490977
 30
0.0
 11
50.92048391
 21
448.69490977
 31
0.0
  0
LINE
  5
2E0
100
AcDbEntity
  8
DIM49
100
AcDbLine
 10
56.38715057
 20
449.49490977
 30
0.0
 11
50.92048391
 21
449.49490977
 31
0.0
  0
LINE
  5
2E1
100
AcDbEntity
  8
DIM49
100
AcDbLine
 10
56.38715057
 20
448.29490977
 30
0.0
 11
53.05381724
 21
448.29490977
 31
0.0
  0
LINE
  5
2E2
100
AcDbEntity
  8
DIM49
100
AcDbLine
 10
56.38715057
 20
449.89490977
 30
0.0
 11
53.05381724
 21
449.89490977
 31
0.0
  0
LINE
  5
2E3
100
AcDbEntity
  8
DIM49
100
AcDbLine
 10
56.38715057
 20
447.89490977
 30
0.0
 11
55.18715057
 21
447.89490977
 31
0.0
  0
LINE
  5
2E4
100
AcDbEntity
  8
DIM49
100
AcDbLine
 10
56.38715057
 20
450.29490977
 30
0.0
 11
55.18715057
 21
450.29490977
 31
0.0
  0
LINE
  5
2E5
100
AcDbEntity
  8
DIM49
100
AcDbLine
 10
477.08715820
 20
453.09490967
 30
0.0
 11
477.08715820
 21
407.34490967
 31
0.0
  0
LINE
  5
2E6
100
AcDbEntity
  8
DIM49
100
AcDbLine
 10
477.08715820
 20
449.09490967
 30
0.0
 11
469.08715820
 21
447.59490967
 31
0.0
  0
LINE
  5
2E7
100
AcDbEntity
  8
DIM49
100
AcDbLine
 10
469.08715820
 20
447.59490967
 30
0.0
 11
469.08715820
 21
450.59490967
 31
0.0
  0
LINE
  5
2E8
100
AcDbEntity
  8
DIM49
100
AcDbLine
 10
469.08715820
 20
450.59490967
 30
0.0
 11
477.08715820
 21
449.09490967
 31
0.0
  0
LINE
  5
2E9
100
AcDbEntity
  8
DIM49
100
AcDbLine
 10
469.28715820
 20
449.09490967
 30
0.0
 11
476.88715820
 21
449.09490967
 31
0.0
  0
LINE
  5
2EA
100
AcDbEntity
  8
DIM49
100
AcDbLine
 10
469.28715820
 20
449.49490967
 30
0.0
 11
474.75382487
 21
449.49490967
 31
0.0
  0
LINE
  5
2EB
100
AcDbEntity
  8
DIM49
100
AcDbLine
 10
469.28715820
 20
448.69490967
 30
0.0
 11
474.75382487
 21
448.69490967
 31
0.0
  0
LINE
  5
2EC
100
AcDbEntity
  8
DIM49
100
AcDbLine
 10
469.28715820
 20
449.89490967
 30
0.0
 11
472.62049154
 21
449.89490967
 31
0.0
  0
LINE
  5
2ED
100
AcDbEntity
  8
DIM49
100
AcDbLine
 10
469.28715820
 20
448.29490967
 30
0.0
 11
472.62049154
 21
448.29490967
 31
0.0
  0
LINE
  5
2EE
100
AcDbEntity
  8
DIM49
100
AcDbLine
 10
469.28715820
 20
450.29490967
 30
0.0
 11
470.48715820
 21
450.29490967
 31
0.0
  0
LINE
  5
2EF
100
AcDbEntity
  8
DIM49
100
AcDbLine
 10
469.28715820
 20
447.89490967
 30
0.0
 11
470.48715820
 21
447.89490967
 31
0.0
  0
LINE
  5
2F0
100
AcDbEntity
  8
DIM49
100
AcDbLine
 10
56.58715057
 20
449.09490977
 30
0.0
 11
469.08715820
 21
449.09490967
 31
0.0
  0
TEXT
  5
2F1
100
AcDbEntity
  8
TXT_DIM49
100
AcDbText
 10
249.10183710
 20
452.09490972
 30
0.0
 40
7.00000000
  1
428,5
 50
359.999999987
 41
0.812
 51
0.0
  7
MONOTXT
100
AcDbText
  0
ENDBLK
  5
2F2
100
AcDbEntity
  8
0
100
AcDbBlockEnd
  0
BLOCK
  5
2F3
100
AcDbEntity
  8
0
100
AcDbBlockBegin
  2
BEM_0014
 70
    64
 10
204.08718872
 20
309.34391726
 30
0.0
  3
BEM_0014
  0
LINE
  5
2F4
100
AcDbEntity
  8
DIM49
100
AcDbLine
 10
204.08718872
 20
285.34391726
 30
0.0
 11
204.08718872
 21
309.34391726
 31
0.0
  0
LINE
  5
2F5
100
AcDbEntity
  8
DIM49
100
AcDbLine
 10
204.08718872
 20
289.34391726
 30
0.0
 11
212.08718872
 21
290.84391726
 31
0.0
  0
LINE
  5
2F6
100
AcDbEntity
  8
DIM49
100
AcDbLine
 10
212.08718872
 20
290.84391726
 30
0.0
 11
212.08718872
 21
287.84391726
 31
0.0
  0
LINE
  5
2F7
100
AcDbEntity
  8
DIM49
100
AcDbLine
 10
212.08718872
 20
287.84391726
 30
0.0
 11
204.08718872
 21
289.34391726
 31
0.0
  0
LINE
  5
2F8
100
AcDbEntity
  8
DIM49
100
AcDbLine
 10
211.88718872
 20
289.34391726
 30
0.0
 11
204.28718872
 21
289.34391726
 31
0.0
  0
LINE
  5
2F9
100
AcDbEntity
  8
DIM49
100
AcDbLine
 10
211.88718872
 20
288.94391726
 30
0.0
 11
206.42052205
 21
288.94391726
 31
0.0
  0
LINE
  5
2FA
100
AcDbEntity
  8
DIM49
100
AcDbLine
 10
211.88718872
 20
289.74391726
 30
0.0
 11
206.42052205
 21
289.74391726
 31
0.0
  0
LINE
  5
2FB
100
AcDbEntity
  8
DIM49
100
AcDbLine
 10
211.88718872
 20
288.54391726
 30
0.0
 11
208.55385539
 21
288.54391726
 31
0.0
  0
LINE
  5
2FC
100
AcDbEntity
  8
DIM49
100
AcDbLine
 10
211.88718872
 20
290.14391726
 30
0.0
 11
208.55385539
 21
290.14391726
 31
0.0
  0
LINE
  5
2FD
100
AcDbEntity
  8
DIM49
100
AcDbLine
 10
211.88718872
 20
288.14391726
 30
0.0
 11
210.68718872
 21
288.14391726
 31
0.0
  0
LINE
  5
2FE
100
AcDbEntity
  8
DIM49
100
AcDbLine
 10
211.88718872
 20
290.54391726
 30
0.0
 11
210.68718872
 21
290.54391726
 31
0.0
  0
LINE
  5
2FF
100
AcDbEntity
  8
DIM49
100
AcDbLine
 10
494.08718872
 20
285.34391726
 30
0.0
 11
494.08718872
 21
309.34391726
 31
0.0
  0
LINE
  5
300
100
AcDbEntity
  8
DIM49
100
AcDbLine
 10
494.08718872
 20
289.34391726
 30
0.0
 11
486.08718872
 21
287.84391726
 31
0.0
  0
LINE
  5
301
100
AcDbEntity
  8
DIM49
100
AcDbLine
 10
486.08718872
 20
287.84391726
 30
0.0
 11
486.08718872
 21
290.84391726
 31
0.0
  0
LINE
  5
302
100
AcDbEntity
  8
DIM49
100
AcDbLine
 10
486.08718872
 20
290.84391726
 30
0.0
 11
494.08718872
 21
289.34391726
 31
0.0
  0
LINE
  5
303
100
AcDbEntity
  8
DIM49
100
AcDbLine
 10
486.28718872
 20
289.34391726
 30
0.0
 11
493.88718872
 21
289.34391726
 31
0.0
  0
LINE
  5
304
100
AcDbEntity
  8
DIM49
100
AcDbLine
 10
486.28718872
 20
289.74391726
 30
0.0
 11
491.75385539
 21
289.74391726
 31
0.0
  0
LINE
  5
305
100
AcDbEntity
  8
DIM49
100
AcDbLine
 10
486.28718872
 20
288.94391726
 30
0.0
 11
491.75385539
 21
288.94391726
 31
0.0
  0
LINE
  5
306
100
AcDbEntity
  8
DIM49
100
AcDbLine
 10
486.28718872
 20
290.14391726
 30
0.0
 11
489.62052205
 21
290.14391726
 31
0.0
  0
LINE
  5
307
100
AcDbEntity
  8
DIM49
100
AcDbLine
 10
486.28718872
 20
288.54391726
 30
0.0
 11
489.62052205
 21
288.54391726
 31
0.0
  0
LINE
  5
308
100
AcDbEntity
  8
DIM49
100
AcDbLine
 10
486.28718872
 20
290.54391726
 30
0.0
 11
487.48718872
 21
290.54391726
 31
0.0
  0
LINE
  5
309
100
AcDbEntity
  8
DIM49
100
AcDbLine
 10
486.28718872
 20
288.14391726
 30
0.0
 11
487.48718872
 21
288.14391726
 31
0.0
  0
LINE
  5
30A
100
AcDbEntity
  8
DIM49
100
AcDbLine
 10
212.08718872
 20
289.34391726
 30
0.0
 11
486.08718872
 21
289.34391726
 31
0.0
  0
TEXT
  5
30B
100
AcDbEntity
  8
TXT_DIM49
100
AcDbText
 10
341.03937298
 20
292.34391726
 30
0.0
 40
7.00000000
  1
290
 50
0.0
 41
0.812
 51
0.0
  7
MONOTXT
100
AcDbText
  0
ENDBLK
  5
30C
100
AcDbEntity
  8
0
100
AcDbBlockEnd
  0
BLOCK
  5
30D
100
AcDbEntity
  8
0
100
AcDbBlockBegin
  2
BEM_0015
 70
    64
 10
206.58718872
 20
306.84391726
 30
0.0
  3
BEM_0015
  0
LINE
  5
30E
100
AcDbEntity
  8
DIM49
100
AcDbLine
 10
182.58718872
 20
306.84391726
 30
0.0
 11
206.58718872
 21
306.84391726
 31
0.0
  0
LINE
  5
30F
100
AcDbEntity
  8
DIM49
100
AcDbLine
 10
186.58718872
 20
306.84391726
 30
0.0
 11
185.08718872
 21
314.84391726
 31
0.0
  0
LINE
  5
310
100
AcDbEntity
  8
DIM49
100
AcDbLine
 10
185.08718872
 20
314.84391726
 30
0.0
 11
188.08718872
 21
314.84391726
 31
0.0
  0
LINE
  5
311
100
AcDbEntity
  8
DIM49
100
AcDbLine
 10
188.08718872
 20
314.84391726
 30
0.0
 11
186.58718872
 21
306.84391726
 31
0.0
  0
LINE
  5
312
100
AcDbEntity
  8
DIM49
100
AcDbLine
 10
186.58718872
 20
314.64391726
 30
0.0
 11
186.58718872
 21
307.04391726
 31
0.0
  0
LINE
  5
313
100
AcDbEntity
  8
DIM49
100
AcDbLine
 10
186.98718872
 20
314.64391726
 30
0.0
 11
186.98718872
 21
309.17725059
 31
0.0
  0
LINE
  5
314
100
AcDbEntity
  8
DIM49
100
AcDbLine
 10
186.18718872
 20
314.64391726
 30
0.0
 11
186.18718872
 21
309.17725059
 31
0.0
  0
LINE
  5
315
100
AcDbEntity
  8
DIM49
100
AcDbLine
 10
187.38718872
 20
314.64391726
 30
0.0
 11
187.38718872
 21
311.31058392
 31
0.0
  0
LINE
  5
316
100
AcDbEntity
  8
DIM49
100
AcDbLine
 10
185.78718872
 20
314.64391726
 30
0.0
 11
185.78718872
 21
311.31058392
 31
0.0
  0
LINE
  5
317
100
AcDbEntity
  8
DIM49
100
AcDbLine
 10
187.78718872
 20
314.64391726
 30
0.0
 11
187.78718872
 21
313.44391726
 31
0.0
  0
LINE
  5
318
100
AcDbEntity
  8
DIM49
100
AcDbLine
 10
185.38718872
 20
314.64391726
 30
0.0
 11
185.38718872
 21
313.44391726
 31
0.0
  0
LINE
  5
319
100
AcDbEntity
  8
DIM49
100
AcDbLine
 10
182.58718872
 20
375.84391726
 30
0.0
 11
206.58718872
 21
375.84391726
 31
0.0
  0
LINE
  5
31A
100
AcDbEntity
  8
DIM49
100
AcDbLine
 10
186.58718872
 20
375.84391726
 30
0.0
 11
188.08718872
 21
367.84391726
 31
0.0
  0
LINE
  5
31B
100
AcDbEntity
  8
DIM49
100
AcDbLine
 10
188.08718872
 20
367.84391726
 30
0.0
 11
185.08718872
 21
367.84391726
 31
0.0
  0
LINE
  5
31C
100
AcDbEntity
  8
DIM49
100
AcDbLine
 10
185.08718872
 20
367.84391726
 30
0.0
 11
186.58718872
 21
375.84391726
 31
0.0
  0
LINE
  5
31D
100
AcDbEntity
  8
DIM49
100
AcDbLine
 10
186.58718872
 20
368.04391726
 30
0.0
 11
186.58718872
 21
375.64391726
 31
0.0
  0
LINE
  5
31E
100
AcDbEntity
  8
DIM49
100
AcDbLine
 10
186.18718872
 20
368.04391726
 30
0.0
 11
186.18718872
 21
373.51058392
 31
0.0
  0
LINE
  5
31F
100
AcDbEntity
  8
DIM49
100
AcDbLine
 10
186.98718872
 20
368.04391726
 30
0.0
 11
186.98718872
 21
373.51058392
 31
0.0
  0
LINE
  5
320
100
AcDbEntity
  8
DIM49
100
AcDbLine
 10
185.78718872
 20
368.04391726
 30
0.0
 11
185.78718872
 21
371.37725059
 31
0.0
  0
LINE
  5
321
100
AcDbEntity
  8
DIM49
100
AcDbLine
 10
187.38718872
 20
368.04391726
 30
0.0
 11
187.38718872
 21
371.37725059
 31
0.0
  0
LINE
  5
322
100
AcDbEntity
  8
DIM49
100
AcDbLine
 10
185.38718872
 20
368.04391726
 30
0.0
 11
185.38718872
 21
369.24391726
 31
0.0
  0
LINE
  5
323
100
AcDbEntity
  8
DIM49
100
AcDbLine
 10
187.78718872
 20
368.04391726
 30
0.0
 11
187.78718872
 21
369.24391726
 31
0.0
  0
LINE
  5
324
100
AcDbEntity
  8
DIM49
100
AcDbLine
 10
186.58718872
 20
314.84391726
 30
0.0
 11
186.58718872
 21
367.84391726
 31
0.0
  0
TEXT
  5
325
100
AcDbEntity
  8
TXT_DIM49
100
AcDbText
 10
183.58718872
 20
336.13985398
 30
0.0
 40
7.00000000
  1
69
 50
90.000000000
 41
0.812
 51
0.0
  7
MONOTXT
100
AcDbText
  0
ENDBLK
  5
326
100
AcDbEntity
  8
0
100
AcDbBlockEnd
  0
BLOCK
  5
327
100
AcDbEntity
  8
0
100
AcDbBlockBegin
  2
*X1
 70
    65
 10
458.60000610
 20
97.51812148
 30
0.0
  3
*X
  0
LINE
  5
328
100
AcDbEntity
  8
HATCH
100
AcDbLine
 62
     4
 10
458.60000610
 20
117.20000175
 30
0.0
 11
478.60000610
 21
117.20000175
 31
0.0
  0
LINE
  5
329
100
AcDbEntity
  8
HATCH
100
AcDbLine
 62
     4
 10
478.60000610
 20
116.80000174
 30
0.0
 11
458.60000610
 21
116.80000174
 31
0.0
  0
LINE
  5
32A
100
AcDbEntity
  8
HATCH
100
AcDbLine
 62
     4
 10
458.60000610
 20
116.40000173
 30
0.0
 11
478.60000610
 21
116.40000173
 31
0.0
  0
LINE
  5
32B
100
AcDbEntity
  8
HATCH
100
AcDbLine
 62
     4
 10
478.60000610
 20
116.00000173
 30
0.0
 11
470.94472514
 21
116.00000173
 31
0.0
  0
LINE
  5
32C
100
AcDbEntity
  8
HATCH
100
AcDbLine
 62
     4
 10
468.90000610
 20
116.00000173
 30
0.0
 11
468.30000610
 21
116.00000173
 31
0.0
  0
LINE
  5
32D
100
AcDbEntity
  8
HATCH
100
AcDbLine
 62
     4
 10
466.25528706
 20
116.00000173
 30
0.0
 11
458.60000610
 21
116.00000173
 31
0.0
  0
LINE
  5
32E
100
AcDbEntity
  8
HATCH
100
AcDbLine
 62
     4
 10
458.60000610
 20
115.60000172
 30
0.0
 11
465.11816583
 21
115.60000172
 31
0.0
  0
LINE
  5
32F
100
AcDbEntity
  8
HATCH
100
AcDbLine
 62
     4
 10
468.30000610
 20
115.60000172
 30
0.0
 11
468.90000610
 21
115.60000172
 31
0.0
  0
LINE
  5
330
100
AcDbEntity
  8
HATCH
100
AcDbLine
 62
     4
 10
472.08184637
 20
115.60000172
 30
0.0
 11
478.60000610
 21
115.60000172
 31
0.0
  0
LINE
  5
331
100
AcDbEntity
  8
HATCH
100
AcDbLine
 62
     4
 10
478.60000610
 20
115.20000172
 30
0.0
 11
472.89287414
 21
115.20000172
 31
0.0
  0
LINE
  5
332
100
AcDbEntity
  8
HATCH
100
AcDbLine
 62
     4
 10
468.90000610
 20
115.20000172
 30
0.0
 11
468.30000610
 21
115.20000172
 31
0.0
  0
LINE
  5
333
100
AcDbEntity
  8
HATCH
100
AcDbLine
 62
     4
 10
464.30713807
 20
115.20000172
 30
0.0
 11
458.60000610
 21
115.20000172
 31
0.0
  0
LINE
  5
334
100
AcDbEntity
  8
HATCH
100
AcDbLine
 62
     4
 10
458.60000610
 20
114.80000171
 30
0.0
 11
463.65893130
 21
114.80000171
 31
0.0
  0
LINE
  5
335
100
AcDbEntity
  8
HATCH
100
AcDbLine
 62
     4
 10
468.30000610
 20
114.80000171
 30
0.0
 11
468.90000610
 21
114.80000171
 31
0.0
  0
LINE
  5
336
100
AcDbEntity
  8
HATCH
100
AcDbLine
 62
     4
 10
473.54108091
 20
114.80000171
 30
0.0
 11
478.60000610
 21
114.80000171
 31
0.0
  0
LINE
  5
337
100
AcDbEntity
  8
HATCH
100
AcDbLine
 62
     4
 10
478.60000610
 20
114.40000170
 30
0.0
 11
474.08450467
 21
114.40000170
 31
0.0
  0
LINE
  5
338
100
AcDbEntity
  8
HATCH
100
AcDbLine
 62
     4
 10
470.71654207
 20
114.40000170
 30
0.0
 11
466.48347013
 21
114.40000170
 31
0.0
  0
LINE
  5
339
100
AcDbEntity
  8
HATCH
100
AcDbLine
 62
     4
 10
463.11550754
 20
114.40000170
 30
0.0
 11
458.60000610
 21
114.40000170
 31
0.0
  0
LINE
  5
33A
100
AcDbEntity
  8
HATCH
100
AcDbLine
 62
     4
 10
458.60000610
 20
114.00000170
 30
0.0
 11
462.64809643
 21
114.00000170
 31
0.0
  0
LINE
  5
33B
100
AcDbEntity
  8
HATCH
100
AcDbLine
 62
     4
 10
465.46548401
 20
114.00000170
 30
0.0
 11
471.73452820
 21
114.00000170
 31
0.0
  0
LINE
  5
33C
100
AcDbEntity
  8
HATCH
100
AcDbLine
 62
     4
 10
474.55191578
 20
114.00000170
 30
0.0
 11
478.60000610
 21
114.00000170
 31
0.0
  0
LINE
  5
33D
100
AcDbEntity
  8
HATCH
100
AcDbLine
 62
     4
 10
478.60000610
 20
113.60000169
 30
0.0
 11
474.96009518
 21
113.60000169
 31
0.0
  0
LINE
  5
33E
100
AcDbEntity
  8
HATCH
100
AcDbLine
 62
     4
 10
472.45367099
 20
113.60000169
 30
0.0
 11
470.14277443
 21
113.60000169
 31
0.0
  0
LINE
  5
33F
100
AcDbEntity
  8
HATCH
100
AcDbLine
 62
     4
 10
468.90000610
 20
113.60000169
 30
0.0
 11
468.30000610
 21
113.60000169
 31
0.0
  0
LINE
  5
340
100
AcDbEntity
  8
HATCH
100
AcDbLine
 62
     4
 10
467.05723778
 20
113.60000169
 30
0.0
 11
464.74634122
 21
113.60000169
 31
0.0
  0
LINE
  5
341
100
AcDbEntity
  8
HATCH
100
AcDbLine
 62
     4
 10
462.23991703
 20
113.60000169
 30
0.0
 11
458.60000610
 21
113.60000169
 31
0.0
  0
LINE
  5
342
100
AcDbEntity
  8
HATCH
100
AcDbLine
 62
     4
 10
458.60000610
 20
113.20000169
 30
0.0
 11
461.88016702
 21
113.20000169
 31
0.0
  0
LINE
  5
343
100
AcDbEntity
  8
HATCH
100
AcDbLine
 62
     4
 10
464.17776264
 20
113.20000169
 30
0.0
 11
466.34487012
 21
113.20000169
 31
0.0
  0
LINE
  5
344
100
AcDbEntity
  8
HATCH
100
AcDbLine
 62
     4
 10
468.30000610
 20
113.20000169
 30
0.0
 11
468.90000610
 21
113.20000169
 31
0.0
  0
LINE
  5
345
100
AcDbEntity
  8
HATCH
100
AcDbLine
 62
     4
 10
470.85514209
 20
113.20000169
 30
0.0
 11
473.02224957
 21
113.20000169
 31
0.0
  0
LINE
  5
346
100
AcDbEntity
  8
HATCH
100
AcDbLine
 62
     4
 10
475.31984518
 20
113.20000169
 30
0.0
 11
478.60000610
 21
113.20000169
 31
0.0
  0
LINE
  5
347
100
AcDbEntity
  8
HATCH
100
AcDbLine
 62
     4
 10
478.60000610
 20
112.80000168
 30
0.0
 11
475.63859556
 21
112.80000168
 31
0.0
  0
LINE
  5
348
100
AcDbEntity
  8
HATCH
100
AcDbLine
 62
     4
 10
473.49303599
 20
112.80000168
 30
0.0
 11
471.33334518
 21
112.80000168
 31
0.0
  0
LINE
  5
349
100
AcDbEntity
  8
HATCH
100
AcDbLine
 62
     4
 10
468.90000610
 20
112.80000168
 30
0.0
 11
468.30000610
 21
112.80000168
 31
0.0
  0
LINE
  5
34A
100
AcDbEntity
  8
HATCH
100
AcDbLine
 62
     4
 10
465.86666702
 20
112.80000168
 30
0.0
 11
463.70697621
 21
112.80000168
 31
0.0
  0
LINE
  5
34B
100
AcDbEntity
  8
HATCH
100
AcDbLine
 62
     4
 10
461.56141665
 20
112.80000168
 30
0.0
 11
458.60000610
 21
112.80000168
 31
0.0
  0
LINE
  5
34C
100
AcDbEntity
  8
HATCH
100
AcDbLine
 62
     4
 10
458.60000610
 20
112.40000167
 30
0.0
 11
461.27830919
 21
112.40000167
 31
0.0
  0
LINE
  5
34D
100
AcDbEntity
  8
HATCH
100
AcDbLine
 62
     4
 10
463.30781887
 20
112.40000167
 30
0.0
 11
465.51185994
 21
112.40000167
 31
0.0
  0
LINE
  5
34E
100
AcDbEntity
  8
HATCH
100
AcDbLine
 62
     4
 10
468.30000610
 20
112.40000167
 30
0.0
 11
468.90000610
 21
112.40000167
 31
0.0
  0
LINE
  5
34F
100
AcDbEntity
  8
HATCH
100
AcDbLine
 62
     4
 10
471.68815227
 20
112.40000167
 30
0.0
 11
473.89219334
 21
112.40000167
 31
0.0
  0
LINE
  5
350
100
AcDbEntity
  8
HATCH
100
AcDbLine
 62
     4
 10
475.92170302
 20
112.40000167
 30
0.0
 11
478.60000610
 21
112.40000167
 31
0.0
  0
LINE
  5
351
100
AcDbEntity
  8
HATCH
100
AcDbLine
 62
     4
 10
478.60000610
 20
112.00000167
 30
0.0
 11
476.17316594
 21
112.00000167
 31
0.0
  0
LINE
  5
352
100
AcDbEntity
  8
HATCH
100
AcDbLine
 62
     4
 10
474.23496395
 20
112.00000167
 30
0.0
 11
471.95889742
 21
112.00000167
 31
0.0
  0
LINE
  5
353
100
AcDbEntity
  8
HATCH
100
AcDbLine
 62
     4
 10
469.76711831
 20
112.00000167
 30
0.0
 11
467.43289390
 21
112.00000167
 31
0.0
  0
LINE
  5
354
100
AcDbEntity
  8
HATCH
100
AcDbLine
 62
     4
 10
465.24111478
 20
112.00000167
 30
0.0
 11
462.96504826
 21
112.00000167
 31
0.0
  0
LINE
  5
355
100
AcDbEntity
  8
HATCH
100
AcDbLine
 62
     4
 10
461.02684627
 20
112.00000167
 30
0.0
 11
458.60000610
 21
112.00000167
 31
0.0
  0
LINE
  5
356
100
AcDbEntity
  8
HATCH
100
AcDbLine
 62
     4
 10
458.60000610
 20
111.60000166
 30
0.0
 11
460.80396518
 21
111.60000166
 31
0.0
  0
LINE
  5
357
100
AcDbEntity
  8
HATCH
100
AcDbLine
 62
     4
 10
462.66888023
 20
111.60000166
 30
0.0
 11
465.03522630
 21
111.60000166
 31
0.0
  0
LINE
  5
358
100
AcDbEntity
  8
HATCH
100
AcDbLine
 62
     4
 10
466.93037888
 20
111.60000166
 30
0.0
 11
470.26963333
 21
111.60000166
 31
0.0
  0
LINE
  5
359
100
AcDbEntity
  8
HATCH
100
AcDbLine
 62
     4
 10
472.16478591
 20
111.60000166
 30
0.0
 11
474.53113198
 21
111.60000166
 31
0.0
  0
LINE
  5
35A
100
AcDbEntity
  8
HATCH
100
AcDbLine
 62
     4
 10
476.39604703
 20
111.60000166
 30
0.0
 11
478.60000610
 21
111.60000166
 31
0.0
  0
LINE
  5
35B
100
AcDbEntity
  8
HATCH
100
AcDbLine
 62
     4
 10
478.60000610
 20
111.20000166
 30
0.0
 11
476.59273770
 21
111.20000166
 31
0.0
  0
LINE
  5
35C
100
AcDbEntity
  8
HATCH
100
AcDbLine
 62
     4
 10
474.78739314
 20
111.20000166
 30
0.0
 11
472.31661198
 21
111.20000166
 31
0.0
  0
LINE
  5
35D
100
AcDbEntity
  8
HATCH
100
AcDbLine
 62
     4
 10
470.57311513
 20
111.20000166
 30
0.0
 11
466.62689708
 21
111.20000166
 31
0.0
  0
LINE
  5
35E
100
AcDbEntity
  8
HATCH
100
AcDbLine
 62
     4
 10
464.88340023
 20
111.20000166
 30
0.0
 11
462.41261907
 21
111.20000166
 31
0.0
  0
LINE
  5
35F
100
AcDbEntity
  8
HATCH
100
AcDbLine
 62
     4
 10
460.60727451
 20
111.20000166
 30
0.0
 11
458.60000610
 21
111.20000166
 31
0.0
  0
LINE
  5
360
100
AcDbEntity
  8
HATCH
100
AcDbLine
 62
     4
 10
458.60000610
 20
110.80000165
 30
0.0
 11
460.43488133
 21
110.80000165
 31
0.0
  0
LINE
  5
361
100
AcDbEntity
  8
HATCH
100
AcDbLine
 62
     4
 10
462.19147565
 20
110.80000165
 30
0.0
 11
464.77918638
 21
110.80000165
 31
0.0
  0
LINE
  5
362
100
AcDbEntity
  8
HATCH
100
AcDbLine
 62
     4
 10
466.43698428
 20
110.80000165
 30
0.0
 11
470.76302792
 21
110.80000165
 31
0.0
  0
LINE
  5
363
100
AcDbEntity
  8
HATCH
100
AcDbLine
 62
     4
 10
472.42082583
 20
110.80000165
 30
0.0
 11
475.00853655
 21
110.80000165
 31
0.0
  0
LINE
  5
364
100
AcDbEntity
  8
HATCH
100
AcDbLine
 62
     4
 10
476.76513087
 20
110.80000165
 30
0.0
 11
478.60000610
 21
110.80000165
 31
0.0
  0
LINE
  5
365
100
AcDbEntity
  8
HATCH
100
AcDbLine
 62
     4
 10
478.60000610
 20
110.40000165
 30
0.0
 11
476.91473801
 21
110.40000165
 31
0.0
  0
LINE
  5
366
100
AcDbEntity
  8
HATCH
100
AcDbLine
 62
     4
 10
475.19809421
 20
110.40000165
 30
0.0
 11
472.48126460
 21
110.40000165
 31
0.0
  0
LINE
  5
367
100
AcDbEntity
  8
HATCH
100
AcDbLine
 62
     4
 10
470.86808184
 20
110.40000165
 30
0.0
 11
466.33193037
 21
110.40000165
 31
0.0
  0
LINE
  5
368
100
AcDbEntity
  8
HATCH
100
AcDbLine
 62
     4
 10
464.71874760
 20
110.40000165
 30
0.0
 11
462.00191799
 21
110.40000165
 31
0.0
  0
LINE
  5
369
100
AcDbEntity
  8
HATCH
100
AcDbLine
 62
     4
 10
460.28527420
 20
110.40000165
 30
0.0
 11
458.60000610
 21
110.40000165
 31
0.0
  0
LINE
  5
36A
100
AcDbEntity
  8
HATCH
100
AcDbLine
 62
     4
 10
458.60000610
 20
110.00000164
 30
0.0
 11
460.15724170
 21
110.00000164
 31
0.0
  0
LINE
  5
36B
100
AcDbEntity
  8
HATCH
100
AcDbLine
 62
     4
 10
461.84128797
 20
110.00000164
 30
0.0
 11
464.70004820
 21
110.00000164
 31
0.0
  0
LINE
  5
36C
100
AcDbEntity
  8
HATCH
100
AcDbLine
 62
     4
 10
466.30007748
 20
110.00000164
 30
0.0
 11
470.89993473
 21
110.00000164
 31
0.0
  0
LINE
  5
36D
100
AcDbEntity
  8
HATCH
100
AcDbLine
 62
     4
 10
472.49996401
 20
110.00000164
 30
0.0
 11
475.35872424
 21
110.00000164
 31
0.0
  0
LINE
  5
36E
100
AcDbEntity
  8
HATCH
100
AcDbLine
 62
     4
 10
477.04277051
 20
110.00000164
 30
0.0
 11
478.60000610
 21
110.00000164
 31
0.0
  0
LINE
  5
36F
100
AcDbEntity
  8
HATCH
100
AcDbLine
 62
     4
 10
478.60000610
 20
109.60000163
 30
0.0
 11
477.15019762
 21
109.60000163
 31
0.0
  0
LINE
  5
370
100
AcDbEntity
  8
HATCH
100
AcDbLine
 62
     4
 10
475.49244943
 20
109.60000163
 30
0.0
 11
472.47752797
 21
109.60000163
 31
0.0
  0
LINE
  5
371
100
AcDbEntity
  8
HATCH
100
AcDbLine
 62
     4
 10
470.86168154
 20
109.60000163
 30
0.0
 11
466.33833066
 21
109.60000163
 31
0.0
  0
LINE
  5
372
100
AcDbEntity
  8
HATCH
100
AcDbLine
 62
     4
 10
464.72248424
 20
109.60000163
 30
0.0
 11
461.70756278
 21
109.60000163
 31
0.0
  0
LINE
  5
373
100
AcDbEntity
  8
HATCH
100
AcDbLine
 62
     4
 10
460.04981458
 20
109.60000163
 30
0.0
 11
458.60000610
 21
109.60000163
 31
0.0
  0
LINE
  5
374
100
AcDbEntity
  8
HATCH
100
AcDbLine
 62
     4
 10
458.60000610
 20
109.20000163
 30
0.0
 11
459.96222403
 21
109.20000163
 31
0.0
  0
LINE
  5
375
100
AcDbEntity
  8
HATCH
100
AcDbLine
 62
     4
 10
461.59920050
 20
109.20000163
 30
0.0
 11
464.78678176
 21
109.20000163
 31
0.0
  0
LINE
  5
376
100
AcDbEntity
  8
HATCH
100
AcDbLine
 62
     4
 10
466.45042942
 20
109.20000163
 30
0.0
 11
470.74958279
 21
109.20000163
 31
0.0
  0
LINE
  5
377
100
AcDbEntity
  8
HATCH
100
AcDbLine
 62
     4
 10
472.41323045
 20
109.20000163
 30
0.0
 11
475.60081171
 21
109.20000163
 31
0.0
  0
LINE
  5
378
100
AcDbEntity
  8
HATCH
100
AcDbLine
 62
     4
 10
477.23778818
 20
109.20000163
 30
0.0
 11
478.60000610
 21
109.20000163
 31
0.0
  0
LINE
  5
379
100
AcDbEntity
  8
HATCH
100
AcDbLine
 62
     4
 10
478.60000610
 20
108.80000162
 30
0.0
 11
477.30614091
 21
108.80000162
 31
0.0
  0
LINE
  5
37A
100
AcDbEntity
  8
HATCH
100
AcDbLine
 62
     4
 10
475.68497493
 20
108.80000162
 30
0.0
 11
472.30489261
 21
108.80000162
 31
0.0
  0
LINE
  5
37B
100
AcDbEntity
  8
HATCH
100
AcDbLine
 62
     4
 10
470.55095050
 20
108.80000162
 30
0.0
 11
466.64906171
 21
108.80000162
 31
0.0
  0
LINE
  5
37C
100
AcDbEntity
  8
HATCH
100
AcDbLine
 62
     4
 10
464.89511960
 20
108.80000162
 30
0.0
 11
461.51503728
 21
108.80000162
 31
0.0
  0
LINE
  5
37D
100
AcDbEntity
  8
HATCH
100
AcDbLine
 62
     4
 10
459.89387130
 20
108.80000162
 30
0.0
 11
458.60000610
 21
108.80000162
 31
0.0
  0
LINE
  5
37E
100
AcDbEntity
  8
HATCH
100
AcDbLine
 62
     4
 10
458.60000610
 20
108.40000162
 30
0.0
 11
459.84430582
 21
108.40000162
 31
0.0
  0
LINE
  5
37F
100
AcDbEntity
  8
HATCH
100
AcDbLine
 62
     4
 10
461.45421801
 20
108.40000162
 30
0.0
 11
465.05152923
 21
108.40000162
 31
0.0
  0
LINE
  5
380
100
AcDbEntity
  8
HATCH
100
AcDbLine
 62
     4
 10
466.96547617
 20
108.40000162
 30
0.0
 11
470.23453604
 21
108.40000162
 31
0.0
  0
LINE
  5
381
100
AcDbEntity
  8
HATCH
100
AcDbLine
 62
     4
 10
472.14848298
 20
108.40000162
 30
0.0
 11
475.74579419
 21
108.40000162
 31
0.0
  0
LINE
  5
382
100
AcDbEntity
  8
HATCH
100
AcDbLine
 62
     4
 10
477.35570638
 20
108.40000162
 30
0.0
 11
478.60000610
 21
108.40000162
 31
0.0
  0
LINE
  5
383
100
AcDbEntity
  8
HATCH
100
AcDbLine
 62
     4
 10
478.60000610
 20
108.00000161
 30
0.0
 11
477.38680254
 21
108.00000161
 31
0.0
  0
LINE
  5
384
100
AcDbEntity
  8
HATCH
100
AcDbLine
 62
     4
 10
475.78386242
 20
108.00000161
 30
0.0
 11
471.93724931
 21
108.00000161
 31
0.0
  0
LINE
  5
385
100
AcDbEntity
  8
HATCH
100
AcDbLine
 62
     4
 10
469.90000610
 20
108.00000161
 30
0.0
 11
467.30000610
 21
108.00000161
 31
0.0
  0
LINE
  5
386
100
AcDbEntity
  8
HATCH
100
AcDbLine
 62
     4
 10
465.26276290
 20
108.00000161
 30
0.0
 11
461.41614979
 21
108.00000161
 31
0.0
  0
LINE
  5
387
100
AcDbEntity
  8
HATCH
100
AcDbLine
 62
     4
 10
459.81320967
 20
108.00000161
 30
0.0
 11
458.60000610
 21
108.00000161
 31
0.0
  0
LINE
  5
388
100
AcDbEntity
  8
HATCH
100
AcDbLine
 62
     4
 10
458.60000610
 20
107.60000160
 30
0.0
 11
459.80038704
 21
107.60000160
 31
0.0
  0
LINE
  5
389
100
AcDbEntity
  8
HATCH
100
AcDbLine
 62
     4
 10
461.40047170
 20
107.60000160
 30
0.0
 11
465.54015377
 21
107.60000160
 31
0.0
  0
LINE
  5
38A
100
AcDbEntity
  8
HATCH
100
AcDbLine
 62
     4
 10
467.30000610
 20
107.60000160
 30
0.0
 11
469.90000610
 21
107.60000160
 31
0.0
  0
LINE
  5
38B
100
AcDbEntity
  8
HATCH
100
AcDbLine
 62
     4
 10
471.65985843
 20
107.60000160
 30
0.0
 11
475.79954051
 21
107.60000160
 31
0.0
  0
LINE
  5
38C
100
AcDbEntity
  8
HATCH
100
AcDbLine
 62
     4
 10
477.39962517
 20
107.60000160
 30
0.0
 11
478.60000610
 21
107.60000160
 31
0.0
  0
LINE
  5
38D
100
AcDbEntity
  8
HATCH
100
AcDbLine
 62
     4
 10
478.60000610
 20
107.20000160
 30
0.0
 11
477.39425421
 21
107.20000160
 31
0.0
  0
LINE
  5
38E
100
AcDbEntity
  8
HATCH
100
AcDbLine
 62
     4
 10
475.79297487
 20
107.20000160
 30
0.0
 11
471.50000610
 21
107.20000160
 31
0.0
  0
LINE
  5
38F
100
AcDbEntity
  8
HATCH
100
AcDbLine
 62
     4
 10
469.90000610
 20
107.20000160
 30
0.0
 11
467.30000610
 21
107.20000160
 31
0.0
  0
LINE
  5
390
100
AcDbEntity
  8
HATCH
100
AcDbLine
 62
     4
 10
465.70000610
 20
107.20000160
 30
0.0
 11
461.40703733
 21
107.20000160
 31
0.0
  0
LINE
  5
391
100
AcDbEntity
  8
HATCH
100
AcDbLine
 62
     4
 10
459.80575800
 20
107.20000160
 30
0.0
 11
458.60000610
 21
107.20000160
 31
0.0
  0
LINE
  5
392
100
AcDbEntity
  8
HATCH
100
AcDbLine
 62
     4
 10
458.60000610
 20
106.80000159
 30
0.0
 11
459.82935597
 21
106.80000159
 31
0.0
  0
LINE
  5
393
100
AcDbEntity
  8
HATCH
100
AcDbLine
 62
     4
 10
461.43590785
 20
106.80000159
 30
0.0
 11
465.70000610
 21
106.80000159
 31
0.0
  0
LINE
  5
394
100
AcDbEntity
  8
HATCH
100
AcDbLine
 62
     4
 10
467.30000610
 20
106.80000159
 30
0.0
 11
469.90000610
 21
106.80000159
 31
0.0
  0
LINE
  5
395
100
AcDbEntity
  8
HATCH
100
AcDbLine
 62
     4
 10
471.50000610
 20
106.80000159
 30
0.0
 11
475.76410436
 21
106.80000159
 31
0.0
  0
LINE
  5
396
100
AcDbEntity
  8
HATCH
100
AcDbLine
 62
     4
 10
477.37065624
 20
106.80000159
 30
0.0
 11
478.60000610
 21
106.80000159
 31
0.0
  0
LINE
  5
397
100
AcDbEntity
  8
HATCH
100
AcDbLine
 62
     4
 10
478.60000610
 20
106.40000159
 30
0.0
 11
477.32868343
 21
106.40000159
 31
0.0
  0
LINE
  5
398
100
AcDbEntity
  8
HATCH
100
AcDbLine
 62
     4
 10
475.71265736
 20
106.40000159
 30
0.0
 11
471.50000610
 21
106.40000159
 31
0.0
  0
LINE
  5
399
100
AcDbEntity
  8
HATCH
100
AcDbLine
 62
     4
 10
469.90000610
 20
106.40000159
 30
0.0
 11
467.30000610
 21
106.40000159
 31
0.0
  0
LINE
  5
39A
100
AcDbEntity
  8
HATCH
100
AcDbLine
 62
     4
 10
465.70000610
 20
106.40000159
 30
0.0
 11
461.48735485
 21
106.40000159
 31
0.0
  0
LINE
  5
39B
100
AcDbEntity
  8
HATCH
100
AcDbLine
 62
     4
 10
459.87132877
 20
106.40000159
 30
0.0
 11
458.60000610
 21
106.40000159
 31
0.0
  0
LINE
  5
39C
100
AcDbEntity
  8
HATCH
100
AcDbLine
 62
     4
 10
458.60000610
 20
106.00000158
 30
0.0
 11
459.93194335
 21
106.00000158
 31
0.0
  0
LINE
  5
39D
100
AcDbEntity
  8
HATCH
100
AcDbLine
 62
     4
 10
461.56187340
 20
106.00000158
 30
0.0
 11
465.70000610
 21
106.00000158
 31
0.0
  0
LINE
  5
39E
100
AcDbEntity
  8
HATCH
100
AcDbLine
 62
     4
 10
467.30000610
 20
106.00000158
 30
0.0
 11
469.90000610
 21
106.00000158
 31
0.0
  0
LINE
  5
39F
100
AcDbEntity
  8
HATCH
100
AcDbLine
 62
     4
 10
471.50000610
 20
106.00000158
 30
0.0
 11
475.63813881
 21
106.00000158
 31
0.0
  0
LINE
  5
3A0
100
AcDbEntity
  8
HATCH
100
AcDbLine
 62
     4
 10
477.26806886
 20
106.00000158
 30
0.0
 11
478.60000610
 21
106.00000158
 31
0.0
  0
LINE
  5
3A1
100
AcDbEntity
  8
HATCH
100
AcDbLine
 62
     4
 10
478.60000610
 20
105.60000157
 30
0.0
 11
477.18841783
 21
105.60000157
 31
0.0
  0
LINE
  5
3A2
100
AcDbEntity
  8
HATCH
100
AcDbLine
 62
     4
 10
475.53980553
 20
105.60000157
 30
0.0
 11
471.50000610
 21
105.60000157
 31
0.0
  0
LINE
  5
3A3
100
AcDbEntity
  8
HATCH
100
AcDbLine
 62
     4
 10
469.90000610
 20
105.60000157
 30
0.0
 11
467.30000610
 21
105.60000157
 31
0.0
  0
LINE
  5
3A4
100
AcDbEntity
  8
HATCH
100
AcDbLine
 62
     4
 10
465.70000610
 20
105.60000157
 30
0.0
 11
461.66020668
 21
105.60000157
 31
0.0
  0
LINE
  5
3A5
100
AcDbEntity
  8
HATCH
100
AcDbLine
 62
     4
 10
460.01159437
 20
105.60000157
 30
0.0
 11
458.60000610
 21
105.60000157
 31
0.0
  0
LINE
  5
3A6
100
AcDbEntity
  8
HATCH
100
AcDbLine
 62
     4
 10
458.60000610
 20
105.20000157
 30
0.0
 11
460.11081768
 21
105.20000157
 31
0.0
  0
LINE
  5
3A7
100
AcDbEntity
  8
HATCH
100
AcDbLine
 62
     4
 10
461.78338523
 20
105.20000157
 30
0.0
 11
465.70000610
 21
105.20000157
 31
0.0
  0
LINE
  5
3A8
100
AcDbEntity
  8
HATCH
100
AcDbLine
 62
     4
 10
467.30000610
 20
105.20000157
 30
0.0
 11
469.90000610
 21
105.20000157
 31
0.0
  0
LINE
  5
3A9
100
AcDbEntity
  8
HATCH
100
AcDbLine
 62
     4
 10
471.50000610
 20
105.20000157
 30
0.0
 11
475.41662697
 21
105.20000157
 31
0.0
  0
LINE
  5
3AA
100
AcDbEntity
  8
HATCH
100
AcDbLine
 62
     4
 10
477.08919453
 20
105.20000157
 30
0.0
 11
478.60000610
 21
105.20000157
 31
0.0
  0
LINE
  5
3AB
100
AcDbEntity
  8
HATCH
100
AcDbLine
 62
     4
 10
478.60000610
 20
104.80000156
 30
0.0
 11
476.96970288
 21
104.80000156
 31
0.0
  0
LINE
  5
3AC
100
AcDbEntity
  8
HATCH
100
AcDbLine
 62
     4
 10
475.26722622
 20
104.80000156
 30
0.0
 11
471.50000610
 21
104.80000156
 31
0.0
  0
LINE
  5
3AD
100
AcDbEntity
  8
HATCH
100
AcDbLine
 62
     4
 10
469.90000610
 20
104.80000156
 30
0.0
 11
467.30000610
 21
104.80000156
 31
0.0
  0
LINE
  5
3AE
100
AcDbEntity
  8
HATCH
100
AcDbLine
 62
     4
 10
465.70000610
 20
104.80000156
 30
0.0
 11
461.93278598
 21
104.80000156
 31
0.0
  0
LINE
  5
3AF
100
AcDbEntity
  8
HATCH
100
AcDbLine
 62
     4
 10
460.23030933
 20
104.80000156
 30
0.0
 11
458.60000610
 21
104.80000156
 31
0.0
  0
LINE
  5
3B0
100
AcDbEntity
  8
HATCH
100
AcDbLine
 62
     4
 10
458.60000610
 20
104.40000156
 30
0.0
 11
460.37095220
 21
104.40000156
 31
0.0
  0
LINE
  5
3B1
100
AcDbEntity
  8
HATCH
100
AcDbLine
 62
     4
 10
462.11021965
 20
104.40000156
 30
0.0
 11
465.70000610
 21
104.40000156
 31
0.0
  0
LINE
  5
3B2
100
AcDbEntity
  8
HATCH
100
AcDbLine
 62
     4
 10
467.30000610
 20
104.40000156
 30
0.0
 11
469.90000610
 21
104.40000156
 31
0.0
  0
LINE
  5
3B3
100
AcDbEntity
  8
HATCH
100
AcDbLine
 62
     4
 10
471.50000610
 20
104.40000156
 30
0.0
 11
475.08979255
 21
104.40000156
 31
0.0
  0
LINE
  5
3B4
100
AcDbEntity
  8
HATCH
100
AcDbLine
 62
     4
 10
476.82906001
 20
104.40000156
 30
0.0
 11
478.60000610
 21
104.40000156
 31
0.0
  0
LINE
  5
3B5
100
AcDbEntity
  8
HATCH
100
AcDbLine
 62
     4
 10
478.60000610
 20
104.00000155
 30
0.0
 11
476.66615960
 21
104.00000155
 31
0.0
  0
LINE
  5
3B6
100
AcDbEntity
  8
HATCH
100
AcDbLine
 62
     4
 10
474.88195104
 20
104.00000155
 30
0.0
 11
471.49994949
 21
104.00000155
 31
0.0
  0
LINE
  5
3B7
100
AcDbEntity
  8
HATCH
100
AcDbLine
 62
     4
 10
469.89987982
 20
104.00000155
 30
0.0
 11
467.30013239
 21
104.00000155
 31
0.0
  0
LINE
  5
3B8
100
AcDbEntity
  8
HATCH
100
AcDbLine
 62
     4
 10
465.70006271
 20
104.00000155
 30
0.0
 11
462.31806117
 21
104.00000155
 31
0.0
  0
LINE
  5
3B9
100
AcDbEntity
  8
HATCH
100
AcDbLine
 62
     4
 10
460.53385261
 20
104.00000155
 30
0.0
 11
458.60000610
 21
104.00000155
 31
0.0
  0
LINE
  5
3BA
100
AcDbEntity
  8
HATCH
100
AcDbLine
 62
     4
 10
458.60000610
 20
103.60000154
 30
0.0
 11
460.72039087
 21
103.60000154
 31
0.0
  0
LINE
  5
3BB
100
AcDbEntity
  8
HATCH
100
AcDbLine
 62
     4
 10
462.55944850
 20
103.60000154
 30
0.0
 11
465.73030652
 21
103.60000154
 31
0.0
  0
LINE
  5
3BC
100
AcDbEntity
  8
HATCH
100
AcDbLine
 62
     4
 10
467.36908136
 20
103.60000154
 30
0.0
 11
469.83093085
 21
103.60000154
 31
0.0
  0
LINE
  5
3BD
100
AcDbEntity
  8
HATCH
100
AcDbLine
 62
     4
 10
471.46970569
 20
103.60000154
 30
0.0
 11
474.64056371
 21
103.60000154
 31
0.0
  0
LINE
  5
3BE
100
AcDbEntity
  8
HATCH
100
AcDbLine
 62
     4
 10
476.47962134
 20
103.60000154
 30
0.0
 11
478.60000610
 21
103.60000154
 31
0.0
  0
LINE
  5
3BF
100
AcDbEntity
  8
HATCH
100
AcDbLine
 62
     4
 10
478.60000610
 20
103.20000154
 30
0.0
 11
476.26772025
 21
103.20000154
 31
0.0
  0
LINE
  5
3C0
100
AcDbEntity
  8
HATCH
100
AcDbLine
 62
     4
 10
474.36141567
 20
103.20000154
 30
0.0
 11
471.38221382
 21
103.20000154
 31
0.0
  0
LINE
  5
3C1
100
AcDbEntity
  8
HATCH
100
AcDbLine
 62
     4
 10
469.61029308
 20
103.20000154
 30
0.0
 11
467.58971913
 21
103.20000154
 31
0.0
  0
LINE
  5
3C2
100
AcDbEntity
  8
HATCH
100
AcDbLine
 62
     4
 10
465.81779839
 20
103.20000154
 30
0.0
 11
462.83859654
 21
103.20000154
 31
0.0
  0
LINE
  5
3C3
100
AcDbEntity
  8
HATCH
100
AcDbLine
 62
     4
 10
460.93229196
 20
103.20000154
 30
0.0
 11
458.60000610
 21
103.20000154
 31
0.0
  0
LINE
  5
3C4
100
AcDbEntity
  8
HATCH
100
AcDbLine
 62
     4
 10
458.60000610
 20
102.80000153
 30
0.0
 11
461.17172607
 21
102.80000153
 31
0.0
  0
LINE
  5
3C5
100
AcDbEntity
  8
HATCH
100
AcDbLine
 62
     4
 10
463.16131654
 20
102.80000153
 30
0.0
 11
465.96824171
 21
102.80000153
 31
0.0
  0
LINE
  5
3C6
100
AcDbEntity
  8
HATCH
100
AcDbLine
 62
     4
 10
468.14593144
 20
102.80000153
 30
0.0
 11
469.05408077
 21
102.80000153
 31
0.0
  0
LINE
  5
3C7
100
AcDbEntity
  8
HATCH
100
AcDbLine
 62
     4
 10
471.23177049
 20
102.80000153
 30
0.0
 11
474.03869567
 21
102.80000153
 31
0.0
  0
LINE
  5
3C8
100
AcDbEntity
  8
HATCH
100
AcDbLine
 62
     4
 10
476.02828613
 20
102.80000153
 30
0.0
 11
478.60000610
 21
102.80000153
 31
0.0
  0
LINE
  5
3C9
100
AcDbEntity
  8
HATCH
100
AcDbLine
 62
     4
 10
478.60000610
 20
102.40000153
 30
0.0
 11
475.75855681
 21
102.40000153
 31
0.0
  0
LINE
  5
3CA
100
AcDbEntity
  8
HATCH
100
AcDbLine
 62
     4
 10
473.66408037
 20
102.40000153
 30
0.0
 11
471.00659868
 21
102.40000153
 31
0.0
  0
LINE
  5
3CB
100
AcDbEntity
  8
HATCH
100
AcDbLine
 62
     4
 10
468.90000610
 20
102.40000153
 30
0.0
 11
468.30000610
 21
102.40000153
 31
0.0
  0
LINE
  5
3CC
100
AcDbEntity
  8
HATCH
100
AcDbLine
 62
     4
 10
466.19341353
 20
102.40000153
 30
0.0
 11
463.53593184
 21
102.40000153
 31
0.0
  0
LINE
  5
3CD
100
AcDbEntity
  8
HATCH
100
AcDbLine
 62
     4
 10
461.44145540
 20
102.40000153
 30
0.0
 11
458.60000610
 21
102.40000153
 31
0.0
  0
LINE
  5
3CE
100
AcDbEntity
  8
HATCH
100
AcDbLine
 62
     4
 10
458.60000610
 20
102.00000152
 30
0.0
 11
461.74505518
 21
102.00000152
 31
0.0
  0
LINE
  5
3CF
100
AcDbEntity
  8
HATCH
100
AcDbLine
 62
     4
 10
463.97503560
 20
102.00000152
 30
0.0
 11
466.51741353
 21
102.00000152
 31
0.0
  0
LINE
  5
3D0
100
AcDbEntity
  8
HATCH
100
AcDbLine
 62
     4
 10
468.30000610
 20
102.00000152
 30
0.0
 11
468.90000610
 21
102.00000152
 31
0.0
  0
LINE
  5
3D1
100
AcDbEntity
  8
HATCH
100
AcDbLine
 62
     4
 10
470.68259868
 20
102.00000152
 30
0.0
 11
473.22497661
 21
102.00000152
 31
0.0
  0
LINE
  5
3D2
100
AcDbEntity
  8
HATCH
100
AcDbLine
 62
     4
 10
475.45495703
 20
102.00000152
 30
0.0
 11
478.60000610
 21
102.00000152
 31
0.0
  0
LINE
  5
3D3
100
AcDbEntity
  8
HATCH
100
AcDbLine
 62
     4
 10
478.60000610
 20
101.60000151
 30
0.0
 11
475.11275177
 21
101.60000151
 31
0.0
  0
LINE
  5
3D4
100
AcDbEntity
  8
HATCH
100
AcDbLine
 62
     4
 10
472.70072020
 20
101.60000151
 30
0.0
 11
470.20084834
 21
101.60000151
 31
0.0
  0
LINE
  5
3D5
100
AcDbEntity
  8
HATCH
100
AcDbLine
 62
     4
 10
468.90000610
 20
101.60000151
 30
0.0
 11
468.30000610
 21
101.60000151
 31
0.0
  0
LINE
  5
3D6
100
AcDbEntity
  8
HATCH
100
AcDbLine
 62
     4
 10
466.99916387
 20
101.60000151
 30
0.0
 11
464.49929200
 21
101.60000151
 31
0.0
  0
LINE
  5
3D7
100
AcDbEntity
  8
HATCH
100
AcDbLine
 62
     4
 10
462.08726044
 20
101.60000151
 30
0.0
 11
458.60000610
 21
101.60000151
 31
0.0
  0
LINE
  5
3D8
100
AcDbEntity
  8
HATCH
100
AcDbLine
 62
     4
 10
458.60000610
 20
101.20000151
 30
0.0
 11
462.47453795
 21
101.20000151
 31
0.0
  0
LINE
  5
3D9
100
AcDbEntity
  8
HATCH
100
AcDbLine
 62
     4
 10
465.14727384
 20
101.20000151
 30
0.0
 11
467.91575480
 21
101.20000151
 31
0.0
  0
LINE
  5
3DA
100
AcDbEntity
  8
HATCH
100
AcDbLine
 62
     4
 10
468.30000610
 20
101.20000151
 30
0.0
 11
468.90000610
 21
101.20000151
 31
0.0
  0
LINE
  5
3DB
100
AcDbEntity
  8
HATCH
100
AcDbLine
 62
     4
 10
469.28425741
 20
101.20000151
 30
0.0
 11
472.05273837
 21
101.20000151
 31
0.0
  0
LINE
  5
3DC
100
AcDbEntity
  8
HATCH
100
AcDbLine
 62
     4
 10
474.72547426
 20
101.20000151
 30
0.0
 11
478.60000610
 21
101.20000151
 31
0.0
  0
LINE
  5
3DD
100
AcDbEntity
  8
HATCH
100
AcDbLine
 62
     4
 10
478.60000610
 20
100.80000150
 30
0.0
 11
474.28391884
 21
100.80000150
 31
0.0
  0
LINE
  5
3DE
100
AcDbEntity
  8
HATCH
100
AcDbLine
 62
     4
 10
471.18976749
 20
100.80000150
 30
0.0
 11
466.01024472
 21
100.80000150
 31
0.0
  0
LINE
  5
3DF
100
AcDbEntity
  8
HATCH
100
AcDbLine
 62
     4
 10
462.91609336
 20
100.80000150
 30
0.0
 11
458.60000610
 21
100.80000150
 31
0.0
  0
LINE
  5
3E0
100
AcDbEntity
  8
HATCH
100
AcDbLine
 62
     4
 10
458.60000610
 20
100.40000150
 30
0.0
 11
463.42580395
 21
100.40000150
 31
0.0
  0
LINE
  5
3E1
100
AcDbEntity
  8
HATCH
100
AcDbLine
 62
     4
 10
467.51724669
 20
100.40000150
 30
0.0
 11
469.68276552
 21
100.40000150
 31
0.0
  0
LINE
  5
3E2
100
AcDbEntity
  8
HATCH
100
AcDbLine
 62
     4
 10
473.77420826
 20
100.40000150
 30
0.0
 11
478.60000610
 21
100.40000150
 31
0.0
  0
LINE
  5
3E3
100
AcDbEntity
  8
HATCH
100
AcDbLine
 62
     4
 10
478.60000610
 20
100.00000149
 30
0.0
 11
473.17361211
 21
100.00000149
 31
0.0
  0
LINE
  5
3E4
100
AcDbEntity
  8
HATCH
100
AcDbLine
 62
     4
 10
468.90000610
 20
100.00000149
 30
0.0
 11
468.30000610
 21
100.00000149
 31
0.0
  0
LINE
  5
3E5
100
AcDbEntity
  8
HATCH
100
AcDbLine
 62
     4
 10
464.02640010
 20
100.00000149
 30
0.0
 11
458.60000610
 21
100.00000149
 31
0.0
  0
LINE
  5
3E6
100
AcDbEntity
  8
HATCH
100
AcDbLine
 62
     4
 10
458.60000610
 20
99.60000148
 30
0.0
 11
464.76029572
 21
99.60000148
 31
0.0
  0
LINE
  5
3E7
100
AcDbEntity
  8
HATCH
100
AcDbLine
 62
     4
 10
468.30000610
 20
99.60000148
 30
0.0
 11
468.90000610
 21
99.60000148
 31
0.0
  0
LINE
  5
3E8
100
AcDbEntity
  8
HATCH
100
AcDbLine
 62
     4
 10
472.43971648
 20
99.60000148
 30
0.0
 11
478.60000610
 21
99.60000148
 31
0.0
  0
LINE
  5
3E9
100
AcDbEntity
  8
HATCH
100
AcDbLine
 62
     4
 10
478.60000610
 20
99.20000148
 30
0.0
 11
471.47209240
 21
99.20000148
 31
0.0
  0
LINE
  5
3EA
100
AcDbEntity
  8
HATCH
100
AcDbLine
 62
     4
 10
468.90000610
 20
99.20000148
 30
0.0
 11
468.30000610
 21
99.20000148
 31
0.0
  0
LINE
  5
3EB
100
AcDbEntity
  8
HATCH
100
AcDbLine
 62
     4
 10
465.72791980
 20
99.20000148
 30
0.0
 11
458.60000610
 21
99.20000148
 31
0.0
  0
LINE
  5
3EC
100
AcDbEntity
  8
HATCH
100
AcDbLine
 62
     4
 10
458.60000610
 20
98.80000147
 30
0.0
 11
467.40234855
 21
98.80000147
 31
0.0
  0
LINE
  5
3ED
100
AcDbEntity
  8
HATCH
100
AcDbLine
 62
     4
 10
468.30000610
 20
98.80000147
 30
0.0
 11
468.90000610
 21
98.80000147
 31
0.0
  0
LINE
  5
3EE
100
AcDbEntity
  8
HATCH
100
AcDbLine
 62
     4
 10
469.79766365
 20
98.80000147
 30
0.0
 11
478.60000610
 21
98.80000147
 31
0.0
  0
LINE
  5
3EF
100
AcDbEntity
  8
HATCH
100
AcDbLine
 62
     4
 10
478.60000610
 20
98.40000147
 30
0.0
 11
458.60000610
 21
98.40000147
 31
0.0
  0
LINE
  5
3F0
100
AcDbEntity
  8
HATCH
100
AcDbLine
 62
     4
 10
458.60000610
 20
98.00000146
 30
0.0
 11
478.60000610
 21
98.00000146
 31
0.0
  0
LINE
  5
3F1
100
AcDbEntity
  8
HATCH
100
AcDbLine
 62
     4
 10
478.60000610
 20
97.60000145
 30
0.0
 11
458.60000610
 21
97.60000145
 31
0.0
  0
ENDBLK
  5
3F2
100
AcDbEntity
  8
0
100
AcDbBlockEnd
  0
BLOCK
  5
3F3
100
AcDbEntity
  8
0
100
AcDbBlockBegin
  2
*X2
 70
    65
 10
696.14062500
 20
398.34490967
 30
0.0
  3
*X
  0
LINE
  5
3F4
100
AcDbEntity
  8
HATCH
100
AcDbLine
 10
640.14062500
 20
425.18018680
 30
0.0
 11
646.76243986
 21
431.80200195
 31
0.0
  0
LINE
  5
3F5
100
AcDbEntity
  8
HATCH
100
AcDbLine
 10
658.07614811
 20
431.80200195
 30
0.0
 11
640.14062500
 21
413.86647806
 31
0.0
  0
LINE
  5
3F6
100
AcDbEntity
  8
HATCH
100
AcDbLine
 10
640.14062500
 20
402.55276931
 30
0.0
 11
669.38985636
 21
431.80200195
 31
0.0
  0
LINE
  5
3F7
100
AcDbEntity
  8
HATCH
100
AcDbLine
 10
680.70356462
 20
431.80200195
 30
0.0
 11
640.14062500
 21
391.23906056
 31
0.0
  0
LINE
  5
3F8
100
AcDbEntity
  8
HATCH
100
AcDbLine
 10
640.14062500
 20
379.92535182
 30
0.0
 11
692.01727287
 21
431.80200195
 31
0.0
  0
LINE
  5
3F9
100
AcDbEntity
  8
HATCH
100
AcDbLine
 10
696.14062500
 20
424.61164552
 30
0.0
 11
640.37389159
 21
368.84490967
 31
0.0
  0
LINE
  5
3FA
100
AcDbEntity
  8
HATCH
100
AcDbLine
 10
651.68759984
 20
368.84490967
 30
0.0
 11
653.14062500
 21
370.29793489
 31
0.0
  0
LINE
  5
3FB
100
AcDbEntity
  8
HATCH
100
AcDbLine
 10
663.68759931
 20
380.84490967
 30
0.0
 11
681.18759855
 21
398.34490967
 31
0.0
  0
LINE
  5
3FC
100
AcDbEntity
  8
HATCH
100
AcDbLine
 10
686.18759833
 20
403.34490967
 30
0.0
 11
696.14062500
 21
413.29793677
 31
0.0
  0
LINE
  5
3FD
100
AcDbEntity
  8
HATCH
100
AcDbLine
 10
692.50130680
 20
398.34490967
 30
0.0
 11
675.00130757
 21
380.84490967
 31
0.0
  0
LINE
  5
3FE
100
AcDbEntity
  8
HATCH
100
AcDbLine
 10
686.31501582
 20
380.84490967
 30
0.0
 11
696.14062500
 21
390.67051928
 31
0.0
  0
ENDBLK
  5
3FF
100
AcDbEntity
  8
0
100
AcDbBlockEnd
  0
BLOCK
  5
400
100
AcDbEntity
  8
0
100
AcDbBlockBegin
  2
BEM_0016
 70
    64
 10
455.08718872
 20
277.44299316
 30
0.0
  3
BEM_0016
  0
LINE
  5
401
100
AcDbEntity
  8
DIM49
100
AcDbLine
 10
455.08718872
 20
194.16021729
 30
0.0
 11
455.08718872
 21
277.44299316
 31
0.0
  0
LINE
  5
402
100
AcDbEntity
  8
DIM49
100
AcDbLine
 10
455.08718872
 20
198.16021729
 30
0.0
 11
463.08718872
 21
199.66021729
 31
0.0
  0
LINE
  5
403
100
AcDbEntity
  8
DIM49
100
AcDbLine
 10
463.08718872
 20
199.66021729
 30
0.0
 11
463.08718872
 21
196.66021729
 31
0.0
  0
LINE
  5
404
100
AcDbEntity
  8
DIM49
100
AcDbLine
 10
463.08718872
 20
196.66021729
 30
0.0
 11
455.08718872
 21
198.16021729
 31
0.0
  0
LINE
  5
405
100
AcDbEntity
  8
DIM49
100
AcDbLine
 10
462.88718872
 20
198.16021729
 30
0.0
 11
455.28718872
 21
198.16021729
 31
0.0
  0
LINE
  5
406
100
AcDbEntity
  8
DIM49
100
AcDbLine
 10
462.88718872
 20
197.76021729
 30
0.0
 11
457.42052205
 21
197.76021729
 31
0.0
  0
LINE
  5
407
100
AcDbEntity
  8
DIM49
100
AcDbLine
 10
462.88718872
 20
198.56021729
 30
0.0
 11
457.42052205
 21
198.56021729
 31
0.0
  0
LINE
  5
408
100
AcDbEntity
  8
DIM49
100
AcDbLine
 10
462.88718872
 20
197.36021729
 30
0.0
 11
459.55385539
 21
197.36021729
 31
0.0
  0
LINE
  5
409
100
AcDbEntity
  8
DIM49
100
AcDbLine
 10
462.88718872
 20
198.96021729
 30
0.0
 11
459.55385539
 21
198.96021729
 31
0.0
  0
LINE
  5
40A
100
AcDbEntity
  8
DIM49
100
AcDbLine
 10
462.88718872
 20
196.96021729
 30
0.0
 11
461.68718872
 21
196.96021729
 31
0.0
  0
LINE
  5
40B
100
AcDbEntity
  8
DIM49
100
AcDbLine
 10
462.88718872
 20
199.36021729
 30
0.0
 11
461.68718872
 21
199.36021729
 31
0.0
  0
LINE
  5
40C
100
AcDbEntity
  8
DIM49
100
AcDbLine
 10
597.08715820
 20
194.16021729
 30
0.0
 11
597.08715820
 21
241.83294678
 31
0.0
  0
LINE
  5
40D
100
AcDbEntity
  8
DIM49
100
AcDbLine
 10
597.08715820
 20
198.16021729
 30
0.0
 11
589.08715820
 21
196.66021729
 31
0.0
  0
LINE
  5
40E
100
AcDbEntity
  8
DIM49
100
AcDbLine
 10
589.08715820
 20
196.66021729
 30
0.0
 11
589.08715820
 21
199.66021729
 31
0.0
  0
LINE
  5
40F
100
AcDbEntity
  8
DIM49
100
AcDbLine
 10
589.08715820
 20
199.66021729
 30
0.0
 11
597.08715820
 21
198.16021729
 31
0.0
  0
LINE
  5
410
100
AcDbEntity
  8
DIM49
100
AcDbLine
 10
589.28715820
 20
198.16021729
 30
0.0
 11
596.88715820
 21
198.16021729
 31
0.0
  0
LINE
  5
411
100
AcDbEntity
  8
DIM49
100
AcDbLine
 10
589.28715820
 20
198.56021729
 30
0.0
 11
594.75382487
 21
198.56021729
 31
0.0
  0
LINE
  5
412
100
AcDbEntity
  8
DIM49
100
AcDbLine
 10
589.28715820
 20
197.76021729
 30
0.0
 11
594.75382487
 21
197.76021729
 31
0.0
  0
LINE
  5
413
100
AcDbEntity
  8
DIM49
100
AcDbLine
 10
589.28715820
 20
198.96021729
 30
0.0
 11
592.62049154
 21
198.96021729
 31
0.0
  0
LINE
  5
414
100
AcDbEntity
  8
DIM49
100
AcDbLine
 10
589.28715820
 20
197.36021729
 30
0.0
 11
592.62049154
 21
197.36021729
 31
0.0
  0
LINE
  5
415
100
AcDbEntity
  8
DIM49
100
AcDbLine
 10
589.28715820
 20
199.36021729
 30
0.0
 11
590.48715820
 21
199.36021729
 31
0.0
  0
LINE
  5
416
100
AcDbEntity
  8
DIM49
100
AcDbLine
 10
589.28715820
 20
196.96021729
 30
0.0
 11
590.48715820
 21
196.96021729
 31
0.0
  0
LINE
  5
417
100
AcDbEntity
  8
DIM49
100
AcDbLine
 10
463.08718872
 20
198.16021729
 30
0.0
 11
589.08715820
 21
198.16021729
 31
0.0
  0
TEXT
  5
418
100
AcDbEntity
  8
TXT_DIM49
100
AcDbText
 10
518.03935937
 20
201.16021729
 30
0.0
 40
7.00000000
  1
142
 50
0.0
 41
0.812
 51
0.0
  7
MONOTXT
100
AcDbText
  0
ENDBLK
  5
419
100
AcDbEntity
  8
0
100
AcDbBlockEnd
  0
BLOCK
  5
41A
100
AcDbEntity
  8
0
100
AcDbBlockBegin
  2
BEM_0017
 70
    64
 10
295.08715820
 20
276.56552124
 30
0.0
  3
BEM_0017
  0
LINE
  5
41B
100
AcDbEntity
  8
DIM49
100
AcDbLine
 10
295.08715820
 20
194.16021729
 30
0.0
 11
295.08715820
 21
276.56552124
 31
0.0
  0
LINE
  5
41C
100
AcDbEntity
  8
DIM49
100
AcDbLine
 10
295.08715820
 20
198.16021729
 30
0.0
 11
303.08715820
 21
199.66021729
 31
0.0
  0
LINE
  5
41D
100
AcDbEntity
  8
DIM49
100
AcDbLine
 10
303.08715820
 20
199.66021729
 30
0.0
 11
303.08715820
 21
196.66021729
 31
0.0
  0
LINE
  5
41E
100
AcDbEntity
  8
DIM49
100
AcDbLine
 10
303.08715820
 20
196.66021729
 30
0.0
 11
295.08715820
 21
198.16021729
 31
0.0
  0
LINE
  5
41F
100
AcDbEntity
  8
DIM49
100
AcDbLine
 10
302.88715820
 20
198.16021729
 30
0.0
 11
295.28715820
 21
198.16021729
 31
0.0
  0
LINE
  5
420
100
AcDbEntity
  8
DIM49
100
AcDbLine
 10
302.88715820
 20
197.76021729
 30
0.0
 11
297.42049154
 21
197.76021729
 31
0.0
  0
LINE
  5
421
100
AcDbEntity
  8
DIM49
100
AcDbLine
 10
302.88715820
 20
198.56021729
 30
0.0
 11
297.42049154
 21
198.56021729
 31
0.0
  0
LINE
  5
422
100
AcDbEntity
  8
DIM49
100
AcDbLine
 10
302.88715820
 20
197.36021729
 30
0.0
 11
299.55382487
 21
197.36021729
 31
0.0
  0
LINE
  5
423
100
AcDbEntity
  8
DIM49
100
AcDbLine
 10
302.88715820
 20
198.96021729
 30
0.0
 11
299.55382487
 21
198.96021729
 31
0.0
  0
LINE
  5
424
100
AcDbEntity
  8
DIM49
100
AcDbLine
 10
302.88715820
 20
196.96021729
 30
0.0
 11
301.68715820
 21
196.96021729
 31
0.0
  0
LINE
  5
425
100
AcDbEntity
  8
DIM49
100
AcDbLine
 10
302.88715820
 20
199.36021729
 30
0.0
 11
301.68715820
 21
199.36021729
 31
0.0
  0
LINE
  5
426
100
AcDbEntity
  8
DIM49
100
AcDbLine
 10
455.08718872
 20
194.16021729
 30
0.0
 11
455.08718872
 21
277.44299316
 31
0.0
  0
LINE
  5
427
100
AcDbEntity
  8
DIM49
100
AcDbLine
 10
455.08718872
 20
198.16021729
 30
0.0
 11
447.08718872
 21
196.66021729
 31
0.0
  0
LINE
  5
428
100
AcDbEntity
  8
DIM49
100
AcDbLine
 10
447.08718872
 20
196.66021729
 30
0.0
 11
447.08718872
 21
199.66021729
 31
0.0
  0
LINE
  5
429
100
AcDbEntity
  8
DIM49
100
AcDbLine
 10
447.08718872
 20
199.66021729
 30
0.0
 11
455.08718872
 21
198.16021729
 31
0.0
  0
LINE
  5
42A
100
AcDbEntity
  8
DIM49
100
AcDbLine
 10
447.28718872
 20
198.16021729
 30
0.0
 11
454.88718872
 21
198.16021729
 31
0.0
  0
LINE
  5
42B
100
AcDbEntity
  8
DIM49
100
AcDbLine
 10
447.28718872
 20
198.56021729
 30
0.0
 11
452.75385539
 21
198.56021729
 31
0.0
  0
LINE
  5
42C
100
AcDbEntity
  8
DIM49
100
AcDbLine
 10
447.28718872
 20
197.76021729
 30
0.0
 11
452.75385539
 21
197.76021729
 31
0.0
  0
LINE
  5
42D
100
AcDbEntity
  8
DIM49
100
AcDbLine
 10
447.28718872
 20
198.96021729
 30
0.0
 11
450.62052205
 21
198.96021729
 31
0.0
  0
LINE
  5
42E
100
AcDbEntity
  8
DIM49
100
AcDbLine
 10
447.28718872
 20
197.36021729
 30
0.0
 11
450.62052205
 21
197.36021729
 31
0.0
  0
LINE
  5
42F
100
AcDbEntity
  8
DIM49
100
AcDbLine
 10
447.28718872
 20
199.36021729
 30
0.0
 11
448.48718872
 21
199.36021729
 31
0.0
  0
LINE
  5
430
100
AcDbEntity
  8
DIM49
100
AcDbLine
 10
447.28718872
 20
196.96021729
 30
0.0
 11
448.48718872
 21
196.96021729
 31
0.0
  0
LINE
  5
431
100
AcDbEntity
  8
DIM49
100
AcDbLine
 10
303.08715820
 20
198.16021729
 30
0.0
 11
447.08718872
 21
198.16021729
 31
0.0
  0
TEXT
  5
432
100
AcDbEntity
  8
TXT_DIM49
100
AcDbText
 10
367.03935917
 20
201.16021729
 30
0.0
 40
7.00000000
  1
160
 50
0.0
 41
0.812
 51
0.0
  7
MONOTXT
100
AcDbText
  0
ENDBLK
  5
433
100
AcDbEntity
  8
0
100
AcDbBlockEnd
  0
BLOCK
  5
434
100
AcDbEntity
  8
0
100
AcDbBlockBegin
  2
*X3
 70
    65
 10
656.14062500
 20
377.84490967
 30
0.0
  3
*X
  0
LINE
  5
435
100
AcDbEntity
  8
HATCH
100
AcDbLine
 10
685.64364460
 20
377.84490967
 30
0.0
 11
696.14062500
 21
367.34792622
 31
0.0
  0
LINE
  5
436
100
AcDbEntity
  8
HATCH
100
AcDbLine
 10
696.14062500
 20
356.03421608
 30
0.0
 11
674.32993774
 21
377.84490967
 31
0.0
  0
LINE
  5
437
100
AcDbEntity
  8
HATCH
100
AcDbLine
 10
663.01623088
 20
377.84490967
 30
0.0
 11
696.14062500
 21
344.72050594
 31
0.0
  0
LINE
  5
438
100
AcDbEntity
  8
HATCH
100
AcDbLine
 10
691.20251256
 20
338.34490967
 30
0.0
 11
656.14062500
 21
373.40680740
 31
0.0
  0
LINE
  5
439
100
AcDbEntity
  8
HATCH
100
AcDbLine
 10
656.14062500
 20
362.09309726
 30
0.0
 11
681.14062500
 21
337.09309001
 31
0.0
  0
LINE
  5
43A
100
AcDbEntity
  8
HATCH
100
AcDbLine
 10
684.88880426
 20
333.34490967
 30
0.0
 11
695.88880106
 21
322.34490967
 31
0.0
  0
LINE
  5
43B
100
AcDbEntity
  8
HATCH
100
AcDbLine
 10
696.14062500
 20
310.77937552
 30
0.0
 11
689.57509276
 21
317.34490967
 31
0.0
  0
LINE
  5
43C
100
AcDbEntity
  8
HATCH
100
AcDbLine
 10
684.57509421
 20
322.34490967
 30
0.0
 11
656.14062500
 21
350.77938712
 31
0.0
  0
LINE
  5
43D
100
AcDbEntity
  8
HATCH
100
AcDbLine
 10
656.14062500
 20
339.46567698
 30
0.0
 11
696.14062500
 21
299.46566538
 31
0.0
  0
LINE
  5
43E
100
AcDbEntity
  8
HATCH
100
AcDbLine
 10
696.14062500
 20
288.15195524
 30
0.0
 11
656.14062500
 21
328.15196684
 31
0.0
  0
LINE
  5
43F
100
AcDbEntity
  8
HATCH
100
AcDbLine
 10
656.14062500
 20
316.83825670
 30
0.0
 11
696.14062500
 21
276.83824510
 31
0.0
  0
LINE
  5
440
100
AcDbEntity
  8
HATCH
100
AcDbLine
 10
696.14062500
 20
265.52453496
 30
0.0
 11
656.14062500
 21
305.52454656
 31
0.0
  0
LINE
  5
441
100
AcDbEntity
  8
HATCH
100
AcDbLine
 10
656.14062500
 20
294.21083642
 30
0.0
 11
696.14062500
 21
254.21082482
 31
0.0
  0
LINE
  5
442
100
AcDbEntity
  8
HATCH
100
AcDbLine
 10
696.14062500
 20
242.89711468
 30
0.0
 11
656.14062500
 21
282.89712628
 31
0.0
  0
LINE
  5
443
100
AcDbEntity
  8
HATCH
100
AcDbLine
 10
656.14062500
 20
271.58341614
 30
0.0
 11
696.14062500
 21
231.58340454
 31
0.0
  0
LINE
  5
444
100
AcDbEntity
  8
HATCH
100
AcDbLine
 10
695.93602667
 20
220.47429279
 30
0.0
 11
656.14062500
 21
260.26970600
 31
0.0
  0
LINE
  5
445
100
AcDbEntity
  8
HATCH
100
AcDbLine
 10
656.14062500
 20
248.95599586
 30
0.0
 11
689.63973025
 21
215.45688090
 31
0.0
  0
LINE
  5
446
100
AcDbEntity
  8
HATCH
100
AcDbLine
 10
674.52083329
 20
219.26207210
 30
0.0
 11
656.14062500
 21
237.64228572
 31
0.0
  0
LINE
  5
447
100
AcDbEntity
  8
HATCH
100
AcDbLine
 10
656.14062500
 20
226.32857558
 30
0.0
 11
665.43324477
 21
217.03595311
 31
0.0
  0
ENDBLK
  5
448
100
AcDbEntity
  8
0
100
AcDbBlockEnd
  0
BLOCK
  5
449
100
AcDbEntity
  8
0
100
AcDbBlockBegin
  2
DECKEL______________00001
 70
    64
 10
731.59062500
 20
341.34490967
 30
0.0
  3
DECKEL______________00001
  0
LINE
  5
44A
100
AcDbEntity
  8
RAHMEN
100
AcDbLine
  6
DOT
 62
     1
 10
731.59062500
 20
341.34490967
 30
0.0
 11
740.69062500
 21
341.34490967
 31
0.0
  0
LINE
  5
44B
100
AcDbEntity
  8
RAHMEN
100
AcDbLine
  6
DOT
 62
     1
 10
736.14062500
 20
336.79490967
 30
0.0
 11
736.14062500
 21
345.89490967
 31
0.0
  0
LINE
  5
44C
100
AcDbEntity
  8
RAHMEN
100
AcDbLine
  6
DOT
 62
     1
 10
704.59062500
 20
341.34490967
 30
0.0
 11
713.69062500
 21
341.34490967
 31
0.0
  0
LINE
  5
44D
100
AcDbEntity
  8
RAHMEN
100
AcDbLine
  6
DOT
 62
     1
 10
709.14062500
 20
336.79490967
 30
0.0
 11
709.14062500
 21
345.89490967
 31
0.0
  0
CIRCLE
  5
44E
100
AcDbEntity
  8
RAHMEN
100
AcDbCircle
  6
DOT
 62
     1
 10
736.14062500
 20
341.34490967
 30
0.0
 40
3.05000000
  0
CIRCLE
  5
44F
100
AcDbEntity
  8
RAHMEN
100
AcDbCircle
  6
DOT
 62
     1
 10
709.14062500
 20
341.34490967
 30
0.0
 40
3.05000000
  0
CIRCLE
  5
450
100
AcDbEntity
  8
RAHMEN
100
AcDbCircle
  6
DOT
 62
     1
 10
722.64062500
 20
341.34490967
 30
0.0
 40
20.20000000
  0
INSERT
  5
451
100
AcDbEntity
  8
0
100
AcDbBlockReference
  2
LIN_________________00002
 10
703.64062500
 20
341.34490967
 30
0.0
  0
ENDBLK
  5
452
100
AcDbEntity
  8
0
100
AcDbBlockEnd
  0
BLOCK
  5
453
100
AcDbEntity
  8
0
100
AcDbBlockBegin
  2
LIN_________________00002
 70
    64
 10
703.64062500
 20
341.34490967
 30
0.0
  3
LIN_________________00002
  0
CIRCLE
  5
454
100
AcDbEntity
  8
RAHMEN
100
AcDbCircle
  6
DOT
 62
     1
 10
722.64062500
 20
341.34490967
 30
0.0
 40
19.00000000
  0
ENDBLK
  5
455
100
AcDbEntity
  8
0
100
AcDbBlockEnd
  0
BLOCK
  5
456
100
AcDbEntity
  8
0
100
AcDbBlockBegin
  2
KONT________________00003
 70
    64
 10
701.14062500
 20
316.34490967
 30
0.0
  3
KONT________________00003
  0
POLYLINE
  5
457
100
AcDbEntity
  8
APPLE
100
AcDb2dPolyline
  6
DOT
 62
     1
 66
     1
  0
VERTEX
  5
458
100
AcDbEntity
  8
APPLE
100
AcDbVertex
100
AcDb2dVertex
 10
701.14062500
 20
316.34490967
 30
0.0
  0
VERTEX
  5
459
100
AcDbEntity
  8
APPLE
100
AcDbVertex
100
AcDb2dVertex
 10
701.14062500
 20
358.84490967
 30
0.0
  0
VERTEX
  5
45A
100
AcDbEntity
  8
APPLE
100
AcDbVertex
100
AcDb2dVertex
 10
701.14062500
 20
371.84490967
 30
0.0
  0
VERTEX
  5
45B
100
AcDbEntity
  8
APPLE
100
AcDbVertex
100
AcDb2dVertex
 10
739.90613064
 20
371.84490967
 30
0.0
  0
VERTEX
  5
45C
100
AcDbEntity
  8
APPLE
100
AcDbVertex
100
AcDb2dVertex
 10
741.45983019
 20
371.84490967
 30
0.0
  0
VERTEX
  5
45D
100
AcDbEntity
  8
APPLE
100
AcDbVertex
100
AcDb2dVertex
 10
741.82403722
 20
370.84425908
 30
0.0
  0
VERTEX
  5
45E
100
AcDbEntity
  8
APPLE
100
AcDbVertex
100
AcDb2dVertex
 10
743.06700889
 20
371.29666376
 30
0.0
 42
-0.520567051
  0
VERTEX
  5
45F
100
AcDbEntity
  8
APPLE
100
AcDbVertex
100
AcDb2dVertex
 10
744.14062500
 20
370.54490967
 30
0.0
  0
VERTEX
  5
460
100
AcDbEntity
  8
APPLE
100
AcDbVertex
100
AcDb2dVertex
 10
744.14062500
 20
358.84490967
 30
0.0
  0
VERTEX
  5
461
100
AcDbEntity
  8
APPLE
100
AcDbVertex
100
AcDb2dVertex
 10
744.14062500
 20
316.34490967
 30
0.0
  0
VERTEX
  5
462
100
AcDbEntity
  8
APPLE
100
AcDbVertex
100
AcDb2dVertex
 10
744.14062500
 20
312.14490967
 30
0.0
 42
-0.520567051
  0
VERTEX
  5
463
100
AcDbEntity
  8
APPLE
100
AcDbVertex
100
AcDb2dVertex
 10
743.06700889
 20
311.39315557
 30
0.0
  0
VERTEX
  5
464
100
AcDbEntity
  8
APPLE
100
AcDbVertex
100
AcDb2dVertex
 10
741.82403722
 20
311.84556026
 30
0.0
  0
VERTEX
  5
465
100
AcDbEntity
  8
APPLE
100
AcDbVertex
100
AcDb2dVertex
 10
741.45983019
 20
310.84490967
 30
0.0
  0
VERTEX
  5
466
100
AcDbEntity
  8
APPLE
100
AcDbVertex
100
AcDb2dVertex
 10
739.90613064
 20
310.84490967
 30
0.0
  0
VERTEX
  5
467
100
AcDbEntity
  8
APPLE
100
AcDbVertex
100
AcDb2dVertex
 10
701.14062500
 20
310.84490967
 30
0.0
  0
VERTEX
  5
468
100
AcDbEntity
  8
APPLE
100
AcDbVertex
100
AcDb2dVertex
 10
701.14062500
 20
316.34490967
 30
0.0
  0
SEQEND
  5
469
100
AcDbEntity
  8
APPLE
  0
LINE
  5
46A
100
AcDbEntity
  8
APPLE
100
AcDbLine
  6
DOT
 62
     1
 10
730.64062500
 20
364.34490967
 30
0.0
 11
723.64062500
 21
364.34490967
 31
0.0
  0
LINE
  5
46B
100
AcDbEntity
  8
APPLE
100
AcDbLine
  6
DOT
 62
     1
 10
727.14062500
 20
360.84490967
 30
0.0
 11
727.14062500
 21
367.84490967
 31
0.0
  0
CIRCLE
  5
46C
100
AcDbEntity
  8
APPLE
100
AcDbCircle
  6
DOT
 62
     1
 10
727.14062500
 20
364.34490967
 30
0.0
 40
1.75000000
  0
INSERT
  5
46D
100
AcDbEntity
  8
0
100
AcDbBlockReference
  2
LIN_________________00004
 10
725.93994038
 20
322.63356236
 30
0.0
  0
INSERT
  5
46E
100
AcDbEntity
  8
0
100
AcDbBlockReference
  2
ML__________________00005
 10
722.64062500
 20
307.84490967
 30
0.0
  0
ENDBLK
  5
46F
100
AcDbEntity
  8
0
100
AcDbBlockEnd
  0
BLOCK
  5
470
100
AcDbEntity
  8
0
100
AcDbBlockBegin
  2
LIN_________________00004
 70
    64
 10
725.93994038
 20
322.63356236
 30
0.0
  3
LIN_________________00004
  0
ARC
  5
471
100
AcDbEntity
  8
APPLE
100
AcDbCircle
  6
DOT
 62
     1
 10
722.64062500
 20
341.34490967
 30
0.0
 40
19.00000000
100
AcDbArc
 50
-10.000000000
 51
-80.000000000
  0
CIRCLE
  5
472
100
AcDbEntity
  8
APPLE
100
AcDbCircle
  6
DOT
 62
     1
 10
722.64062500
 20
341.34490967
 30
0.0
 40
20.50000000
  0
ENDBLK
  5
473
100
AcDbEntity
  8
0
100
AcDbBlockEnd
  0
BLOCK
  5
474
100
AcDbEntity
  8
0
100
AcDbBlockBegin
  2
ML__________________00005
 70
    64
 10
722.64062500
 20
307.84490967
 30
0.0
  3
ML__________________00005
  0
LINE
  5
475
100
AcDbEntity
  8
APPLE
100
AcDbLine
  6
DOT
 62
     1
 10
722.64062500
 20
307.84490967
 30
0.0
 11
722.64062500
 21
374.84490967
 31
0.0
  0
LINE
  5
476
100
AcDbEntity
  8
APPLE
100
AcDbLine
  6
DOT
 62
     1
 10
747.14062500
 20
341.34490967
 30
0.0
 11
698.14062500
 21
341.34490967
 31
0.0
  0
ENDBLK
  5
477
100
AcDbEntity
  8
0
100
AcDbBlockEnd
  0
BLOCK
  5
478
100
AcDbEntity
  8
0
100
AcDbBlockBegin
  2
A-A_________________00006
 70
    64
 10
698.64062500
 20
390.09490967
 30
0.0
  3
A-A_________________00006
  0
POLYLINE
  5
479
100
AcDbEntity
  8
LE_NORM
100
AcDb2dPolyline
 62
     8
 66
     1
  0
VERTEX
  5
47A
100
AcDbEntity
  8
LE_NORM
100
AcDbVertex
100
AcDb2dVertex
 10
698.64062500
 20
390.09490967
 30
0.0
  0
VERTEX
  5
47B
100
AcDbEntity
  8
LE_NORM
100
AcDbVertex
100
AcDb2dVertex
 10
704.04064941
 20
390.09490967
 30
0.0
  0
VERTEX
  5
47C
100
AcDbEntity
  8
LE_NORM
100
AcDbVertex
100
AcDb2dVertex
 10
704.04064941
 20
392.59490967
 30
0.0
  0
SEQEND
  5
47D
100
AcDbEntity
  8
LE_NORM
  0
POLYLINE
  5
47E
100
AcDbEntity
  8
K
100
AcDb2dPolyline
  6
DOT
 62
     1
 66
     1
  0
VERTEX
  5
47F
100
AcDbEntity
  8
K
100
AcDbVertex
100
AcDb2dVertex
 10
704.04064941
 20
392.59490967
 30
0.0
  0
VERTEX
  5
480
100
AcDbEntity
  8
K
100
AcDbVertex
100
AcDb2dVertex
 10
699.14060974
 20
392.59490967
 30
0.0
  0
VERTEX
  5
481
100
AcDbEntity
  8
K
100
AcDbVertex
100
AcDb2dVertex
 10
699.14060974
 20
407.99490356
 30
0.0
  0
VERTEX
  5
482
100
AcDbEntity
  8
K
100
AcDbVertex
100
AcDb2dVertex
 10
701.14060974
 20
407.99490356
 30
0.0
  0
VERTEX
  5
483
100
AcDbEntity
  8
K
100
AcDbVertex
100
AcDb2dVertex
 10
701.14060974
 20
408.59490967
 30
0.0
  0
VERTEX
  5
484
100
AcDbEntity
  8
K
100
AcDbVertex
100
AcDb2dVertex
 10
722.44061279
 20
408.59490967
 30
0.0
  0
VERTEX
  5
485
100
AcDbEntity
  8
K
100
AcDbVertex
100
AcDb2dVertex
 10
722.44061279
 20
407.99490356
 30
0.0
  0
VERTEX
  5
486
100
AcDbEntity
  8
K
100
AcDbVertex
100
AcDb2dVertex
 10
724.44061279
 20
407.99490356
 30
0.0
  0
VERTEX
  5
487
100
AcDbEntity
  8
K
100
AcDbVertex
100
AcDb2dVertex
 10
724.44061279
 20
392.59490967
 30
0.0
  0
VERTEX
  5
488
100
AcDbEntity
  8
K
100
AcDbVertex
100
AcDb2dVertex
 10
719.54064941
 20
392.59490967
 30
0.0
  0
SEQEND
  5
489
100
AcDbEntity
  8
K
  0
POLYLINE
  5
48A
100
AcDbEntity
  8
LE_NORM
100
AcDb2dPolyline
 66
     1
  0
VERTEX
  5
48B
100
AcDbEntity
  8
LE_NORM
100
AcDbVertex
100
AcDb2dVertex
 10
719.54064941
 20
392.59490967
 30
0.0
  0
VERTEX
  5
48C
100
AcDbEntity
  8
LE_NORM
100
AcDbVertex
100
AcDb2dVertex
 10
719.54061890
 20
390.09490967
 30
0.0
  0
SEQEND
  5
48D
100
AcDbEntity
  8
LE_NORM
  0
POLYLINE
  5
48E
100
AcDbEntity
  8
LE_NORM
100
AcDb2dPolyline
 62
     8
 66
     1
  0
VERTEX
  5
48F
100
AcDbEntity
  8
LE_NORM
100
AcDbVertex
100
AcDb2dVertex
 10
719.54061890
 20
390.09490967
 30
0.0
  0
VERTEX
  5
490
100
AcDbEntity
  8
LE_NORM
100
AcDbVertex
100
AcDb2dVertex
 10
724.94061279
 20
390.09490967
 30
0.0
 42
0.414213562
  0
VERTEX
  5
491
100
AcDbEntity
  8
LE_NORM
100
AcDbVertex
100
AcDb2dVertex
 10
727.44061279
 20
392.59490967
 30
0.0
  0
VERTEX
  5
492
100
AcDbEntity
  8
LE_NORM
100
AcDbVertex
100
AcDb2dVertex
 10
727.44061279
 20
409.09490967
 30
0.0
 42
0.414211775
  0
VERTEX
  5
493
100
AcDbEntity
  8
LE_NORM
100
AcDbVertex
100
AcDb2dVertex
 10
724.94062805
 20
411.59490967
 30
0.0
  0
VERTEX
  5
494
100
AcDbEntity
  8
LE_NORM
100
AcDbVertex
100
AcDb2dVertex
 10
698.64062514
 20
411.59490967
 30
0.0
 42
0.414213579
  0
VERTEX
  5
495
100
AcDbEntity
  8
LE_NORM
100
AcDbVertex
100
AcDb2dVertex
 10
696.14062500
 20
409.09490967
 30
0.0
  0
SEQEND
  5
496
100
AcDbEntity
  8
LE_NORM
  0
POLYLINE
  5
497
100
AcDbEntity
  8
LE_NORM
100
AcDb2dPolyline
 66
     1
  0
VERTEX
  5
498
100
AcDbEntity
  8
LE_NORM
100
AcDbVertex
100
AcDb2dVertex
 10
696.14062500
 20
409.09490967
 30
0.0
  0
VERTEX
  5
499
100
AcDbEntity
  8
LE_NORM
100
AcDbVertex
100
AcDb2dVertex
 10
696.14062500
 20
392.59490967
 30
0.0
  0
SEQEND
  5
49A
100
AcDbEntity
  8
LE_NORM
  0
ARC
  5
49B
100
AcDbEntity
  8
LE_NORM
100
AcDbCircle
 62
     8
 10
698.64062500
 20
392.59490967
 30
0.0
 40
2.50000000
100
AcDbArc
 50
180.000000000
 51
-90.000000000
  0
LINE
  5
49C
100
AcDbEntity
  8
LE_MIDDLE
100
AcDbLine
  6
DASHDOT
 62
     1
 10
728.94061279
 20
400.84490967
 30
0.0
 11
694.64062500
 21
400.84490967
 31
0.0
  0
INSERT
  5
49D
100
AcDbEntity
  8
0
100
AcDbBlockReference
  2
BOHRUNG_1___________00007
 10
699.14060974
 20
403.59490967
 30
0.0
  0
INSERT
  5
49E
100
AcDbEntity
  8
0
100
AcDbBlockReference
  2
BOHRUNG_2___________00008
 10
724.99061279
 20
398.09490967
 30
0.0
  0
INSERT
  5
49F
100
AcDbEntity
  8
0
100
AcDbBlockReference
  2
BOHRUNG_3___________00009
 10
727.44061279
 20
406.04490967
 30
0.0
  0
ENDBLK
  5
4A0
100
AcDbEntity
  8
0
100
AcDbBlockEnd
  0
BLOCK
  5
4A1
100
AcDbEntity
  8
0
100
AcDbBlockBegin
  2
BOHRUNG_1___________00007
 70
    64
 10
699.14060974
 20
403.59490967
 30
0.0
  3
BOHRUNG_1___________00007
  0
POLYLINE
  5
4A2
100
AcDbEntity
  8
K
100
AcDb2dPolyline
  6
DOT
 62
     1
 66
     1
  0
VERTEX
  5
4A3
100
AcDbEntity
  8
K
100
AcDbVertex
100
AcDb2dVertex
 10
699.14060974
 20
403.59490967
 30
0.0
  0
VERTEX
  5
4A4
100
AcDbEntity
  8
K
100
AcDbVertex
100
AcDb2dVertex
 10
699.14060974
 20
398.09490967
 30
0.0
  0
VERTEX
  5
4A5
100
AcDbEntity
  8
K
100
AcDbVertex
100
AcDb2dVertex
 10
696.14062500
 20
398.09490967
 30
0.0
  0
SEQEND
  5
4A6
100
AcDbEntity
  8
K
  0
POLYLINE
  5
4A7
100
AcDbEntity
  8
LE_NORM
100
AcDb2dPolyline
 66
     1
  0
VERTEX
  5
4A8
100
AcDbEntity
  8
LE_NORM
100
AcDbVertex
100
AcDb2dVertex
 10
696.14062500
 20
398.09490967
 30
0.0
  0
VERTEX
  5
4A9
100
AcDbEntity
  8
LE_NORM
100
AcDbVertex
100
AcDb2dVertex
 10
696.14062500
 20
403.59490967
 30
0.0
  0
SEQEND
  5
4AA
100
AcDbEntity
  8
LE_NORM
  0
LINE
  5
4AB
100
AcDbEntity
  8
K
100
AcDbLine
  6
DOT
 62
     1
 10
696.14062500
 20
403.59490967
 30
0.0
 11
699.14060974
 21
403.59490967
 31
0.0
  0
ENDBLK
  5
4AC
100
AcDbEntity
  8
0
100
AcDbBlockEnd
  0
BLOCK
  5
4AD
100
AcDbEntity
  8
0
100
AcDbBlockBegin
  2
BOHRUNG_2___________00008
 70
    64
 10
724.99061279
 20
398.09490967
 30
0.0
  3
BOHRUNG_2___________00008
  0
POLYLINE
  5
4AE
100
AcDbEntity
  8
K
100
AcDb2dPolyline
  6
DOT
 62
     1
 66
     1
  0
VERTEX
  5
4AF
100
AcDbEntity
  8
K
100
AcDbVertex
100
AcDb2dVertex
 10
724.99061279
 20
398.09490967
 30
0.0
  0
VERTEX
  5
4B0
100
AcDbEntity
  8
K
100
AcDbVertex
100
AcDb2dVertex
 10
724.44061279
 20
398.09490967
 30
0.0
  0
VERTEX
  5
4B1
100
AcDbEntity
  8
K
100
AcDbVertex
100
AcDb2dVertex
 10
724.44061279
 20
403.59490967
 30
0.0
  0
VERTEX
  5
4B2
100
AcDbEntity
  8
K
100
AcDbVertex
100
AcDb2dVertex
 10
724.99061279
 20
403.59490967
 30
0.0
  0
VERTEX
  5
4B3
100
AcDbEntity
  8
K
100
AcDbVertex
100
AcDb2dVertex
 10
724.99061279
 20
398.09490967
 30
0.0
  0
SEQEND
  5
4B4
100
AcDbEntity
  8
K
  0
ENDBLK
  5
4B5
100
AcDbEntity
  8
0
100
AcDbBlockEnd
  0
BLOCK
  5
4B6
100
AcDbEntity
  8
0
100
AcDbBlockBegin
  2
BOHRUNG_3___________00009
 70
    64
 10
727.44061279
 20
406.04490967
 30
0.0
  3
BOHRUNG_3___________00009
  0
POLYLINE
  5
4B7
100
AcDbEntity
  8
LE_NORM
100
AcDb2dPolyline
 66
     1
  0
VERTEX
  5
4B8
100
AcDbEntity
  8
LE_NORM
100
AcDbVertex
100
AcDb2dVertex
 10
727.44061279
 20
406.04490967
 30
0.0
  0
VERTEX
  5
4B9
100
AcDbEntity
  8
LE_NORM
100
AcDbVertex
100
AcDb2dVertex
 10
727.44061279
 20
395.64490967
 30
0.0
  0
SEQEND
  5
4BA
100
AcDbEntity
  8
LE_NORM
  0
POLYLINE
  5
4BB
100
AcDbEntity
  8
K
100
AcDb2dPolyline
  6
DOT
 62
     1
 66
     1
  0
VERTEX
  5
4BC
100
AcDbEntity
  8
K
100
AcDbVertex
100
AcDb2dVertex
 10
727.44061279
 20
395.64490967
 30
0.0
  0
VERTEX
  5
4BD
100
AcDbEntity
  8
K
100
AcDbVertex
100
AcDb2dVertex
 10
724.99061279
 20
398.09490967
 30
0.0
  0
VERTEX
  5
4BE
100
AcDbEntity
  8
K
100
AcDbVertex
100
AcDb2dVertex
 10
724.99061279
 20
403.59490967
 30
0.0
  0
VERTEX
  5
4BF
100
AcDbEntity
  8
K
100
AcDbVertex
100
AcDb2dVertex
 10
727.44061279
 20
406.04490967
 30
0.0
  0
SEQEND
  5
4C0
100
AcDbEntity
  8
K
  0
ENDBLK
  5
4C1
100
AcDbEntity
  8
0
100
AcDbBlockEnd
  0
BLOCK
  5
4C2
100
AcDbEntity
  8
0
100
AcDbBlockBegin
  2
SCHNITT_____________00010
 70
    64
 10
698.69062500
 20
307.84490967
 30
0.0
  3
SCHNITT_____________00010
  0
POLYLINE
  5
4C3
100
AcDbEntity
  8
APPLE
100
AcDb2dPolyline
  6
DOT
 62
     1
 66
     1
  0
VERTEX
  5
4C4
100
AcDbEntity
  8
APPLE
100
AcDbVertex
100
AcDb2dVertex
 10
698.69062500
 20
307.84490967
 30
0.0
  0
VERTEX
  5
4C5
100
AcDbEntity
  8
APPLE
100
AcDbVertex
100
AcDb2dVertex
 10
696.14062500
 20
309.31715285
 30
0.0
  0
VERTEX
  5
4C6
100
AcDbEntity
  8
APPLE
100
AcDbVertex
100
AcDb2dVertex
 10
696.14062500
 20
373.37266648
 30
0.0
  0
VERTEX
  5
4C7
100
AcDbEntity
  8
APPLE
100
AcDbVertex
100
AcDb2dVertex
 10
698.69062500
 20
374.84490967
 30
0.0
  0
VERTEX
  5
4C8
100
AcDbEntity
  8
APPLE
100
AcDbVertex
100
AcDb2dVertex
 10
699.64062500
 20
374.84490967
 30
0.0
  0
VERTEX
  5
4C9
100
AcDbEntity
  8
APPLE
100
AcDbVertex
100
AcDb2dVertex
 10
701.14062500
 20
373.34490967
 30
0.0
  0
VERTEX
  5
4CA
100
AcDbEntity
  8
APPLE
100
AcDbVertex
100
AcDb2dVertex
 10
701.14062500
 20
309.34490967
 30
0.0
  0
VERTEX
  5
4CB
100
AcDbEntity
  8
APPLE
100
AcDbVertex
100
AcDb2dVertex
 10
699.64062500
 20
307.84490967
 30
0.0
  0
VERTEX
  5
4CC
100
AcDbEntity
  8
APPLE
100
AcDbVertex
100
AcDb2dVertex
 10
698.69062500
 20
307.84490967
 30
0.0
  0
SEQEND
  5
4CD
100
AcDbEntity
  8
APPLE
  0
LINE
  5
4CE
100
AcDbEntity
  8
K
100
AcDbLine
  6
DOT
 62
     1
 10
696.14062500
 20
341.34490967
 30
0.0
 11
701.14062500
 21
341.34490967
 31
0.0
  0
INSERT
  5
4CF
100
AcDbEntity
  8
0
100
AcDbBlockReference
  2
DIN 66-5____________00011
 10
701.14062500
 20
362.84490967
 30
0.0
  0
INSERT
  5
4D0
100
AcDbEntity
  8
0
100
AcDbBlockReference
  2
DIN 66-5____________00012
 10
701.14062500
 20
346.84490967
 30
0.0
  0
INSERT
  5
4D1
100
AcDbEntity
  8
0
100
AcDbBlockReference
  2
DIN 66-5____________00013
 10
701.14062500
 20
335.84490967
 30
0.0
  0
INSERT
  5
4D2
100
AcDbEntity
  8
0
100
AcDbBlockReference
  2
DIN 66-5____________00014
 10
701.14062500
 20
319.84490967
 30
0.0
  0
ENDBLK
  5
4D3
100
AcDbEntity
  8
0
100
AcDbBlockEnd
  0
BLOCK
  5
4D4
100
AcDbEntity
  8
0
100
AcDbBlockBegin
  2
DIN 66-5____________00011
 70
    64
 10
701.14062500
 20
362.84490967
 30
0.0
  3
DIN 66-5____________00011
  0
POLYLINE
  5
4D5
100
AcDbEntity
  8
APPLE
100
AcDb2dPolyline
  6
DOT
 62
     1
 66
     1
  0
VERTEX
  5
4D6
100
AcDbEntity
  8
APPLE
100
AcDbVertex
100
AcDb2dVertex
 10
696.14062500
 20
360.09490967
 30
0.0
  0
VERTEX
  5
4D7
100
AcDbEntity
  8
APPLE
100
AcDbVertex
100
AcDb2dVertex
 10
698.69062500
 20
360.09490967
 30
0.0
  0
VERTEX
  5
4D8
100
AcDbEntity
  8
10
100
AcDbVertex
100
AcDb2dVertex
 10
701.14062500
 20
357.64490967
 30
0.0
  0
VERTEX
  5
4D9
100
AcDbEntity
  8
APPLE
100
AcDbVertex
100
AcDb2dVertex
 10
701.14062500
 20
368.04490967
 30
0.0
  0
VERTEX
  5
4DA
100
AcDbEntity
  8
APPLE
100
AcDbVertex
100
AcDb2dVertex
 10
698.69062500
 20
365.59490967
 30
0.0
  0
VERTEX
  5
4DB
100
AcDbEntity
  8
APPLE
100
AcDbVertex
100
AcDb2dVertex
 10
696.14062500
 20
365.59490967
 30
0.0
  0
VERTEX
  5
4DC
100
AcDbEntity
  8
APPLE
100
AcDbVertex
100
AcDb2dVertex
 10
696.14062500
 20
360.09490967
 30
0.0
  0
SEQEND
  5
4DD
100
AcDbEntity
  8
APPLE
  0
LINE
  5
4DE
100
AcDbEntity
  8
APPLE
100
AcDbLine
  6
DOT
 62
     1
 10
701.14062500
 20
365.59490967
 30
0.0
 11
701.14062500
 21
360.09490967
 31
0.0
  0
LINE
  5
4DF
100
AcDbEntity
  8
APPLE
100
AcDbLine
  6
DOT
 62
     1
 10
698.69062500
 20
365.59490967
 30
0.0
 11
698.69062500
 21
360.09490967
 31
0.0
  0
POINT
  5
4E0
100
AcDbEntity
  8
LE_NORM
100
AcDbPoint
 62
     1
 10
701.14062500
 20
362.84490967
 30
0.0
  0
ENDBLK
  5
4E1
100
AcDbEntity
  8
0
100
AcDbBlockEnd
  0
BLOCK
  5
4E2
100
AcDbEntity
  8
0
100
AcDbBlockBegin
  2
DIN 66-5____________00012
 70
    64
 10
701.14062500
 20
346.84490967
 30
0.0
  3
DIN 66-5____________00012
  0
POLYLINE
  5
4E3
100
AcDbEntity
  8
APPLE
100
AcDb2dPolyline
  6
DOT
 62
     1
 66
     1
  0
VERTEX
  5
4E4
100
AcDbEntity
  8
APPLE
100
AcDbVertex
100
AcDb2dVertex
 10
696.14062500
 20
344.09490967
 30
0.0
  0
VERTEX
  5
4E5
100
AcDbEntity
  8
APPLE
100
AcDbVertex
100
AcDb2dVertex
 10
698.69062500
 20
344.09490967
 30
0.0
  0
VERTEX
  5
4E6
100
AcDbEntity
  8
10
100
AcDbVertex
100
AcDb2dVertex
 10
701.14062500
 20
341.64490967
 30
0.0
  0
VERTEX
  5
4E7
100
AcDbEntity
  8
APPLE
100
AcDbVertex
100
AcDb2dVertex
 10
701.14062500
 20
352.04490967
 30
0.0
  0
VERTEX
  5
4E8
100
AcDbEntity
  8
APPLE
100
AcDbVertex
100
AcDb2dVertex
 10
698.69062500
 20
349.59490967
 30
0.0
  0
VERTEX
  5
4E9
100
AcDbEntity
  8
APPLE
100
AcDbVertex
100
AcDb2dVertex
 10
696.14062500
 20
349.59490967
 30
0.0
  0
VERTEX
  5
4EA
100
AcDbEntity
  8
APPLE
100
AcDbVertex
100
AcDb2dVertex
 10
696.14062500
 20
344.09490967
 30
0.0
  0
SEQEND
  5
4EB
100
AcDbEntity
  8
APPLE
  0
LINE
  5
4EC
100
AcDbEntity
  8
APPLE
100
AcDbLine
  6
DOT
 62
     1
 10
701.14062500
 20
349.59490967
 30
0.0
 11
701.14062500
 21
344.09490967
 31
0.0
  0
LINE
  5
4ED
100
AcDbEntity
  8
APPLE
100
AcDbLine
  6
DOT
 62
     1
 10
698.69062500
 20
349.59490967
 30
0.0
 11
698.69062500
 21
344.09490967
 31
0.0
  0
POINT
  5
4EE
100
AcDbEntity
  8
LE_NORM
100
AcDbPoint
 62
     1
 10
701.14062500
 20
346.84490967
 30
0.0
  0
ENDBLK
  5
4EF
100
AcDbEntity
  8
0
100
AcDbBlockEnd
  0
BLOCK
  5
4F0
100
AcDbEntity
  8
0
100
AcDbBlockBegin
  2
DIN 66-5____________00013
 70
    64
 10
701.14062500
 20
335.84490967
 30
0.0
  3
DIN 66-5____________00013
  0
POLYLINE
  5
4F1
100
AcDbEntity
  8
APPLE
100
AcDb2dPolyline
  6
DOT
 62
     1
 66
     1
  0
VERTEX
  5
4F2
100
AcDbEntity
  8
APPLE
100
AcDbVertex
100
AcDb2dVertex
 10
696.14062500
 20
333.09490967
 30
0.0
  0
VERTEX
  5
4F3
100
AcDbEntity
  8
APPLE
100
AcDbVertex
100
AcDb2dVertex
 10
698.69062500
 20
333.09490967
 30
0.0
  0
VERTEX
  5
4F4
100
AcDbEntity
  8
10
100
AcDbVertex
100
AcDb2dVertex
 10
701.14062500
 20
330.64490967
 30
0.0
  0
VERTEX
  5
4F5
100
AcDbEntity
  8
APPLE
100
AcDbVertex
100
AcDb2dVertex
 10
701.14062500
 20
341.04490967
 30
0.0
  0
VERTEX
  5
4F6
100
AcDbEntity
  8
APPLE
100
AcDbVertex
100
AcDb2dVertex
 10
698.69062500
 20
338.59490967
 30
0.0
  0
VERTEX
  5
4F7
100
AcDbEntity
  8
APPLE
100
AcDbVertex
100
AcDb2dVertex
 10
696.14062500
 20
338.59490967
 30
0.0
  0
VERTEX
  5
4F8
100
AcDbEntity
  8
APPLE
100
AcDbVertex
100
AcDb2dVertex
 10
696.14062500
 20
333.09490967
 30
0.0
  0
SEQEND
  5
4F9
100
AcDbEntity
  8
APPLE
  0
LINE
  5
4FA
100
AcDbEntity
  8
APPLE
100
AcDbLine
  6
DOT
 62
     1
 10
701.14062500
 20
338.59490967
 30
0.0
 11
701.14062500
 21
333.09490967
 31
0.0
  0
LINE
  5
4FB
100
AcDbEntity
  8
APPLE
100
AcDbLine
  6
DOT
 62
     1
 10
698.69062500
 20
338.59490967
 30
0.0
 11
698.69062500
 21
333.09490967
 31
0.0
  0
POINT
  5
4FC
100
AcDbEntity
  8
LE_NORM
100
AcDbPoint
 62
     1
 10
701.14062500
 20
335.84490967
 30
0.0
  0
ENDBLK
  5
4FD
100
AcDbEntity
  8
0
100
AcDbBlockEnd
  0
BLOCK
  5
4FE
100
AcDbEntity
  8
0
100
AcDbBlockBegin
  2
DIN 66-5____________00014
 70
    64
 10
701.14062500
 20
319.84490967
 30
0.0
  3
DIN 66-5____________00014
  0
POLYLINE
  5
4FF
100
AcDbEntity
  8
APPLE
100
AcDb2dPolyline
  6
DOT
 62
     1
 66
     1
  0
VERTEX
  5
500
100
AcDbEntity
  8
APPLE
100
AcDbVertex
100
AcDb2dVertex
 10
696.14062500
 20
317.09490967
 30
0.0
  0
VERTEX
  5
501
100
AcDbEntity
  8
APPLE
100
AcDbVertex
100
AcDb2dVertex
 10
698.69062500
 20
317.09490967
 30
0.0
  0
VERTEX
  5
502
100
AcDbEntity
  8
10
100
AcDbVertex
100
AcDb2dVertex
 10
701.14062500
 20
314.64490967
 30
0.0
  0
VERTEX
  5
503
100
AcDbEntity
  8
APPLE
100
AcDbVertex
100
AcDb2dVertex
 10
701.14062500
 20
325.04490967
 30
0.0
  0
VERTEX
  5
504
100
AcDbEntity
  8
APPLE
100
AcDbVertex
100
AcDb2dVertex
 10
698.69062500
 20
322.59490967
 30
0.0
  0
VERTEX
  5
505
100
AcDbEntity
  8
APPLE
100
AcDbVertex
100
AcDb2dVertex
 10
696.14062500
 20
322.59490967
 30
0.0
  0
VERTEX
  5
506
100
AcDbEntity
  8
APPLE
100
AcDbVertex
100
AcDb2dVertex
 10
696.14062500
 20
317.09490967
 30
0.0
  0
SEQEND
  5
507
100
AcDbEntity
  8
APPLE
  0
LINE
  5
508
100
AcDbEntity
  8
APPLE
100
AcDbLine
  6
DOT
 62
     1
 10
701.14062500
 20
322.59490967
 30
0.0
 11
701.14062500
 21
317.09490967
 31
0.0
  0
LINE
  5
509
100
AcDbEntity
  8
APPLE
100
AcDbLine
  6
DOT
 62
     1
 10
698.69062500
 20
322.59490967
 30
0.0
 11
698.69062500
 21
317.09490967
 31
0.0
  0
POINT
  5
50A
100
AcDbEntity
  8
LE_NORM
100
AcDbPoint
 62
     1
 10
701.14062500
 20
319.84490967
 30
0.0
  0
ENDBLK
  5
50B
100
AcDbEntity
  8
0
100
AcDbBlockEnd
  0
BLOCK
  5
50C
100
AcDbEntity
  8
0
100
AcDbBlockBegin
  2
HAUBE EDELST._______00015
 70
    64
 10
744.14062500
 20
307.84490967
 30
0.0
  3
HAUBE EDELST._______00015
  0
POLYLINE
  5
50D
100
AcDbEntity
  8
APPLE
100
AcDb2dPolyline
  6
DOT
 62
     1
 66
     1
  0
VERTEX
  5
50E
100
AcDbEntity
  8
APPLE
100
AcDbVertex
100
AcDb2dVertex
 10
744.14062500
 20
307.84490967
 30
0.0
  0
VERTEX
  5
50F
100
AcDbEntity
  8
APPLE
100
AcDbVertex
100
AcDb2dVertex
 10
698.89062500
 20
307.84490967
 30
0.0
  0
VERTEX
  5
510
100
AcDbEntity
  8
APPLE
100
AcDbVertex
100
AcDb2dVertex
 10
696.64062500
 20
309.14394777
 30
0.0
  0
VERTEX
  5
511
100
AcDbEntity
  8
APPLE
100
AcDbVertex
100
AcDb2dVertex
 10
696.14062500
 20
308.27792237
 30
0.0
  0
VERTEX
  5
512
100
AcDbEntity
  8
APPLE
100
AcDbVertex
100
AcDb2dVertex
 10
698.62267581
 20
306.84490967
 30
0.0
  0
SEQEND
  5
513
100
AcDbEntity
  8
APPLE
  0
POLYLINE
  5
514
100
AcDbEntity
  8
LE_NORM
100
AcDb2dPolyline
 62
     8
 66
     1
  0
VERTEX
  5
515
100
AcDbEntity
  8
LE_NORM
100
AcDbVertex
100
AcDb2dVertex
 10
698.62267581
 20
306.84490967
 30
0.0
  0
VERTEX
  5
516
100
AcDbEntity
  8
LE_NORM
100
AcDbVertex
100
AcDb2dVertex
 10
744.14062500
 20
306.84490967
 30
0.0
 42
0.414213562
  0
VERTEX
  5
517
100
AcDbEntity
  8
LE_NORM
100
AcDbVertex
100
AcDb2dVertex
 10
746.64062500
 20
309.34490967
 30
0.0
  0
VERTEX
  5
518
100
AcDbEntity
  8
LE_NORM
100
AcDbVertex
100
AcDb2dVertex
 10
746.64062500
 20
339.84490967
 30
0.0
  0
VERTEX
  5
519
100
AcDbEntity
  8
LE_NORM
100
AcDbVertex
100
AcDb2dVertex
 10
746.64062500
 20
373.34490967
 30
0.0
 42
0.414213562
  0
VERTEX
  5
51A
100
AcDbEntity
  8
LE_NORM
100
AcDbVertex
100
AcDb2dVertex
 10
744.14062500
 20
375.84490967
 30
0.0
  0
VERTEX
  5
51B
100
AcDbEntity
  8
LE_NORM
100
AcDbVertex
100
AcDb2dVertex
 10
698.62267581
 20
375.84490967
 30
0.0
  0
SEQEND
  5
51C
100
AcDbEntity
  8
LE_NORM
  0
POLYLINE
  5
51D
100
AcDbEntity
  8
APPLE
100
AcDb2dPolyline
  6
DOT
 62
     1
 66
     1
  0
VERTEX
  5
51E
100
AcDbEntity
  8
APPLE
100
AcDbVertex
100
AcDb2dVertex
 10
698.62267581
 20
375.84490967
 30
0.0
  0
VERTEX
  5
51F
100
AcDbEntity
  8
APPLE
100
AcDbVertex
100
AcDb2dVertex
 10
696.14062500
 20
374.41189697
 30
0.0
  0
VERTEX
  5
520
100
AcDbEntity
  8
APPLE
100
AcDbVertex
100
AcDb2dVertex
 10
696.64062500
 20
373.54587156
 30
0.0
  0
VERTEX
  5
521
100
AcDbEntity
  8
APPLE
100
AcDbVertex
100
AcDb2dVertex
 10
698.89062500
 20
374.84490967
 30
0.0
  0
VERTEX
  5
522
100
AcDbEntity
  8
APPLE
100
AcDbVertex
100
AcDb2dVertex
 10
744.14062500
 20
374.84490967
 30
0.0
 42
-0.414213562
  0
VERTEX
  5
523
100
AcDbEntity
  8
APPLE
100
AcDbVertex
100
AcDb2dVertex
 10
745.64062500
 20
373.34490967
 30
0.0
  0
VERTEX
  5
524
100
AcDbEntity
  8
APPLE
100
AcDbVertex
100
AcDb2dVertex
 10
745.64062500
 20
339.84490967
 30
0.0
  0
VERTEX
  5
525
100
AcDbEntity
  8
APPLE
100
AcDbVertex
100
AcDb2dVertex
 10
745.64062500
 20
309.34490967
 30
0.0
 42
-0.414213562
  0
VERTEX
  5
526
100
AcDbEntity
  8
APPLE
100
AcDbVertex
100
AcDb2dVertex
 10
744.14062500
 20
307.84490967
 30
0.0
  0
SEQEND
  5
527
100
AcDbEntity
  8
APPLE
  0
POLYLINE
  5
528
100
AcDbEntity
  8
LE_NORM
100
AcDb2dPolyline
 62
     8
 66
     1
  0
VERTEX
  5
529
100
AcDbEntity
  8
LE_NORM
100
AcDbVertex
100
AcDb2dVertex
 10
698.62267581
 20
375.84490967
 30
0.0
  0
VERTEX
  5
52A
100
AcDbEntity
  8
LE_NORM
100
AcDbVertex
100
AcDb2dVertex
 10
696.14062500
 20
375.84490967
 30
0.0
  0
SEQEND
  5
52B
100
AcDbEntity
  8
LE_NORM
  0
LINE
  5
52C
100
AcDbEntity
  8
LE_NORM
100
AcDbLine
 10
696.14062500
 20
375.84490967
 30
0.0
 11
696.14062500
 21
374.41189697
 31
0.0
  0
POLYLINE
  5
52D
100
AcDbEntity
  8
LE_NORM
100
AcDb2dPolyline
 62
     8
 66
     1
  0
VERTEX
  5
52E
100
AcDbEntity
  8
LE_NORM
100
AcDbVertex
100
AcDb2dVertex
 10
698.62267581
 20
306.84490967
 30
0.0
  0
VERTEX
  5
52F
100
AcDbEntity
  8
LE_NORM
100
AcDbVertex
100
AcDb2dVertex
 10
696.14062500
 20
306.84490967
 30
0.0
  0
SEQEND
  5
530
100
AcDbEntity
  8
LE_NORM
  0
LINE
  5
531
100
AcDbEntity
  8
LE_NORM
100
AcDbLine
 10
696.14062500
 20
306.84490967
 30
0.0
 11
696.14062500
 21
308.27792237
 31
0.0
  0
LINE
  5
532
100
AcDbEntity
  8
LE_NORM
100
AcDbLine
 10
696.14062500
 20
374.41189697
 30
0.0
 11
696.14062500
 21
308.27792237
 31
0.0
  0
INSERT
  5
533
100
AcDbEntity
  8
DIM49
100
AcDbBlockReference
  2
BEM_0001
 10
696.14062500
 20
431.80200195
 30
0.0
 41
1.00000000
 42
1.00000000
 50
0.0
  0
INSERT
  5
534
100
AcDbEntity
  8
DIM49
100
AcDbBlockReference
  2
BEM_0002
 10
724.94061279
 20
390.09490967
 30
0.0
 41
1.00000000
 42
1.00000000
 50
0.0
  0
INSERT
  5
535
100
AcDbEntity
  8
DIM49
100
AcDbBlockReference
  2
BEM_0003
 10
702.40594482
 20
335.84490967
 30
0.0
 41
1.00000000
 42
1.00000000
 50
0.0
  0
INSERT
  5
536
100
AcDbEntity
  8
DIM49
100
AcDbBlockReference
  2
BEM_0004
 10
696.14062500
 20
377.84490967
 30
0.0
 41
1.00000000
 42
1.00000000
 50
0.0
  0
INSERT
  5
537
100
AcDbEntity
  8
DIM49
100
AcDbBlockReference
  2
BEM_0005
 10
702.40594482
 20
319.84490967
 30
0.0
 41
1.00000000
 42
1.00000000
 50
0.0
  0
INSERT
  5
538
100
AcDbEntity
  8
DIM49
100
AcDbBlockReference
  2
BEM_0006
 10
696.14062500
 20
220.63733373
 30
0.0
 41
1.00000000
 42
1.00000000
 50
0.0
  0
ENDBLK
  5
539
100
AcDbEntity
  8
0
100
AcDbBlockEnd
  0
BLOCK
  5
53A
100
AcDbEntity
  8
0
100
AcDbBlockBegin
  2
DS__________________00016
 70
    64
 10
119.93247023
 20
389.62382048
 30
0.0
  3
DS__________________00016
  0
LINE
  5
53B
100
AcDbEntity
  8
LE_RED
100
AcDbLine
 10
119.93247023
 20
389.62382048
 30
0.0
 11
119.98331476
 21
389.59490965
 31
0.0
  0
LINE
  5
53C
100
AcDbEntity
  8
LE_RED
100
AcDbLine
 10
123.85085174
 20
389.66615400
 30
0.0
 11
123.85445646
 21
389.59490965
 31
0.0
  0
POLYLINE
  5
53D
100
AcDbEntity
  8
LE_NORM
100
AcDb2dPolyline
 62
     8
 66
     1
  0
VERTEX
  5
53E
100
AcDbEntity
  8
LE_NORM
100
AcDbVertex
100
AcDb2dVertex
 10
223.38904382
 20
411.59490972
 30
0.0
  0
VERTEX
  5
53F
100
AcDbEntity
  8
LE_NORM
100
AcDbVertex
100
AcDb2dVertex
 10
42.08715057
 20
411.59490965
 30
0.0
  0
VERTEX
  5
540
100
AcDbEntity
  8
LE_NORM
100
AcDbVertex
100
AcDb2dVertex
 10
42.08715057
 20
390.09490965
 30
0.0
  0
VERTEX
  5
541
100
AcDbEntity
  8
LE_NORM
100
AcDbVertex
100
AcDb2dVertex
 10
223.38904382
 20
390.09490966
 30
0.0
  0
VERTEX
  5
542
100
AcDbEntity
  8
LE_NORM
100
AcDbVertex
100
AcDb2dVertex
 10
491.58718872
 20
390.09490966
 30
0.0
  0
VERTEX
  5
543
100
AcDbEntity
  8
LE_NORM
100
AcDbVertex
100
AcDb2dVertex
 10
491.58718872
 20
411.59490966
 30
0.0
  0
VERTEX
  5
544
100
AcDbEntity
  8
LE_NORM
100
AcDbVertex
100
AcDb2dVertex
 10
223.38904382
 20
411.59490974
 30
0.0
  0
SEQEND
  5
545
100
AcDbEntity
  8
LE_NORM
  0
INSERT
  5
546
100
AcDbEntity
  8
DIM49
100
AcDbBlockReference
  2
BEM_0007
 10
477.08715820
 20
407.34490967
 30
0.0
 41
1.00000000
 42
1.00000000
 50
0.0
  0
INSERT
  5
547
100
AcDbEntity
  8
DIM49
100
AcDbBlockReference
  2
BEM_0008
 10
477.08715820
 20
407.34490967
 30
0.0
 41
1.00000000
 42
1.00000000
 50
0.0
  0
INSERT
  5
548
100
AcDbEntity
  8
DIM49
100
AcDbBlockReference
  2
BEM_0009
 10
39.58715057
 20
409.09490965
 30
0.0
 41
1.00000000
 42
1.00000000
 50
0.0
  0
INSERT
  5
549
100
AcDbEntity
  8
DIM49
100
AcDbBlockReference
  2
BEM_0010
 10
461.08718872
 20
335.84487915
 30
0.0
 41
1.00000000
 42
1.00000000
 50
0.0
  0
INSERT
  5
54A
100
AcDbEntity
  8
DIM49
100
AcDbBlockReference
  2
BEM_0011
 10
461.08718872
 20
319.84487915
 30
0.0
 41
1.00000000
 42
1.00000000
 50
0.0
  0
INSERT
  5
54B
100
AcDbEntity
  8
DIM49
100
AcDbBlockReference
  2
BEM_0012
 10
461.08718872
 20
335.84487915
 30
0.0
 41
1.00000000
 42
1.00000000
 50
0.0
  0
INSERT
  5
54C
100
AcDbEntity
  8
DIM49
100
AcDbBlockReference
  2
BEM_0013
 10
48.58715057
 20
407.34490977
 30
0.0
 41
1.00000000
 42
1.00000000
 50
0.0
  0
INSERT
  5
54D
100
AcDbEntity
  8
0
100
AcDbBlockReference
  2
BOHR________________00017
 10
477.08715820
 20
394.34490967
 30
0.0
  0
INSERT
  5
54E
100
AcDbEntity
  8
0
100
AcDbBlockReference
  2
KAPPE_______________00018
 10
42.08715057
 20
390.09490965
 30
0.0
  0
ENDBLK
  5
54F
100
AcDbEntity
  8
0
100
AcDbBlockEnd
  0
BLOCK
  5
550
100
AcDbEntity
  8
0
100
AcDbBlockBegin
  2
BOHR________________00017
 70
    64
 10
477.08715820
 20
394.34490967
 30
0.0
  3
BOHR________________00017
  0
LINE
  5
551
100
AcDbEntity
  8
LE_MIDDLE
100
AcDbLine
  6
DASHDOT
 62
     1
 10
477.08715820
 20
394.34490967
 30
0.0
 11
477.08715820
 21
407.34490967
 31
0.0
  0
LINE
  5
552
100
AcDbEntity
  8
LE_MIDDLE
100
AcDbLine
  6
DASHDOT
 62
     1
 10
470.58715820
 20
400.84490967
 30
0.0
 11
491.58718872
 21
400.84490967
 31
0.0
  0
LINE
  5
553
100
AcDbEntity
  8
LE_MIDDLE
100
AcDbLine
  6
DASHDOT
 62
     1
 10
42.08715057
 20
400.84490977
 30
0.0
 11
55.08715057
 21
400.84490977
 31
0.0
  0
LINE
  5
554
100
AcDbEntity
  8
LE_MIDDLE
100
AcDbLine
  6
DASHDOT
 62
     1
 10
48.58715057
 20
394.34490977
 30
0.0
 11
48.58715057
 21
407.34490977
 31
0.0
  0
CIRCLE
  5
555
100
AcDbEntity
  8
LE_NORM
100
AcDbCircle
 62
     8
 10
477.08715820
 20
400.84490967
 30
0.0
 40
3.50000000
  0
CIRCLE
  5
556
100
AcDbEntity
  8
LE_NORM
100
AcDbCircle
 62
     8
 10
477.08715820
 20
400.84490967
 30
0.0
 40
1.50000000
  0
CIRCLE
  5
557
100
AcDbEntity
  8
LE_NORM
100
AcDbCircle
 62
     8
 10
48.58715057
 20
400.84490977
 30
0.0
 40
3.50000000
  0
CIRCLE
  5
558
100
AcDbEntity
  8
LE_NORM
100
AcDbCircle
 62
     8
 10
48.58715057
 20
400.84490977
 30
0.0
 40
1.50000000
  0
ENDBLK
  5
559
100
AcDbEntity
  8
0
100
AcDbBlockEnd
  0
BLOCK
  5
55A
100
AcDbEntity
  8
0
100
AcDbBlockBegin
  2
KAPPE_______________00018
 70
    64
 10
42.08715057
 20
390.09490965
 30
0.0
  3
KAPPE_______________00018
  0
ARC
  5
55B
100
AcDbEntity
  8
LE_NORM
100
AcDbCircle
 62
     8
 10
42.08715057
 20
392.59490965
 30
0.0
 40
2.50000000
100
AcDbArc
 50
180.000000000
 51
-90.000000000
  0
POLYLINE
  5
55C
100
AcDbEntity
  8
LE_NORM
100
AcDb2dPolyline
 62
     8
 66
     1
  0
VERTEX
  5
55D
100
AcDbEntity
  8
LE_NORM
100
AcDbVertex
100
AcDb2dVertex
 10
39.58715057
 20
392.59490965
 30
0.0
  0
VERTEX
  5
55E
100
AcDbEntity
  8
LE_NORM
100
AcDbVertex
100
AcDb2dVertex
 10
39.58715057
 20
409.09490965
 30
0.0
 42
-0.414213562
  0
VERTEX
  5
55F
100
AcDbEntity
  8
LE_NORM
100
AcDbVertex
100
AcDb2dVertex
 10
42.08715057
 20
411.59490965
 30
0.0
  0
SEQEND
  5
560
100
AcDbEntity
  8
LE_NORM
  0
POLYLINE
  5
561
100
AcDbEntity
  8
LE_NORM
100
AcDb2dPolyline
 62
     8
 66
     1
  0
VERTEX
  5
562
100
AcDbEntity
  8
LE_NORM
100
AcDbVertex
100
AcDb2dVertex
 10
491.58718872
 20
390.09490966
 30
0.0
 42
0.414213562
  0
VERTEX
  5
563
100
AcDbEntity
  8
LE_NORM
100
AcDbVertex
100
AcDb2dVertex
 10
494.08718872
 20
392.59490966
 30
0.0
  0
VERTEX
  5
564
100
AcDbEntity
  8
LE_NORM
100
AcDbVertex
100
AcDb2dVertex
 10
494.08718872
 20
409.09490966
 30
0.0
 42
0.414213562
  0
VERTEX
  5
565
100
AcDbEntity
  8
LE_NORM
100
AcDbVertex
100
AcDb2dVertex
 10
491.58718872
 20
411.59490966
 30
0.0
  0
SEQEND
  5
566
100
AcDbEntity
  8
LE_NORM
  0
ENDBLK
  5
567
100
AcDbEntity
  8
0
100
AcDbBlockEnd
  0
BLOCK
  5
568
100
AcDbEntity
  8
0
100
AcDbBlockBegin
  2
DRAUFSICHT HAUBE____00019
 70
    64
 10
204.08718872
 20
309.34391726
 30
0.0
  3
DRAUFSICHT HAUBE____00019
  0
POLYLINE
  5
569
100
AcDbEntity
  8
LE_NORM
100
AcDb2dPolyline
 62
     8
 66
     1
  0
VERTEX
  5
56A
100
AcDbEntity
  8
LE_NORM
100
AcDbVertex
100
AcDb2dVertex
 10
204.08718872
 20
309.34391726
 30
0.0
  0
VERTEX
  5
56B
100
AcDbEntity
  8
LE_NORM
100
AcDbVertex
100
AcDb2dVertex
 10
204.08718872
 20
373.34391726
 30
0.0
 42
-0.414213562
  0
VERTEX
  5
56C
100
AcDbEntity
  8
LE_NORM
100
AcDbVertex
100
AcDb2dVertex
 10
206.58718872
 20
375.84391726
 30
0.0
  0
VERTEX
  5
56D
100
AcDbEntity
  8
LE_NORM
100
AcDbVertex
100
AcDb2dVertex
 10
491.58718872
 20
375.84391726
 30
0.0
 42
-0.414213562
  0
VERTEX
  5
56E
100
AcDbEntity
  8
LE_NORM
100
AcDbVertex
100
AcDb2dVertex
 10
494.08718872
 20
373.34391726
 30
0.0
  0
VERTEX
  5
56F
100
AcDbEntity
  8
LE_NORM
100
AcDbVertex
100
AcDb2dVertex
 10
494.08718872
 20
309.34391726
 30
0.0
 42
-0.414213562
  0
VERTEX
  5
570
100
AcDbEntity
  8
LE_NORM
100
AcDbVertex
100
AcDb2dVertex
 10
491.58718872
 20
306.84391726
 30
0.0
  0
VERTEX
  5
571
100
AcDbEntity
  8
LE_NORM
100
AcDbVertex
100
AcDb2dVertex
 10
206.58718872
 20
306.84391726
 30
0.0
 42
-0.414213562
  0
VERTEX
  5
572
100
AcDbEntity
  8
LE_NORM
100
AcDbVertex
100
AcDb2dVertex
 10
204.08718872
 20
309.34391726
 30
0.0
  0
SEQEND
  5
573
100
AcDbEntity
  8
LE_NORM
  0
POLYLINE
  5
574
100
AcDbEntity
  8
LE_HIDDEN
100
AcDb2dPolyline
  6
HIDDEN
 62
     8
 66
     1
  0
VERTEX
  5
575
100
AcDbEntity
  8
LE_HIDDEN
100
AcDbVertex
100
AcDb2dVertex
 10
491.58718872
 20
307.84391726
 30
0.0
  0
VERTEX
  5
576
100
AcDbEntity
  8
LE_HIDDEN
100
AcDbVertex
100
AcDb2dVertex
 10
206.58718872
 20
307.84391726
 30
0.0
 42
-0.414213562
  0
VERTEX
  5
577
100
AcDbEntity
  8
LE_HIDDEN
100
AcDbVertex
100
AcDb2dVertex
 10
205.08718872
 20
309.34391726
 30
0.0
  0
VERTEX
  5
578
100
AcDbEntity
  8
LE_HIDDEN
100
AcDbVertex
100
AcDb2dVertex
 10
205.08718872
 20
373.34391726
 30
0.0
 42
-0.414213562
  0
VERTEX
  5
579
100
AcDbEntity
  8
LE_HIDDEN
100
AcDbVertex
100
AcDb2dVertex
 10
206.58718872
 20
374.84391726
 30
0.0
  0
VERTEX
  5
57A
100
AcDbEntity
  8
LE_HIDDEN
100
AcDbVertex
100
AcDb2dVertex
 10
491.58718872
 20
374.84391726
 30
0.0
 42
-0.414213562
  0
VERTEX
  5
57B
100
AcDbEntity
  8
LE_HIDDEN
100
AcDbVertex
100
AcDb2dVertex
 10
493.08718872
 20
373.34391726
 30
0.0
  0
VERTEX
  5
57C
100
AcDbEntity
  8
LE_HIDDEN
100
AcDbVertex
100
AcDb2dVertex
 10
493.08718872
 20
309.34391726
 30
0.0
 42
-0.414213562
  0
VERTEX
  5
57D
100
AcDbEntity
  8
LE_HIDDEN
100
AcDbVertex
100
AcDb2dVertex
 10
491.58718872
 20
307.84391726
 30
0.0
  0
SEQEND
  5
57E
100
AcDbEntity
  8
LE_HIDDEN
  0
LINE
  5
57F
100
AcDbEntity
  8
APPLE
100
AcDbLine
  6
DOT
 62
     8
 10
443.58718872
 20
373.54487915
 30
0.0
 11
453.58718872
 21
373.54487915
 31
0.0
  0
LINE
  5
580
100
AcDbEntity
  8
APPLE
100
AcDbLine
  6
DOT
 62
     8
 10
443.58718872
 20
309.14295536
 30
0.0
 11
453.58718872
 21
309.14295536
 31
0.0
  0
LINE
  5
581
100
AcDbEntity
  8
APPLE
100
AcDbLine
  6
DOT
 62
     8
 10
244.58718872
 20
373.54487915
 30
0.0
 11
254.58718872
 21
373.54487915
 31
0.0
  0
LINE
  5
582
100
AcDbEntity
  8
APPLE
100
AcDbLine
  6
DOT
 62
     8
 10
244.58718872
 20
309.14295536
 30
0.0
 11
254.58718872
 21
309.14295536
 31
0.0
  0
LINE
  5
583
100
AcDbEntity
  8
APPLE
100
AcDbLine
  6
STRICHPUNKT2
 62
     8
 10
290.08718872
 20
370.54487915
 30
0.0
 11
290.08718872
 21
378.84391726
 31
0.0
  0
LINE
  5
584
100
AcDbEntity
  8
APPLE
100
AcDbLine
  6
DOT
 62
     8
 10
244.58718872
 20
309.14295536
 30
0.0
 11
244.58718872
 21
306.84391726
 31
0.0
  0
LINE
  5
585
100
AcDbEntity
  8
APPLE
100
AcDbLine
  6
DOT
 62
     8
 10
254.58718872
 20
309.14295536
 30
0.0
 11
254.58718872
 21
306.84391726
 31
0.0
  0
LINE
  5
586
100
AcDbEntity
  8
APPLE
100
AcDbLine
  6
DOT
 62
     8
 10
244.58718872
 20
373.54487915
 30
0.0
 11
244.58718872
 21
375.84391726
 31
0.0
  0
LINE
  5
587
100
AcDbEntity
  8
APPLE
100
AcDbLine
  6
DOT
 62
     8
 10
254.58718872
 20
373.54487915
 30
0.0
 11
254.58718872
 21
375.84391726
 31
0.0
  0
LINE
  5
588
100
AcDbEntity
  8
APPLE
100
AcDbLine
  6
DOT
 62
     8
 10
443.58718872
 20
373.54487915
 30
0.0
 11
443.58718872
 21
375.84391726
 31
0.0
  0
LINE
  5
589
100
AcDbEntity
  8
APPLE
100
AcDbLine
  6
DOT
 62
     8
 10
453.58718872
 20
373.54487915
 30
0.0
 11
453.58718872
 21
375.84391726
 31
0.0
  0
LINE
  5
58A
100
AcDbEntity
  8
APPLE
100
AcDbLine
  6
DOT
 62
     8
 10
443.58718872
 20
306.84391726
 30
0.0
 11
443.58718872
 21
309.14295536
 31
0.0
  0
LINE
  5
58B
100
AcDbEntity
  8
APPLE
100
AcDbLine
  6
DOT
 62
     8
 10
453.58718872
 20
309.14295536
 30
0.0
 11
453.58718872
 21
306.84391726
 31
0.0
  0
LINE
  5
58C
100
AcDbEntity
  8
APPLE
100
AcDbLine
  6
DOT
 62
     8
 10
494.08718872
 20
344.34391726
 30
0.0
 11
493.08718872
 21
344.34391726
 31
0.0
  0
LINE
  5
58D
100
AcDbEntity
  8
APPLE
100
AcDbLine
  6
DOT
 62
     8
 10
493.08718872
 20
338.34391726
 30
0.0
 11
494.08718872
 21
338.34391726
 31
0.0
  0
LINE
  5
58E
100
AcDbEntity
  8
APPLE
100
AcDbLine
  6
DOT
 62
     8
 10
204.08718872
 20
344.34391726
 30
0.0
 11
205.08718872
 21
344.34391726
 31
0.0
  0
LINE
  5
58F
100
AcDbEntity
  8
APPLE
100
AcDbLine
  6
DOT
 62
     8
 10
205.08718872
 20
338.34391726
 30
0.0
 11
204.08718872
 21
338.34391726
 31
0.0
  0
LINE
  5
590
100
AcDbEntity
  8
K
100
AcDbLine
  6
STRICHPUNKT2
 62
     8
 10
408.08718872
 20
381.84391726
 30
0.0
 11
408.08718872
 21
368.84391726
 31
0.0
  0
INSERT
  5
591
100
AcDbEntity
  8
DIM49
100
AcDbBlockReference
  2
BEM_0014
 10
204.08718872
 20
309.34391726
 30
0.0
 41
1.00000000
 42
1.00000000
 50
0.0
  0
INSERT
  5
592
100
AcDbEntity
  8
DIM49
100
AcDbBlockReference
  2
BEM_0015
 10
206.58718872
 20
306.84391726
 30
0.0
 41
1.00000000
 42
1.00000000
 50
0.0
  0
INSERT
  5
593
100
AcDbEntity
  8
0
100
AcDbBlockReference
  2
MONTAGEBOHRUNGEN____00020
 10
289.08718872
 20
335.84487915
 30
0.0
  0
ENDBLK
  5
594
100
AcDbEntity
  8
0
100
AcDbBlockEnd
  0
BLOCK
  5
595
100
AcDbEntity
  8
0
100
AcDbBlockBegin
  2
MONTAGEBOHRUNGEN____00020
 70
    64
 10
289.08718872
 20
335.84487915
 30
0.0
  3
MONTAGEBOHRUNGEN____00020
  0
LINE
  5
596
100
AcDbEntity
  8
LE_MIDDLE
100
AcDbLine
  6
DASHDOT
 62
     1
 10
289.08718872
 20
335.84487915
 30
0.0
 11
301.08718872
 21
335.84487915
 31
0.0
  0
LINE
  5
597
100
AcDbEntity
  8
LE_MIDDLE
100
AcDbLine
  6
DASHDOT
 62
     1
 10
295.08718872
 20
329.84487915
 30
0.0
 11
295.08718872
 21
341.84487915
 31
0.0
  0
LINE
  5
598
100
AcDbEntity
  8
LE_MIDDLE
100
AcDbLine
  6
DASHDOT
 62
     1
 10
289.08718872
 20
319.84487915
 30
0.0
 11
301.08718872
 21
319.84487915
 31
0.0
  0
LINE
  5
599
100
AcDbEntity
  8
LE_MIDDLE
100
AcDbLine
  6
DASHDOT
 62
     1
 10
295.08718872
 20
313.84487915
 30
0.0
 11
295.08718872
 21
325.84487915
 31
0.0
  0
LINE
  5
59A
100
AcDbEntity
  8
LE_MIDDLE
100
AcDbLine
  6
DASHDOT
 62
     1
 10
449.08718872
 20
319.84487915
 30
0.0
 11
461.08718872
 21
319.84487915
 31
0.0
  0
LINE
  5
59B
100
AcDbEntity
  8
LE_MIDDLE
100
AcDbLine
  6
DASHDOT
 62
     1
 10
455.08718872
 20
313.84487915
 30
0.0
 11
455.08718872
 21
325.84487915
 31
0.0
  0
LINE
  5
59C
100
AcDbEntity
  8
LE_MIDDLE
100
AcDbLine
  6
DASHDOT
 62
     1
 10
449.08718872
 20
335.84487915
 30
0.0
 11
461.08718872
 21
335.84487915
 31
0.0
  0
LINE
  5
59D
100
AcDbEntity
  8
LE_MIDDLE
100
AcDbLine
  6
DASHDOT
 62
     1
 10
455.08718872
 20
329.84487915
 30
0.0
 11
455.08718872
 21
341.84487915
 31
0.0
  0
ENDBLK
  5
59E
100
AcDbEntity
  8
0
100
AcDbBlockEnd
  0
BLOCK
  5
59F
100
AcDbEntity
  8
0
100
AcDbBlockBegin
  2
_KF_XXXX____________00021
 70
    64
 10
606.42065430
 20
291.17822266
 30
0.0
  3
_KF_XXXX____________00021
  0
POLYLINE
  5
5A0
100
AcDbEntity
  8
LE_NORM
100
AcDb2dPolyline
 62
     3
 66
     1
  0
VERTEX
  5
5A1
100
AcDbEntity
  8
LE_NORM
100
AcDbVertex
100
AcDb2dVertex
 10
606.42065430
 20
291.17822266
 30
0.0
  0
VERTEX
  5
5A2
100
AcDbEntity
  8
LE_NORM
100
AcDbVertex
100
AcDb2dVertex
 10
571.75390625
 20
291.17822266
 30
0.0
  0
VERTEX
  5
5A3
100
AcDbEntity
  8
LE_NORM
100
AcDbVertex
100
AcDb2dVertex
 10
571.75390625
 20
328.51159668
 30
0.0
  0
VERTEX
  5
5A4
100
AcDbEntity
  8
LE_NORM
100
AcDbVertex
100
AcDb2dVertex
 10
606.42055194
 20
328.51159668
 30
0.0
 42
1.000000000
  0
VERTEX
  5
5A5
100
AcDbEntity
  8
LE_NORM
100
AcDbVertex
100
AcDb2dVertex
 10
587.75388654
 20
328.51159668
 30
0.0
  0
SEQEND
  5
5A6
100
AcDbEntity
  8
LE_NORM
  0
POLYLINE
  5
5A7
100
AcDbEntity
  8
LE_NORM
100
AcDb2dPolyline
 62
     3
 66
     1
  0
VERTEX
  5
5A8
100
AcDbEntity
  8
LE_NORM
100
AcDbVertex
100
AcDb2dVertex
 10
587.75388654
 20
256.51171962
 30
0.0
 42
1.000000094
  0
VERTEX
  5
5A9
100
AcDbEntity
  8
LE_NORM
100
AcDbVertex
100
AcDb2dVertex
 10
606.42055194
 20
256.51171962
 30
0.0
  0
VERTEX
  5
5AA
100
AcDbEntity
  8
LE_NORM
100
AcDbVertex
100
AcDb2dVertex
 10
587.75390625
 20
256.51171875
 30
0.0
  0
VERTEX
  5
5AB
100
AcDbEntity
  8
LE_NORM
100
AcDbVertex
100
AcDb2dVertex
 10
587.75390625
 20
291.17828369
 30
0.0
  0
SEQEND
  5
5AC
100
AcDbEntity
  8
LE_NORM
  0
POLYLINE
  5
5AD
100
AcDbEntity
  8
LE_NORM
100
AcDb2dPolyline
 62
     3
 66
     1
  0
VERTEX
  5
5AE
100
AcDbEntity
  8
LE_NORM
100
AcDbVertex
100
AcDb2dVertex
 10
591.75396729
 20
336.17089844
 30
0.0
  0
VERTEX
  5
5AF
100
AcDbEntity
  8
LE_NORM
100
AcDbVertex
100
AcDb2dVertex
 10
591.75396729
 20
381.17822266
 30
0.0
  0
VERTEX
  5
5B0
100
AcDbEntity
  8
LE_NORM
100
AcDbVertex
100
AcDb2dVertex
 10
418.58715820
 20
381.17822266
 30
0.0
  0
SEQEND
  5
5B1
100
AcDbEntity
  8
LE_NORM
  0
POLYLINE
  5
5B2
100
AcDbEntity
  8
LE_NORM
100
AcDb2dPolyline
 62
     3
 66
     1
  0
VERTEX
  5
5B3
100
AcDbEntity
  8
LE_NORM
100
AcDbVertex
100
AcDb2dVertex
 10
631.75396729
 20
245.49609375
 30
0.0
  0
VERTEX
  5
5B4
100
AcDbEntity
  8
LE_NORM
100
AcDbVertex
100
AcDb2dVertex
 10
631.75396729
 20
431.80200195
 30
0.0
  0
VERTEX
  5
5B5
100
AcDbEntity
  8
LE_NORM
100
AcDbVertex
100
AcDb2dVertex
 10
18.55371094
 20
431.80200195
 30
0.0
  0
SEQEND
  5
5B6
100
AcDbEntity
  8
LE_NORM
  0
POLYLINE
  5
5B7
100
AcDbEntity
  8
HATCH
100
AcDb2dPolyline
 66
     1
  0
VERTEX
  5
5B8
100
AcDbEntity
  8
HATCH
100
AcDbVertex
100
AcDb2dVertex
 10
588.42059326
 20
331.97558594
 30
0.0
  0
VERTEX
  5
5B9
100
AcDbEntity
  8
HATCH
100
AcDbVertex
100
AcDb2dVertex
 10
588.42059326
 20
377.84490967
 30
0.0
  0
VERTEX
  5
5BA
100
AcDbEntity
  8
HATCH
100
AcDbVertex
100
AcDb2dVertex
 10
418.58715820
 20
377.84490967
 30
0.0
  0
SEQEND
  5
5BB
100
AcDbEntity
  8
HATCH
  0
LINE
  5
5BC
100
AcDbEntity
  8
HATCH
100
AcDbLine
 10
588.42059326
 20
223.53451538
 30
0.0
 11
588.42059326
 21
253.04754639
 31
0.0
  0
LINE
  5
5BD
100
AcDbEntity
  8
LE_NORM
100
AcDbLine
 62
     3
 10
591.75396729
 20
224.44438171
 30
0.0
 11
591.75396729
 21
248.85198975
 31
0.0
  0
LINE
  5
5BE
100
AcDbEntity
  8
LE_MIDDLE
100
AcDbLine
  6
DASHDOT
 62
     1
 10
597.08715820
 20
241.83294678
 30
0.0
 11
597.08715820
 21
345.41876221
 31
0.0
  0
LINE
  5
5BF
100
AcDbEntity
  8
LE_NORM
100
AcDbLine
 62
     3
 10
606.42065430
 20
256.51171875
 30
0.0
 11
606.42065430
 21
328.51165771
 31
0.0
  0
LINE
  5
5C0
100
AcDbEntity
  8
HATCH
100
AcDbLine
 10
397.58715820
 20
377.84490967
 30
0.0
 11
18.95513916
 21
377.84490967
 31
0.0
  0
LINE
  5
5C1
100
AcDbEntity
  8
LE_NORM
100
AcDbLine
 62
     3
 10
397.58715820
 20
381.17822266
 30
0.0
 11
18.76849365
 21
381.17822266
 31
0.0
  0
ENDBLK
  5
5C2
100
AcDbEntity
  8
0
100
AcDbBlockEnd
  0
BLOCK
  5
5C3
100
AcDbEntity
  8
0
100
AcDbBlockBegin
  2
DINA3_______________00022
 70
    64
 10
0.0
 20
0.0
 30
0.0
  3
DINA3_______________00022
  0
POLYLINE
  5
5C4
100
AcDbEntity
  8
LE_NORM
100
AcDb2dPolyline
 62
     4
 66
     1
  0
VERTEX
  5
5C5
100
AcDbEntity
  8
LE_NORM
100
AcDbVertex
100
AcDb2dVertex
 10
0.0
 20
0.0
 30
0.0
  0
VERTEX
  5
5C6
100
AcDbEntity
  8
LE_NORM
100
AcDbVertex
100
AcDb2dVertex
 10
840.00003052
 20
0.0
 30
0.0
  0
VERTEX
  5
5C7
100
AcDbEntity
  8
LE_NORM
100
AcDbVertex
100
AcDb2dVertex
 10
840.00003052
 20
594.00003815
 30
0.0
  0
VERTEX
  5
5C8
100
AcDbEntity
  8
LE_NORM
100
AcDbVertex
100
AcDb2dVertex
 10
0.0
 20
594.00003815
 30
0.0
  0
VERTEX
  5
5C9
100
AcDbEntity
  8
LE_NORM
100
AcDbVertex
100
AcDb2dVertex
 10
0.0
 20
0.0
 30
0.0
  0
SEQEND
  5
5CA
100
AcDbEntity
  8
LE_NORM
  0
POLYLINE
  5
5CB
100
AcDbEntity
  8
LE_NORM
100
AcDb2dPolyline
 66
     1
  0
VERTEX
  5
5CC
100
AcDbEntity
  8
LE_NORM
100
AcDbVertex
100
AcDb2dVertex
 10
10.00000000
 20
9.99996294
 30
0.0
  0
VERTEX
  5
5CD
100
AcDbEntity
  8
LE_NORM
100
AcDbVertex
100
AcDb2dVertex
 10
830.00003052
 20
9.99998474
 30
0.0
  0
VERTEX
  5
5CE
100
AcDbEntity
  8
LE_NORM
100
AcDbVertex
100
AcDb2dVertex
 10
830.00003052
 20
584.00003815
 30
0.0
  0
VERTEX
  5
5CF
100
AcDbEntity
  8
LE_NORM
100
AcDbVertex
100
AcDb2dVertex
 10
10.00000000
 20
584.00003815
 30
0.0
  0
VERTEX
  5
5D0
100
AcDbEntity
  8
LE_NORM
100
AcDbVertex
100
AcDb2dVertex
 10
10.00000000
 20
9.99996294
 30
0.0
  0
SEQEND
  5
5D1
100
AcDbEntity
  8
LE_NORM
  0
LINE
  5
5D2
100
AcDbEntity
  8
LE_NORM
100
AcDbLine
 62
     4
 10
460.00003052
 20
10.00000000
 30
0.0
 11
460.00003052
 21
0.0
 31
0.0
  0
LINE
  5
5D3
100
AcDbEntity
  8
LE_NORM
100
AcDbLine
 62
     4
 10
460.00003052
 20
584.00003815
 30
0.0
 11
460.00003052
 21
594.00003815
 31
0.0
  0
LINE
  5
5D4
100
AcDbEntity
  8
LE_NORM
100
AcDbLine
 62
     4
 10
40.00000000
 20
10.00000000
 30
0.0
 11
40.00000000
 21
0.0
 31
0.0
  0
LINE
  5
5D5
100
AcDbEntity
  8
LE_NORM
100
AcDbLine
 62
     4
 10
40.00000000
 20
584.00003815
 30
0.0
 11
40.00000000
 21
594.00003815
 31
0.0
  0
POINT
  5
5D6
100
AcDbEntity
  8
LE_NORM
100
AcDbPoint
 10
420.00001526
 20
292.25001144
 30
0.0
  0
INSERT
  5
5D7
100
AcDbEntity
  8
0
100
AcDbBlockReference
  2
SCHRIFE_____________00023
 10
455.60000610
 20
44.01812148
 30
0.0
  0
ENDBLK
  5
5D8
100
AcDbEntity
  8
0
100
AcDbBlockEnd
  0
BLOCK
  5
5D9
100
AcDbEntity
  8
0
100
AcDbBlockBegin
  2
SCHRIFE_____________00023
 70
    64
 10
455.60000610
 20
44.01812148
 30
0.0
  3
SCHRIFE_____________00023
  0
POLYLINE
  5
5DA
100
AcDbEntity
  8
LE_NORM
100
AcDb2dPolyline
 62
     4
 66
     1
  0
VERTEX
  5
5DB
100
AcDbEntity
  8
LE_NORM
100
AcDbVertex
100
AcDb2dVertex
 10
455.60000610
 20
44.01812148
 30
0.0
  0
VERTEX
  5
5DC
100
AcDbEntity
  8
LE_NORM
100
AcDbVertex
100
AcDb2dVertex
 10
564.79995728
 20
44.01812148
 30
0.0
  0
SEQEND
  5
5DD
100
AcDbEntity
  8
LE_NORM
  0
LINE
  5
5DE
100
AcDbEntity
  8
LE_NORM
100
AcDbLine
 62
     2
 10
564.79995728
 20
44.01812148
 30
0.0
 11
830.01699829
 21
44.01812148
 31
0.0
  0
POLYLINE
  5
5DF
100
AcDbEntity
  8
LE_NORM
100
AcDb2dPolyline
 66
     1
  0
VERTEX
  5
5E0
100
AcDbEntity
  8
LE_NORM
100
AcDbVertex
100
AcDb2dVertex
 10
830.00003052
 20
120.51812148
 30
0.0
  0
VERTEX
  5
5E1
100
AcDbEntity
  8
LE_NORM
100
AcDbVertex
100
AcDb2dVertex
 10
455.60000610
 20
120.51812148
 30
0.0
  0
VERTEX
  5
5E2
100
AcDbEntity
  8
LE_NORM
100
AcDbVertex
100
AcDb2dVertex
 10
455.60000610
 20
9.99980383
 30
0.0
  0
SEQEND
  5
5E3
100
AcDbEntity
  8
LE_NORM
  0
POLYLINE
  5
5E4
100
AcDbEntity
  8
LE_NORM
100
AcDb2dPolyline
 62
     2
 66
     1
  0
VERTEX
  5
5E5
100
AcDbEntity
  8
LE_NORM
100
AcDbVertex
100
AcDb2dVertex
 10
830.00003052
 20
86.51812148
 30
0.0
  0
VERTEX
  5
5E6
100
AcDbEntity
  8
LE_NORM
100
AcDbVertex
100
AcDb2dVertex
 10
455.60000610
 20
86.51812148
 30
0.0
  0
SEQEND
  5
5E7
100
AcDbEntity
  8
LE_NORM
  0
LINE
  5
5E8
100
AcDbEntity
  8
LE_NORM
100
AcDbLine
 10
455.60000610
 20
86.51812148
 30
0.0
 11
455.60000610
 21
120.51812148
 31
0.0
  0
LINE
  5
5E9
100
AcDbEntity
  8
LE_NORM
100
AcDbLine
 62
     4
 10
471.19998169
 20
86.51812148
 30
0.0
 11
471.19998169
 21
10.00013708
 31
0.0
  0
LINE
  5
5EA
100
AcDbEntity
  8
LE_NORM
100
AcDbLine
 62
     4
 10
523.19998169
 20
86.51812148
 30
0.0
 11
523.19998169
 21
10.00013847
 31
0.0
  0
LINE
  5
5EB
100
AcDbEntity
  8
LE_NORM
100
AcDbLine
 62
     4
 10
549.19998169
 20
86.51812148
 30
0.0
 11
549.19998169
 21
10.00013914
 31
0.0
  0
LINE
  5
5EC
100
AcDbEntity
  8
LE_NORM
100
AcDbLine
 62
     4
 10
455.60000610
 20
52.51812148
 30
0.0
 11
653.19998169
 21
52.51812148
 31
0.0
  0
LINE
  5
5ED
100
AcDbEntity
  8
LE_NORM
100
AcDbLine
 62
     4
 10
830.00003052
 20
18.51812148
 30
0.0
 11
455.60000610
 21
18.51812148
 31
0.0
  0
LINE
  5
5EE
100
AcDbEntity
  8
LE_NORM
100
AcDbLine
 62
     4
 10
741.60000610
 20
18.51812148
 30
0.0
 11
741.60000610
 21
10.01812148
 31
0.0
  0
LINE
  5
5EF
100
AcDbEntity
  8
LE_NORM
100
AcDbLine
 62
     2
 10
653.19998169
 20
9.99998474
 30
0.0
 11
653.19998169
 21
120.51812148
 31
0.0
  0
LINE
  5
5F0
100
AcDbEntity
  8
LE_NORM
100
AcDbLine
 62
     2
 10
564.79995728
 20
9.99990381
 30
0.0
 11
564.79995728
 21
120.51812148
 31
0.0
  0
LINE
  5
5F1
100
AcDbEntity
  8
LE_NORM
100
AcDbLine
 62
     4
 10
616.79995728
 20
44.01812148
 30
0.0
 11
616.79995728
 21
120.51812148
 31
0.0
  0
LINE
  5
5F2
100
AcDbEntity
  8
LE_NORM
100
AcDbLine
 62
     4
 10
757.19998169
 20
107.76812148
 30
0.0
 11
757.19998169
 21
120.51812148
 31
0.0
  0
LINE
  5
5F3
100
AcDbEntity
  8
LE_NORM
100
AcDbLine
 62
     2
 10
804.00003052
 20
44.01812148
 30
0.0
 11
804.00003052
 21
18.51812148
 31
0.0
  0
LINE
  5
5F4
100
AcDbEntity
  8
LE_NORM
100
AcDbLine
 62
     4
 10
585.60000610
 20
52.51812148
 30
0.0
 11
585.60000610
 21
86.51812148
 31
0.0
  0
LINE
  5
5F5
100
AcDbEntity
  8
LE_NORM
100
AcDbLine
 62
     4
 10
455.60000610
 20
78.01812148
 30
0.0
 11
653.19998169
 21
78.01812148
 31
0.0
  0
LINE
  5
5F6
100
AcDbEntity
  8
LE_NORM
100
AcDbLine
 62
     4
 10
455.60000610
 20
69.51812148
 30
0.0
 11
653.19998169
 21
69.51812148
 31
0.0
  0
LINE
  5
5F7
100
AcDbEntity
  8
LE_NORM
100
AcDbLine
 62
     4
 10
455.60000610
 20
61.01812148
 30
0.0
 11
653.19998169
 21
61.01812148
 31
0.0
  0
LINE
  5
5F8
100
AcDbEntity
  8
LE_NORM
100
AcDbLine
 62
     4
 10
455.60000610
 20
35.51812148
 30
0.0
 11
564.79995728
 21
35.51812148
 31
0.0
  0
LINE
  5
5F9
100
AcDbEntity
  8
LE_NORM
100
AcDbLine
 62
     4
 10
455.60000610
 20
27.01812148
 30
0.0
 11
564.79995728
 21
27.01812148
 31
0.0
  0
LINE
  5
5FA
100
AcDbEntity
  8
LE_NORM
100
AcDbLine
 62
     4
 10
830.00003052
 20
107.76812148
 30
0.0
 11
653.19998169
 21
107.76812148
 31
0.0
  0
LINE
  5
5FB
100
AcDbEntity
  8
LE_NORM
100
AcDbLine
 62
     4
 10
830.00003052
 20
27.01812148
 30
0.0
 11
804.00003052
 21
27.01812148
 31
0.0
  0
TEXT
  5
5FC
100
AcDbEntity
  8
TXT_ALL
100
AcDbText
 62
     4
 10
593.69998169
 20
80.01812148
 30
0.0
 40
5.00000000
  1
Datum
 50
0.0
 41
0.600
 51
0.0
  7
STANDARD
100
AcDbText
  0
TEXT
  5
5FD
100
AcDbEntity
  8
TXT_ALL
100
AcDbText
 62
     4
 10
628.55465698
 20
80.01812148
 30
0.0
 40
5.00000000
  1
Name
 50
0.0
 41
0.645
 51
0.0
  7
STANDARD
100
AcDbText
  0
TEXT
  5
5FE
100
AcDbEntity
  8
TXT_ALL
100
AcDbText
 62
     4
 10
567.30728149
 20
63.01812148
 30
0.0
 40
5.00000000
  1
Gepr.
 50
0.0
 41
0.419
 51
0.0
  7
STANDARD
100
AcDbText
  0
TEXT
  5
5FF
100
AcDbEntity
  8
TXT_ALL
100
AcDbText
 62
     4
 10
567.30728149
 20
54.51812148
 30
0.0
 40
5.00000000
  1
Erstellt
 50
0.0
 41
0.386
 51
0.0
  7
STANDARD
100
AcDbText
  0
TEXT
  5
600
100
AcDbEntity
  8
TXT_ALL
100
AcDbText
 62
     4
 10
458.40950203
 20
12.00013691
 30
0.0
 40
5.00000000
  1
Zust.
 50
0.0
 41
0.500
 51
0.0
  7
STANDARD
100
AcDbText
  0
TEXT
  5
601
100
AcDbEntity
  8
TXT_ALL
100
AcDbText
 62
     4
 10
485.59841919
 20
12.00013777
 30
0.0
 40
5.00000000
  1
Änderung
 50
0.0
 41
0.580
 51
0.0
  7
STANDARD
100
AcDbText
  0
TEXT
  5
602
100
AcDbEntity
  8
TXT_ALL
100
AcDbText
 62
     4
 10
528.69998169
 20
12.00013881
 30
0.0
 40
5.00000000
  1
Datum
 50
0.0
 41
0.600
 51
0.0
  7
STANDARD
100
AcDbText
  0
TEXT
  5
603
100
AcDbEntity
  8
TXT_ALL
100
AcDbText
 62
     4
 10
551.76315308
 20
12.00013936
 30
0.0
 40
5.00000000
  1
Name
 50
0.0
 41
0.524
 51
0.0
  7
STANDARD
100
AcDbText
  0
TEXT
  5
604
100
AcDbEntity
  8
TXT_ALL
100
AcDbText
 62
     4
 10
660.51978152
 20
109.76812148
 30
0.0
 40
7.00000000
  1
Maßstab
 50
0.0
 41
0.473
 51
0.0
  7
STANDARD
100
AcDbText
  0
TEXT
  5
605
100
AcDbEntity
  8
TXT_ALL
100
AcDbText
 62
     4
 10
566.79995728
 20
12.00013957
 30
0.0
 40
5.00000000
  1
Urspr.
 50
0.0
 41
0.321
 51
0.0
  7
STANDARD
100
AcDbText
  0
TEXT
  5
606
100
AcDbEntity
  8
TXT_ALL
100
AcDbText
 62
     4
 10
655.19998169
 20
12.00014192
 30
0.0
 40
5.00000000
  1
Ers. f.:
 50
0.0
 41
0.271
 51
0.0
  7
STANDARD
100
AcDbText
  0
TEXT
  5
607
100
AcDbEntity
  8
TXT_ALL
100
AcDbText
 62
     4
 10
743.60000610
 20
12.00014427
 30
0.0
 40
5.00000000
  1
Ers. d.:
 50
0.0
 41
0.286
 51
0.0
  7
STANDARD
100
AcDbText
  0
TEXT
  5
608
100
AcDbEntity
  8
TXT_ALL
100
AcDbText
 62
     4
 10
806.35025024
 20
36.42290663
 30
0.0
 40
5.00000000
  1
Blatt
 50
0.0
 41
0.484
 51
0.0
  7
STANDARD
100
AcDbText
  0
TEXT
  5
609
100
AcDbEntity
  8
TXT_ALL
100
AcDbText
 62
     4
 10
822.54783636
 20
20.51812148
 30
0.0
 40
5.00000000
  1
Bl.
 50
0.0
 41
0.267
 51
0.0
  7
STANDARD
100
AcDbText
  0
TEXT
  5
60A
100
AcDbEntity
  8
TXT_ALL
100
AcDbText
 62
     4
 10
694.91482371
 20
109.76812148
 30
0.0
 40
7.00000000
  1
1:2
 50
0.0
 41
0.812
 51
0.0
  7
MONOTXT
100
AcDbText
  0
TEXT
  5
60B
100
AcDbEntity
  8
TXT_ALL
100
AcDbText
 62
     4
 10
590.32498169
 20
71.51812148
 30
0.0
 40
4.00000000
  1
28.12.2006
 50
0.0
 41
0.544
 51
0.0
  7
STANDARD
100
AcDbText
  0
TEXT
  5
60C
100
AcDbEntity
  8
TXT_ALL
100
AcDbText
 62
     4
 10
619.30728149
 20
71.51812148
 30
0.0
 40
4.00000000
  1
Aufreiter
 50
0.0
 41
0.493
 51
0.0
  7
STANDARD
100
AcDbText
  0
TEXT
  5
60D
100
AcDbEntity
  8
TXT_ALL
100
AcDbText
 62
     4
 10
600.47732544
 20
63.01812148
 30
0.0
 40
4.00000000
  1

 50
0.0
 41
0.361
 51
0.0
  7
STANDARD
100
AcDbText
  0
TEXT
  5
60E
100
AcDbEntity
  8
TXT_ALL
100
AcDbText
 62
     4
 10
600.04373169
 20
54.51812148
 30
0.0
 40
4.00000000
  1

 50
0.0
 41
0.578
 51
0.0
  7
STANDARD
100
AcDbText
  0
TEXT
  5
60F
100
AcDbEntity
  8
TXT_ALL
100
AcDbText
 62
     4
 10
619.29995728
 20
63.01812148
 30
0.0
 40
4.00000000
  1

 50
0.0
 41
0.361
 51
0.0
  7
STANDARD
100
AcDbText
  0
TEXT
  5
610
100
AcDbEntity
  8
TXT_ALL
100
AcDbText
 62
     4
 10
619.29995728
 20
54.51812148
 30
0.0
 40
4.00000000
  1

 50
0.0
 41
0.578
 51
0.0
  7
STANDARD
100
AcDbText
  0
TEXT
  5
611
100
AcDbEntity
  8
TXT_ALL
100
AcDbText
 10
660.51978152
 20
25.70684724
 30
0.0
 40
10.00000000
  1
TS01160
 50
0.0
 41
0.812
 51
0.0
  7
MONOTXT
100
AcDbText
  0
TEXT
  5
612
100
AcDbEntity
  8
TXT_ALL
100
AcDbText
 62
     4
 10
660.51978152
 20
94.51812148
 30
0.0
 40
7.00000000
  1
Werkstoff:
 50
0.0
 41
0.430
 51
0.0
  7
STANDARD
100
AcDbText
  0
TEXT
  5
613
100
AcDbEntity
  8
TXT_ALL
100
AcDbText
 62
     4
 10
816.10519409
 20
29.01812148
 30
0.0
 40
5.00000000
  1

 50
0.0
 41
0.361
 51
0.0
  7
STANDARD
100
AcDbText
  0
TEXT
  5
614
100
AcDbEntity
  8
TXT_ALL
100
AcDbText
 62
     4
 10
579.78568729
 20
12.01789240
 30
0.0
 40
5.00000000
  1

 50
0.0
 41
0.361
 51
0.0
  7
STANDARD
100
AcDbText
  0
TEXT
  5
615
100
AcDbEntity
  8
TXT_ALL
100
AcDbText
 62
     4
 10
670.11709442
 20
12.01797510
 30
0.0
 40
5.00000000
  1

 50
0.0
 41
0.361
 51
0.0
  7
STANDARD
100
AcDbText
  0
TEXT
  5
616
100
AcDbEntity
  8
TXT_ALL
100
AcDbText
 62
     4
 10
759.12561496
 20
12.01805659
 30
0.0
 40
5.00000000
  1

 50
0.0
 41
0.361
 51
0.0
  7
STANDARD
100
AcDbText
  0
TEXT
  5
617
100
AcDbEntity
  8
TXT_ALL
100
AcDbText
 62
     4
 10
567.30728149
 20
71.51812148
 30
0.0
 40
5.00000000
  1
Bearb.
 50
0.0
 41
0.421
 51
0.0
  7
STANDARD
100
AcDbText
  0
TEXT
  5
618
100
AcDbEntity
  8
TXT_ALL
100
AcDbText
 62
     4
 10
579.08438110
 20
46.60419080
 30
0.0
 40
3.00000000
  1
CAD:
 50
0.0
 41
0.543
 51
0.0
  7
STANDARD
100
AcDbText
  0
TEXT
  5
619
100
AcDbEntity
  8
TXT_ALL
100
AcDbText
 62
     4
 10
589.04146993
 20
46.60419080
 30
0.0
 40
3.00000000
  1
C:00017185.SZA
 50
0.0
 41
0.551
 51
0.0
  7
STANDARD
100
AcDbText
  0
TEXT
  5
61A
100
AcDbEntity
  8
TXT_ALL
100
AcDbText
 62
     4
 10
467.55549208
 20
29.01845455
 30
0.0
 40
5.00000000
  1

 50
0.0
 41
0.361
 51
0.0
  7
STANDARD
100
AcDbText
  0
TEXT
  5
61B
100
AcDbEntity
  8
TXT_ALL
100
AcDbText
 62
     4
 10
473.39134756
 20
29.01845455
 30
0.0
 40
5.00000000
  1

 50
0.0
 41
0.361
 51
0.0
  7
STANDARD
100
AcDbText
  0
TEXT
  5
61C
100
AcDbEntity
  8
TXT_ALL
100
AcDbText
 62
     4
 10
534.88040421
 20
29.01845455
 30
0.0
 40
5.00000000
  1

 50
0.0
 41
0.253
 51
0.0
  7
STANDARD
100
AcDbText
  0
TEXT
  5
61D
100
AcDbEntity
  8
TXT_ALL
100
AcDbText
 62
     4
 10
556.09664917
 20
29.01845455
 30
0.0
 40
5.00000000
  1

 50
0.0
 41
0.361
 51
0.0
  7
STANDARD
100
AcDbText
  0
TEXT
  5
61E
100
AcDbEntity
  8
TXT_ALL
100
AcDbText
 62
     4
 10
467.55549208
 20
37.51845455
 30
0.0
 40
5.00000000
  1

 50
0.0
 41
0.361
 51
0.0
  7
STANDARD
100
AcDbText
  0
TEXT
  5
61F
100
AcDbEntity
  8
TXT_ALL
100
AcDbText
 62
     4
 10
473.39134756
 20
37.51845455
 30
0.0
 40
5.00000000
  1

 50
0.0
 41
0.361
 51
0.0
  7
STANDARD
100
AcDbText
  0
TEXT
  5
620
100
AcDbEntity
  8
TXT_ALL
100
AcDbText
 62
     4
 10
534.88040421
 20
37.51845455
 30
0.0
 40
5.00000000
  1

 50
0.0
 41
0.253
 51
0.0
  7
STANDARD
100
AcDbText
  0
TEXT
  5
621
100
AcDbEntity
  8
TXT_ALL
100
AcDbText
 62
     4
 10
556.09664917
 20
37.51845455
 30
0.0
 40
5.00000000
  1

 50
0.0
 41
0.361
 51
0.0
  7
STANDARD
100
AcDbText
  0
TEXT
  5
622
100
AcDbEntity
  8
TXT_ALL
100
AcDbText
 62
     4
 10
467.55549208
 20
80.01845455
 30
0.0
 40
5.00000000
  1

 50
0.0
 41
0.361
 51
0.0
  7
STANDARD
100
AcDbText
  0
TEXT
  5
623
100
AcDbEntity
  8
TXT_ALL
100
AcDbText
 62
     4
 10
473.39134756
 20
80.01845455
 30
0.0
 40
5.00000000
  1

 50
0.0
 41
0.361
 51
0.0
  7
STANDARD
100
AcDbText
  0
TEXT
  5
624
100
AcDbEntity
  8
TXT_ALL
100
AcDbText
 62
     4
 10
534.88040421
 20
80.01845455
 30
0.0
 40
5.00000000
  1

 50
0.0
 41
0.253
 51
0.0
  7
STANDARD
100
AcDbText
  0
TEXT
  5
625
100
AcDbEntity
  8
TXT_ALL
100
AcDbText
 62
     4
 10
556.09664917
 20
80.01845455
 30
0.0
 40
5.00000000
  1

 50
0.0
 41
0.361
 51
0.0
  7
STANDARD
100
AcDbText
  0
TEXT
  5
626
100
AcDbEntity
  8
TXT_ALL
100
AcDbText
 62
     4
 10
466.47150771
 20
20.51845455
 30
0.0
 40
5.00000000
  1

 50
0.0
 41
0.578
 51
0.0
  7
STANDARD
100
AcDbText
  0
TEXT
  5
627
100
AcDbEntity
  8
TXT_ALL
100
AcDbText
 62
     4
 10
473.39134756
 20
20.51845455
 30
0.0
 40
5.00000000
  1

 50
0.0
 41
0.470
 51
0.0
  7
STANDARD
100
AcDbText
  0
TEXT
  5
628
100
AcDbEntity
  8
TXT_ALL
100
AcDbText
 62
     4
 10
534.33841202
 20
20.51845455
 30
0.0
 40
5.00000000
  1

 50
0.0
 41
0.470
 51
0.0
  7
STANDARD
100
AcDbText
  0
TEXT
  5
629
100
AcDbEntity
  8
TXT_ALL
100
AcDbText
 62
     4
 10
555.82565308
 20
20.51845455
 30
0.0
 40
5.00000000
  1

 50
0.0
 41
0.470
 51
0.0
  7
STANDARD
100
AcDbText
  0
TEXT
  5
62A
100
AcDbEntity
  8
TXT_ALL
100
AcDbText
 62
     4
 10
467.55549208
 20
63.01845455
 30
0.0
 40
5.00000000
  1

 50
0.0
 41
0.361
 51
0.0
  7
STANDARD
100
AcDbText
  0
TEXT
  5
62B
100
AcDbEntity
  8
TXT_ALL
100
AcDbText
 62
     4
 10
473.39134756
 20
63.01845455
 30
0.0
 40
5.00000000
  1

 50
0.0
 41
0.361
 51
0.0
  7
STANDARD
100
AcDbText
  0
TEXT
  5
62C
100
AcDbEntity
  8
TXT_ALL
100
AcDbText
 62
     4
 10
534.88040421
 20
63.01845455
 30
0.0
 40
5.00000000
  1

 50
0.0
 41
0.253
 51
0.0
  7
STANDARD
100
AcDbText
  0
TEXT
  5
62D
100
AcDbEntity
  8
TXT_ALL
100
AcDbText
 62
     4
 10
556.09664917
 20
63.01845455
 30
0.0
 40
5.00000000
  1

 50
0.0
 41
0.361
 51
0.0
  7
STANDARD
100
AcDbText
  0
TEXT
  5
62E
100
AcDbEntity
  8
TXT_ALL
100
AcDbText
 62
     4
 10
467.55549208
 20
71.51845455
 30
0.0
 40
5.00000000
  1

 50
0.0
 41
0.361
 51
0.0
  7
STANDARD
100
AcDbText
  0
TEXT
  5
62F
100
AcDbEntity
  8
TXT_ALL
100
AcDbText
 62
     4
 10
473.39134756
 20
71.51845455
 30
0.0
 40
5.00000000
  1

 50
0.0
 41
0.361
 51
0.0
  7
STANDARD
100
AcDbText
  0
TEXT
  5
630
100
AcDbEntity
  8
TXT_ALL
100
AcDbText
 62
     4
 10
534.88040421
 20
71.51845455
 30
0.0
 40
5.00000000
  1

 50
0.0
 41
0.253
 51
0.0
  7
STANDARD
100
AcDbText
  0
TEXT
  5
631
100
AcDbEntity
  8
TXT_ALL
100
AcDbText
 62
     4
 10
556.09664917
 20
71.51845455
 30
0.0
 40
5.00000000
  1

 50
0.0
 41
0.361
 51
0.0
  7
STANDARD
100
AcDbText
  0
TEXT
  5
632
100
AcDbEntity
  8
TXT_ALL
100
AcDbText
 62
     4
 10
467.55549208
 20
46.01845455
 30
0.0
 40
5.00000000
  1

 50
0.0
 41
0.361
 51
0.0
  7
STANDARD
100
AcDbText
  0
TEXT
  5
633
100
AcDbEntity
  8
TXT_ALL
100
AcDbText
 62
     4
 10
473.39134756
 20
46.01845455
 30
0.0
 40
5.00000000
  1

 50
0.0
 41
0.361
 51
0.0
  7
STANDARD
100
AcDbText
  0
TEXT
  5
634
100
AcDbEntity
  8
TXT_ALL
100
AcDbText
 62
     4
 10
534.88040421
 20
46.01845455
 30
0.0
 40
5.00000000
  1

 50
0.0
 41
0.253
 51
0.0
  7
STANDARD
100
AcDbText
  0
TEXT
  5
635
100
AcDbEntity
  8
TXT_ALL
100
AcDbText
 62
     4
 10
556.09664917
 20
46.01845455
 30
0.0
 40
5.00000000
  1

 50
0.0
 41
0.361
 51
0.0
  7
STANDARD
100
AcDbText
  0
TEXT
  5
636
100
AcDbEntity
  8
TXT_ALL
100
AcDbText
 62
     4
 10
467.55549208
 20
54.51845455
 30
0.0
 40
5.00000000
  1

 50
0.0
 41
0.361
 51
0.0
  7
STANDARD
100
AcDbText
  0
TEXT
  5
637
100
AcDbEntity
  8
TXT_ALL
100
AcDbText
 62
     4
 10
473.39134756
 20
54.51845455
 30
0.0
 40
5.00000000
  1

 50
0.0
 41
0.361
 51
0.0
  7
STANDARD
100
AcDbText
  0
TEXT
  5
638
100
AcDbEntity
  8
TXT_ALL
100
AcDbText
 62
     4
 10
534.88040421
 20
54.51845455
 30
0.0
 40
5.00000000
  1

 50
0.0
 41
0.253
 51
0.0
  7
STANDARD
100
AcDbText
  0
TEXT
  5
639
100
AcDbEntity
  8
TXT_ALL
100
AcDbText
 62
     4
 10
556.09664917
 20
54.51845455
 30
0.0
 40
5.00000000
  1

 50
0.0
 41
0.361
 51
0.0
  7
STANDARD
100
AcDbText
  0
TEXT
  5
63A
100
AcDbEntity
  8
TXT_ALL
100
AcDbText
 62
     4
 10
694.91482371
 20
94.51812148
 30
0.0
 40
7.00000000
  1

 50
0.0
 41
0.470
 51
0.0
  7
STANDARD
100
AcDbText
  0
TEXT
  5
63B
100
AcDbEntity
  8
TXT_YELLOW
100
AcDbText
 10
660.51978152
 20
61.64782536
 30
0.0
 40
7.00000000
  1
Anbauzeichnung
 50
0.0
 41
0.800
 51
0.0
  7
MONOTXT
100
AcDbText
  0
TEXT
  5
63C
100
AcDbEntity
  8
TXT_YELLOW
100
AcDbText
 10
660.51978152
 20
49.59963947
 30
0.0
 40
7.00000000
  1
DIN Rechts
 50
0.0
 41
0.800
 51
0.0
  7
MONOTXT
100
AcDbText
  0
TEXT
  5
63D
100
AcDbEntity
  8
TXT_ALL
100
AcDbText
 10
660.51978152
 20
72.03330488
 30
0.0
 40
10.00000000
  1
TS 61 II
 50
0.0
 41
0.800
 51
0.0
  7
MONOTXT
100
AcDbText
  0
INSERT
  5
63E
100
AcDbEntity
  8
0
100
AcDbBlockReference
  2
ECO_LOGO____________00024
 10
455.60000610
 20
86.51812148
 30
0.0
  0
ENDBLK
  5
63F
100
AcDbEntity
  8
0
100
AcDbBlockEnd
  0
BLOCK
  5
640
100
AcDbEntity
  8
0
100
AcDbBlockBegin
  2
ECO_LOGO____________00024
 70
    64
 10
455.60000610
 20
86.51812148
 30
0.0
  3
ECO_LOGO____________00024
  0
POLYLINE
  5
641
100
AcDbEntity
  8
LE_NORM
100
AcDb2dPolyline
 66
     1
  0
VERTEX
  5
642
100
AcDbEntity
  8
LE_NORM
100
AcDbVertex
100
AcDb2dVertex
 10
455.60000610
 20
86.51812148
 30
0.0
  0
VERTEX
  5
643
100
AcDbEntity
  8
LE_NORM
100
AcDbVertex
100
AcDb2dVertex
 10
455.60000610
 20
120.51812148
 30
0.0
  0
VERTEX
  5
644
100
AcDbEntity
  8
LE_NORM
100
AcDbVertex
100
AcDb2dVertex
 10
564.79995728
 20
120.51812148
 30
0.0
  0
SEQEND
  5
645
100
AcDbEntity
  8
LE_NORM
  0
TEXT
  5
646
100
AcDbEntity
  8
TXT_ALL
100
AcDbText
 10
480.61967036
 20
99.47491621
 30
0.0
 40
7.00000000
  1
Postfach 206
 50
0.0
 41
0.456
 51
0.0
  7
STANDARD
100
AcDbText
  0
TEXT
  5
647
100
AcDbEntity
  8
TXT_ALL
100
AcDbText
 10
480.61967036
 20
88.38914366
 30
0.0
 40
7.00000000
  1
58682 Menden
 50
0.0
 41
0.498
 51
0.0
  7
STANDARD
100
AcDbText
  0
TEXT
  5
648
100
AcDbEntity
  8
TXT_ALL
100
AcDbText
 10
480.67934638
 20
110.46990503
 30
0.0
 40
7.00000000
  1
ECO Schulte GmbH & Co. KG
 50
0.0
 41
0.468
 51
0.0
  7
STANDARD
100
AcDbText
  0
TEXT
  5
649
100
AcDbEntity
  8
TXT_YELLOW
100
AcDbText
 10
459.24747877
 20
88.61051098
 30
0.0
 40
7.00000000
  1
ECO
 50
0.0
 41
0.984
 51
0.0
  7
STANDARD
100
AcDbText
  0
INSERT
  5
64A
100
AcDbEntity
  8
0
100
AcDbBlockReference
  2
LOGO________________00025
 10
458.60000610
 20
97.51812148
 30
0.0
  0
ENDBLK
  5
64B
100
AcDbEntity
  8
0
100
AcDbBlockEnd
  0
BLOCK
  5
64C
100
AcDbEntity
  8
0
100
AcDbBlockBegin
  2
LOGO________________00025
 70
    64
 10
458.60000610
 20
97.51812148
 30
0.0
  3
LOGO________________00025
  0
INSERT
  5
64D
100
AcDbEntity
  8
HATCH
100
AcDbBlockReference
  2
*X1
 10
458.60000610
 20
97.51812148
 30
0.0
 41
1.00000000
 42
1.00000000
 50
0.0
  0
POLYLINE
  5
64E
100
AcDbEntity
  8
LE_NORM
100
AcDb2dPolyline
 62
     4
 66
     1
  0
VERTEX
  5
64F
100
AcDbEntity
  8
LE_NORM
100
AcDbVertex
100
AcDb2dVertex
 10
458.60000610
 20
97.51812148
 30
0.0
  0
VERTEX
  5
650
100
AcDbEntity
  8
LE_NORM
100
AcDbVertex
100
AcDb2dVertex
 10
478.60000610
 20
97.51812148
 30
0.0
  0
VERTEX
  5
651
100
AcDbEntity
  8
LE_NORM
100
AcDbVertex
100
AcDb2dVertex
 10
478.60000610
 20
117.51812148
 30
0.0
  0
VERTEX
  5
652
100
AcDbEntity
  8
LE_NORM
100
AcDbVertex
100
AcDb2dVertex
 10
458.60000610
 20
117.51812148
 30
0.0
  0
VERTEX
  5
653
100
AcDbEntity
  8
LE_NORM
100
AcDbVertex
100
AcDb2dVertex
 10
458.60000610
 20
97.51812148
 30
0.0
  0
SEQEND
  5
654
100
AcDbEntity
  8
LE_NORM
  0
INSERT
  5
655
100
AcDbEntity
  8
0
100
AcDbBlockReference
  2
INNEN_______________00026
 10
468.30000610
 20
101.13368046
 30
0.0
  0
ENDBLK
  5
656
100
AcDbEntity
  8
0
100
AcDbBlockEnd
  0
BLOCK
  5
657
100
AcDbEntity
  8
0
100
AcDbBlockBegin
  2
INNEN_______________00026
 70
    64
 10
468.30000610
 20
101.13368046
 30
0.0
  3
INNEN_______________00026
  0
POLYLINE
  5
658
100
AcDbEntity
  8
LE_NORM
100
AcDb2dPolyline
 62
     4
 66
     1
  0
VERTEX
  5
659
100
AcDbEntity
  8
LE_NORM
100
AcDbVertex
100
AcDb2dVertex
 10
468.30000610
 20
101.13368046
 30
0.0
  0
VERTEX
  5
65A
100
AcDbEntity
  8
LE_NORM
100
AcDbVertex
100
AcDb2dVertex
 10
468.30000610
 20
102.75321041
 30
0.0
 42
-0.347540486
  0
VERTEX
  5
65B
100
AcDbEntity
  8
LE_NORM
100
AcDbVertex
100
AcDb2dVertex
 10
467.30000610
 20
104.01812148
 30
0.0
  0
VERTEX
  5
65C
100
AcDbEntity
  8
LE_NORM
100
AcDbVertex
100
AcDb2dVertex
 10
467.30000610
 20
108.12075488
 30
0.0
 42
-0.687845769
  0
VERTEX
  5
65D
100
AcDbEntity
  8
LE_NORM
100
AcDbVertex
100
AcDb2dVertex
 10
468.30000610
 20
112.29847233
 30
0.0
  0
VERTEX
  5
65E
100
AcDbEntity
  8
LE_NORM
100
AcDbVertex
100
AcDb2dVertex
 10
468.30000610
 20
113.90656589
 30
0.0
 42
0.622143516
  0
VERTEX
  5
65F
100
AcDbEntity
  8
LE_NORM
100
AcDbVertex
100
AcDb2dVertex
 10
465.70000610
 20
107.41044051
 30
0.0
  0
VERTEX
  5
660
100
AcDbEntity
  8
LE_NORM
100
AcDbVertex
100
AcDb2dVertex
 10
465.70000610
 20
104.01812148
 30
0.0
 42
0.384175595
  0
VERTEX
  5
661
100
AcDbEntity
  8
LE_NORM
100
AcDbVertex
100
AcDb2dVertex
 10
468.30000610
 20
101.13368046
 30
0.0
  0
SEQEND
  5
662
100
AcDbEntity
  8
LE_NORM
  0
POLYLINE
  5
663
100
AcDbEntity
  8
LE_NORM
100
AcDb2dPolyline
 62
     4
 66
     1
  0
VERTEX
  5
664
100
AcDbEntity
  8
LE_NORM
100
AcDbVertex
100
AcDb2dVertex
 10
468.90000610
 20
101.13368046
 30
0.0
  0
VERTEX
  5
665
100
AcDbEntity
  8
LE_NORM
100
AcDbVertex
100
AcDb2dVertex
 10
468.90000610
 20
102.75321041
 30
0.0
 42
0.347540486
  0
VERTEX
  5
666
100
AcDbEntity
  8
LE_NORM
100
AcDbVertex
100
AcDb2dVertex
 10
469.90000610
 20
104.01812148
 30
0.0
  0
VERTEX
  5
667
100
AcDbEntity
  8
LE_NORM
100
AcDbVertex
100
AcDb2dVertex
 10
469.90000610
 20
108.12075488
 30
0.0
 42
0.687845769
  0
VERTEX
  5
668
100
AcDbEntity
  8
LE_NORM
100
AcDbVertex
100
AcDb2dVertex
 10
468.90000610
 20
112.29847233
 30
0.0
  0
VERTEX
  5
669
100
AcDbEntity
  8
LE_NORM
100
AcDbVertex
100
AcDb2dVertex
 10
468.90000610
 20
113.90656589
 30
0.0
 42
-0.622143516
  0
VERTEX
  5
66A
100
AcDbEntity
  8
LE_NORM
100
AcDbVertex
100
AcDb2dVertex
 10
471.50000610
 20
107.41044051
 30
0.0
  0
VERTEX
  5
66B
100
AcDbEntity
  8
LE_NORM
100
AcDbVertex
100
AcDb2dVertex
 10
471.50000610
 20
104.01812148
 30
0.0
 42
-0.384175595
  0
VERTEX
  5
66C
100
AcDbEntity
  8
LE_NORM
100
AcDbVertex
100
AcDb2dVertex
 10
468.90000610
 20
101.13368046
 30
0.0
  0
SEQEND
  5
66D
100
AcDbEntity
  8
LE_NORM
  0
POLYLINE
  5
66E
100
AcDbEntity
  8
LE_NORM
100
AcDb2dPolyline
 62
     4
 66
     1
  0
VERTEX
  5
66F
100
AcDbEntity
  8
LE_NORM
100
AcDbVertex
100
AcDb2dVertex
 10
468.30000610
 20
98.72323660
 30
0.0
  0
VERTEX
  5
670
100
AcDbEntity
  8
LE_NORM
100
AcDbVertex
100
AcDb2dVertex
 10
468.30000610
 20
100.32437419
 30
0.0
 42
-0.959166305
  0
VERTEX
  5
671
100
AcDbEntity
  8
LE_NORM
100
AcDbVertex
100
AcDb2dVertex
 10
468.30000610
 20
114.71186876
 30
0.0
  0
VERTEX
  5
672
100
AcDbEntity
  8
LE_NORM
100
AcDbVertex
100
AcDb2dVertex
 10
468.30000610
 20
116.31300635
 30
0.0
 42
0.966470866
  0
VERTEX
  5
673
100
AcDbEntity
  8
LE_NORM
100
AcDbVertex
100
AcDb2dVertex
 10
468.30000610
 20
98.72323660
 30
0.0
  0
SEQEND
  5
674
100
AcDbEntity
  8
LE_NORM
  0
POLYLINE
  5
675
100
AcDbEntity
  8
LE_NORM
100
AcDb2dPolyline
 62
     4
 66
     1
  0
VERTEX
  5
676
100
AcDbEntity
  8
LE_NORM
100
AcDbVertex
100
AcDb2dVertex
 10
468.90000610
 20
98.72323660
 30
0.0
  0
VERTEX
  5
677
100
AcDbEntity
  8
LE_NORM
100
AcDbVertex
100
AcDb2dVertex
 10
468.90000610
 20
100.32437419
 30
0.0
 42
0.959166305
  0
VERTEX
  5
678
100
AcDbEntity
  8
LE_NORM
100
AcDbVertex
100
AcDb2dVertex
 10
468.90000610
 20
114.71186876
 30
0.0
  0
VERTEX
  5
679
100
AcDbEntity
  8
LE_NORM
100
AcDbVertex
100
AcDb2dVertex
 10
468.90000610
 20
116.31300635
 30
0.0
 42
-0.966470866
  0
VERTEX
  5
67A
100
AcDbEntity
  8
LE_NORM
100
AcDbVertex
100
AcDb2dVertex
 10
468.90000610
 20
98.72323660
 30
0.0
  0
SEQEND
  5
67B
100
AcDbEntity
  8
LE_NORM
  0
INSERT
  5
67C
100
AcDbEntity
  8
0
100
AcDbBlockReference
  2
ALLGEMEI____________00027
 10
565.95155807
 20
38.19496465
 30
0.0
  0
ENDBLK
  5
67D
100
AcDbEntity
  8
0
100
AcDbBlockEnd
  0
BLOCK
  5
67E
100
AcDbEntity
  8
0
100
AcDbBlockBegin
  2
ALLGEMEI____________00027
 70
    64
 10
565.95155807
 20
38.19496465
 30
0.0
  3
ALLGEMEI____________00027
  0
TEXT
  5
67F
100
AcDbEntity
  8
TXT_ALL
100
AcDbText
 62
     4
 10
565.95155807
 20
38.19496465
 30
0.0
 40
5.00000000
  1
Diese Zeichnug darf ohne unsere
 50
0.0
 41
0.443
 51
0.0
  7
STANDARD
100
AcDbText
  0
TEXT
  5
680
100
AcDbEntity
  8
TXT_ALL
100
AcDbText
 62
     4
 10
565.95155807
 20
31.86501532
 30
0.0
 40
5.00000000
  1
schriftliche Genehmigung weder
 50
0.0
 41
0.432
 51
0.0
  7
STANDARD
100
AcDbText
  0
TEXT
  5
681
100
AcDbEntity
  8
TXT_ALL
100
AcDbText
 62
     4
 10
566.12369294
 20
25.52619305
 30
0.0
 40
5.00000000
  1
vervielfältigt noch dritten Personen
 50
0.0
 41
0.412
 51
0.0
  7
STANDARD
100
AcDbText
  0
TEXT
  5
682
100
AcDbEntity
  8
TXT_ALL
100
AcDbText
 62
     4
 10
565.78652155
 20
19.70554998
 30
0.0
 40
5.00000000
  1
zugänglich gemacht werden.
 50
0.0
 41
0.447
 51
0.0
  7
STANDARD
100
AcDbText
  0
TEXT
  5
683
100
AcDbEntity
  8
TXT_ALL
100
AcDbText
 62
     4
 10
566.76748424
 20
111.66698252
 30
0.0
 40
5.00000000
  1
Allgemein-
 50
0.0
 41
0.625
 51
0.0
  7
MONOTXT
100
AcDbText
  0
TEXT
  5
684
100
AcDbEntity
  8
TXT_ALL
100
AcDbText
 62
     4
 10
566.82692053
 20
102.43387351
 30
0.0
 40
5.00000000
  1
toleranzen DIN
 50
0.0
 41
0.625
 51
0.0
  7
MONOTXT
100
AcDbText
  0
TEXT
  5
685
100
AcDbEntity
  8
TXT_ALL
100
AcDbText
 62
     4
 10
566.54397820
 20
92.40473855
 30
0.0
 40
5.00000000
  1
ISO 2768 T1 - m
 50
0.0
 41
0.625
 51
0.0
  7
MONOTXT
100
AcDbText
  0
ENDBLK
  5
686
100
AcDbEntity
  8
0
100
AcDbBlockEnd
  0
BLOCK
  5
687
100
AcDbEntity
  8
0
100
AcDbBlockBegin
  2
0___________________00028
 70
    64
 10
696.14062500
 20
398.34490967
 30
0.0
  3
0___________________00028
  0
INSERT
  5
688
100
AcDbEntity
  8
HATCH
100
AcDbBlockReference
  2
*X2
 10
696.14062500
 20
398.34490967
 30
0.0
 41
1.00000000
 42
1.00000000
 50
0.0
  0
POLYLINE
  5
689
100
AcDbEntity
  8
HATCH
100
AcDb2dPolyline
 66
     1
  0
VERTEX
  5
68A
100
AcDbEntity
  8
HATCH
100
AcDbVertex
100
AcDb2dVertex
 10
696.14062500
 20
398.34490967
 30
0.0
  0
VERTEX
  5
68B
100
AcDbEntity
  8
HATCH
100
AcDbVertex
100
AcDb2dVertex
 10
696.14062500
 20
380.84490967
 30
0.0
  0
VERTEX
  5
68C
100
AcDbEntity
  8
HATCH
100
AcDbVertex
100
AcDb2dVertex
 10
653.14062500
 20
380.84490967
 30
0.0
  0
VERTEX
  5
68D
100
AcDbEntity
  8
HATCH
100
AcDbVertex
100
AcDb2dVertex
 10
653.14062500
 20
368.84490967
 30
0.0
  0
VERTEX
  5
68E
100
AcDbEntity
  8
HATCH
100
AcDbVertex
100
AcDb2dVertex
 10
640.14062500
 20
368.84490967
 30
0.0
  0
VERTEX
  5
68F
100
AcDbEntity
  8
HATCH
100
AcDbVertex
100
AcDb2dVertex
 10
640.14062500
 20
431.80200195
 30
0.0
  0
VERTEX
  5
690
100
AcDbEntity
  8
HATCH
100
AcDbVertex
100
AcDb2dVertex
 10
696.14062500
 20
431.80200195
 30
0.0
  0
VERTEX
  5
691
100
AcDbEntity
  8
HATCH
100
AcDbVertex
100
AcDb2dVertex
 10
696.14062500
 20
398.34490967
 30
0.0
  0
SEQEND
  5
692
100
AcDbEntity
  8
HATCH
  0
INSERT
  5
693
100
AcDbEntity
  8
0
100
AcDbBlockReference
  2
FIG_________________00029
 10
724.94061279
 20
403.34490967
 30
0.0
  0
INSERT
  5
694
100
AcDbEntity
  8
0
100
AcDbBlockReference
  2
_KF_XXXX____________00030
 10
705.29068604
 20
381.34481812
 30
0.0
  0
ENDBLK
  5
695
100
AcDbEntity
  8
0
100
AcDbBlockEnd
  0
BLOCK
  5
696
100
AcDbEntity
  8
0
100
AcDbBlockBegin
  2
FIG_________________00029
 70
    64
 10
724.94061279
 20
403.34490967
 30
0.0
  3
FIG_________________00029
  0
POLYLINE
  5
697
100
AcDbEntity
  8
HATCH
100
AcDb2dPolyline
 66
     1
  0
VERTEX
  5
698
100
AcDbEntity
  8
HATCH
100
AcDbVertex
100
AcDb2dVertex
 10
724.94061279
 20
403.34490967
 30
0.0
  0
VERTEX
  5
699
100
AcDbEntity
  8
HATCH
100
AcDbVertex
100
AcDb2dVertex
 10
727.04064941
 20
405.44491577
 30
0.0
  0
VERTEX
  5
69A
100
AcDbEntity
  8
HATCH
100
AcDbVertex
100
AcDb2dVertex
 10
727.44061279
 20
405.44491577
 30
0.0
  0
VERTEX
  5
69B
100
AcDbEntity
  8
HATCH
100
AcDbVertex
100
AcDb2dVertex
 10
727.44061279
 20
396.24490356
 30
0.0
  0
VERTEX
  5
69C
100
AcDbEntity
  8
HATCH
100
AcDbVertex
100
AcDb2dVertex
 10
727.04058838
 20
396.24490356
 30
0.0
  0
VERTEX
  5
69D
100
AcDbEntity
  8
HATCH
100
AcDbVertex
100
AcDb2dVertex
 10
724.94061279
 20
398.34490967
 30
0.0
  0
SEQEND
  5
69E
100
AcDbEntity
  8
HATCH
  0
POLYLINE
  5
69F
100
AcDbEntity
  8
HATCH
100
AcDb2dPolyline
 66
     1
  0
VERTEX
  5
6A0
100
AcDbEntity
  8
HATCH
100
AcDbVertex
100
AcDb2dVertex
 10
678.44061279
 20
398.34490967
 30
0.0
  0
VERTEX
  5
6A1
100
AcDbEntity
  8
HATCH
100
AcDbVertex
100
AcDb2dVertex
 10
678.44061279
 20
403.34490967
 30
0.0
  0
VERTEX
  5
6A2
100
AcDbEntity
  8
HATCH
100
AcDbVertex
100
AcDb2dVertex
 10
724.94061279
 20
403.34490967
 30
0.0
  0
VERTEX
  5
6A3
100
AcDbEntity
  8
HATCH
100
AcDbVertex
100
AcDb2dVertex
 10
724.94061279
 20
398.34490967
 30
0.0
  0
VERTEX
  5
6A4
100
AcDbEntity
  8
HATCH
100
AcDbVertex
100
AcDb2dVertex
 10
678.44061279
 20
398.34490967
 30
0.0
  0
SEQEND
  5
6A5
100
AcDbEntity
  8
HATCH
  0
LINE
  5
6A6
100
AcDbEntity
  8
HATCH
100
AcDbLine
 10
723.34057617
 20
398.34490967
 30
0.0
 11
723.34057617
 21
403.34490967
 31
0.0
  0
LINE
  5
6A7
100
AcDbEntity
  8
LE_RED
100
AcDbLine
 10
723.34057617
 20
402.84490967
 30
0.0
 11
678.44061279
 21
402.84490967
 31
0.0
  0
LINE
  5
6A8
100
AcDbEntity
  8
LE_RED
100
AcDbLine
 10
723.34057617
 20
398.84490967
 30
0.0
 11
678.44061279
 21
398.84490967
 31
0.0
  0
LINE
  5
6A9
100
AcDbEntity
  8
HATCH
100
AcDbLine
 10
727.04058838
 20
396.24490356
 30
0.0
 11
727.04058838
 21
405.44491577
 31
0.0
  0
LINE
  5
6AA
100
AcDbEntity
  8
LE_MIDDLE
100
AcDbLine
  6
DASHDOT
 62
     1
 10
728.70593262
 20
400.84490967
 30
0.0
 11
677.67150879
 21
400.84490967
 31
0.0
  0
ENDBLK
  5
6AB
100
AcDbEntity
  8
0
100
AcDbBlockEnd
  0
BLOCK
  5
6AC
100
AcDbEntity
  8
0
100
AcDbBlockBegin
  2
_KF_XXXX____________00030
 70
    64
 10
705.29068604
 20
381.34481812
 30
0.0
  3
_KF_XXXX____________00030
  0
POLYLINE
  5
6AD
100
AcDbEntity
  8
HATCH
100
AcDb2dPolyline
 66
     1
  0
VERTEX
  5
6AE
100
AcDbEntity
  8
HATCH
100
AcDbVertex
100
AcDb2dVertex
 10
705.29068604
 20
381.34481812
 30
0.0
  0
VERTEX
  5
6AF
100
AcDbEntity
  8
HATCH
100
AcDbVertex
100
AcDb2dVertex
 10
705.29064789
 20
380.74481201
 30
0.0
 42
0.414213562
  0
VERTEX
  5
6B0
100
AcDbEntity
  8
HATCH
100
AcDbVertex
100
AcDb2dVertex
 10
705.69064941
 20
380.34481049
 30
0.0
  0
VERTEX
  5
6B1
100
AcDbEntity
  8
HATCH
100
AcDbVertex
100
AcDb2dVertex
 10
717.89060059
 20
380.34481049
 30
0.0
 42
0.414297371
  0
VERTEX
  5
6B2
100
AcDbEntity
  8
HATCH
100
AcDbVertex
100
AcDb2dVertex
 10
718.29068604
 20
380.74484253
 30
0.0
  0
VERTEX
  5
6B3
100
AcDbEntity
  8
HATCH
100
AcDbVertex
100
AcDb2dVertex
 10
718.29068604
 20
381.34481812
 30
0.0
  0
SEQEND
  5
6B4
100
AcDbEntity
  8
HATCH
  0
LINE
  5
6B5
100
AcDbEntity
  8
LE_NORM
100
AcDbLine
 62
     8
 10
706.79068604
 20
388.79487915
 30
0.0
 11
706.79068604
 21
387.34487915
 31
0.0
  0
LINE
  5
6B6
100
AcDbEntity
  8
LE_NORM
100
AcDbLine
 62
     8
 10
716.79068604
 20
387.34487915
 30
0.0
 11
716.79068604
 21
388.79487915
 31
0.0
  0
ENDBLK
  5
6B7
100
AcDbEntity
  8
0
100
AcDbBlockEnd
  0
BLOCK
  5
6B8
100
AcDbEntity
  8
0
100
AcDbBlockBegin
  2
_KF_XXXX____________00031
 70
    64
 10
137.84411621
 20
381.34481812
 30
0.0
  3
_KF_XXXX____________00031
  0
POLYLINE
  5
6B9
100
AcDbEntity
  8
HATCH
100
AcDb2dPolyline
 66
     1
  0
VERTEX
  5
6BA
100
AcDbEntity
  8
HATCH
100
AcDbVertex
100
AcDb2dVertex
 10
137.84411621
 20
381.34481812
 30
0.0
  0
VERTEX
  5
6BB
100
AcDbEntity
  8
HATCH
100
AcDbVertex
100
AcDb2dVertex
 10
137.84413910
 20
380.74481201
 30
0.0
 42
0.414213562
  0
VERTEX
  5
6BC
100
AcDbEntity
  8
HATCH
100
AcDbVertex
100
AcDb2dVertex
 10
138.24414062
 20
380.34487915
 30
0.0
  0
VERTEX
  5
6BD
100
AcDbEntity
  8
HATCH
100
AcDbVertex
100
AcDb2dVertex
 10
150.44421387
 20
380.34481053
 30
0.0
 42
0.414235914
  0
VERTEX
  5
6BE
100
AcDbEntity
  8
HATCH
100
AcDbVertex
100
AcDb2dVertex
 10
150.84411621
 20
380.74484253
 30
0.0
  0
VERTEX
  5
6BF
100
AcDbEntity
  8
HATCH
100
AcDbVertex
100
AcDb2dVertex
 10
150.84411621
 20
381.34481812
 30
0.0
  0
SEQEND
  5
6C0
100
AcDbEntity
  8
HATCH
  0
ENDBLK
  5
6C1
100
AcDbEntity
  8
0
100
AcDbBlockEnd
  0
BLOCK
  5
6C2
100
AcDbEntity
  8
0
100
AcDbBlockBegin
  2
_Z1_XXXX____________00032
 70
    64
 10
16.88306964
 20
406.01962256
 30
0.0
  3
_Z1_XXXX____________00032
  0
ELLIPSE
  5
6C3
100
AcDbEntity
  8
LE_RED
100
AcDbEllipse
 10
17.32788086
 20
401.13452148
 30
0.0
 11
0.71235770
 21
-8.82969948
 31
0.0
 40
0.00685014
 41
4.12556624
 42
5.69637598
  0
ELLIPSE
  5
6C4
100
AcDbEntity
  8
LE_RED
100
AcDbEllipse
 10
18.46490479
 20
380.01525879
 30
0.0
 11
0.93333407
 21
-16.45449601
 31
0.0
 40
0.02244106
 41
0.98958837
 42
2.56036243
  0
ELLIPSE
  5
6C5
100
AcDbEntity
  8
LE_RED
100
AcDbEllipse
 10
22.63958740
 20
362.58886719
 30
0.0
 11
2.29738607
 21
-16.12594631
 31
0.0
 40
0.15567437
 41
4.14174654
 42
5.71254870
  0
ELLIPSE
  5
6C6
100
AcDbEntity
  8
LE_RED
100
AcDbEllipse
 10
49.18768311
 20
334.32214355
 30
0.0
 11
28.06104472
 21
-17.86307610
 31
0.0
 40
0.11424332
 41
3.60899971
 42
5.17979493
  0
ELLIPSE
  5
6C7
100
AcDbEntity
  8
LE_RED
100
AcDbEllipse
 10
68.34851074
 20
315.13977051
 30
0.0
 11
13.30269984
 21
-16.66514752
 31
0.0
 40
0.07602710
 41
4.13342892
 42
5.70422035
  0
ELLIPSE
  5
6C8
100
AcDbEntity
  8
LE_RED
100
AcDbEllipse
 10
106.67895556
 20
289.08147600
 30
0.0
 11
32.64921611
 21
-15.29099118
 31
0.0
 40
0.06902699
 41
3.72155274
 42
5.29235018
  0
ELLIPSE
  5
6C9
100
AcDbEntity
  8
LE_RED
100
AcDbEllipse
 10
136.28912354
 20
273.62469482
 30
0.0
 11
20.88775275
 21
-13.07632353
 31
0.0
 40
0.11064188
 41
4.13571978
 42
5.70651592
  0
ELLIPSE
  5
6CA
100
AcDbEntity
  8
LE_RED
100
AcDbEllipse
 10
181.86190796
 20
256.75445557
 30
0.0
 11
33.93449874
 21
-7.92590908
 31
0.0
 40
0.10661668
 41
3.72138454
 42
5.29217125
  0
ELLIPSE
  5
6CB
100
AcDbEntity
  8
LE_RED
100
AcDbEllipse
 10
218.86392212
 20
246.44476318
 30
0.0
 11
34.61253048
 21
-5.49966300
 31
0.0
 40
0.00327710
 41
4.12772921
 42
5.69843237
  0
ELLIPSE
  5
6CC
100
AcDbEntity
  8
LE_RED
100
AcDbEllipse
 10
282.42800903
 20
238.43566895
 30
0.0
 11
41.62322142
 21
-4.75539295
 31
0.0
 40
0.02589740
 41
3.72909442
 42
5.29991500
  0
ELLIPSE
  5
6CD
100
AcDbEntity
  8
LE_RED
100
AcDbEllipse
 10
328.54949951
 20
232.90783691
 30
0.0
 11
41.72560166
 21
-3.90276989
 31
0.0
 40
0.00487483
 41
4.12464402
 42
5.69539549
  0
ELLIPSE
  5
6CE
100
AcDbEntity
  8
LE_RED
100
AcDbEllipse
 10
396.72396851
 20
227.47369385
 30
0.0
 11
40.19329685
 21
-2.78942117
 31
0.0
 40
0.01110397
 41
3.72949322
 42
5.30029128
  0
ELLIPSE
  5
6CF
100
AcDbEntity
  8
LE_RED
100
AcDbEllipse
 10
441.30203247
 20
224.26312256
 30
0.0
 11
40.22028103
 21
-2.44213096
 31
0.0
 40
0.00186538
 41
4.12444684
 42
5.69519879
  0
ELLIPSE
  5
6D0
100
AcDbEntity
  8
LE_RED
100
AcDbEllipse
 10
499.97384644
 20
220.05322266
 30
0.0
 11
30.28823297
 21
-2.31742125
 31
0.0
 40
0.01230737
 41
0.98422030
 42
2.55503989
  0
ELLIPSE
  5
6D1
100
AcDbEntity
  8
LE_RED
100
AcDbEllipse
 10
533.53906250
 20
220.24291992
 30
0.0
 11
30.28156189
 21
-1.14053202
 31
0.0
 40
0.07093068
 41
4.12787948
 42
5.69867192
  0
ELLIPSE
  5
6D2
100
AcDbEntity
  8
LE_RED
100
AcDbEllipse
 10
572.75671387
 20
221.33721924
 30
0.0
 11
16.91657371
 21
3.05975925
 31
0.0
 40
0.07255905
 41
3.72374248
 42
5.29453841
  0
ELLIPSE
  5
6D3
100
AcDbEntity
  8
LE_RED
100
AcDbEllipse
 10
591.08764648
 20
225.48754883
 30
0.0
 11
16.56344938
 21
4.61945559
 31
0.0
 40
0.06885983
 41
4.13001258
 42
5.70081865
  0
ELLIPSE
  5
6D4
100
AcDbEntity
  8
LE_RED
100
AcDbEllipse
 10
625.89477539
 20
243.18188477
 30
0.0
 11
21.59420357
 21
14.60131391
 31
0.0
 40
0.05387985
 41
3.37976714
 42
4.95056440
  0
ELLIPSE
  5
6D5
100
AcDbEntity
  8
LE_RED
100
AcDbEllipse
 10
19.73260498
 20
435.22412109
 30
0.0
 11
-3.12930299
 21
-17.48283472
 31
0.0
 40
0.03204572
 41
4.91513754
 42
6.04061610
  0
ELLIPSE
  5
6D6
100
AcDbEntity
  8
LE_RED
100
AcDbEllipse
 10
17.12005615
 20
410.92211914
 30
0.0
 11
0.33539066
 21
-8.83841142
 31
0.0
 40
0.05735690
 41
3.72718135
 42
5.29797641
  0
ENDBLK
  5
6D7
100
AcDbEntity
  8
0
100
AcDbBlockEnd
  0
BLOCK
  5
6D8
100
AcDbEntity
  8
0
100
AcDbBlockBegin
  2
_MG_________________00033
 70
    64
 10
455.08718872
 20
277.44299316
 30
0.0
  3
_MG_________________00033
  0
INSERT
  5
6D9
100
AcDbEntity
  8
DIM49
100
AcDbBlockReference
  2
BEM_0016
 10
455.08718872
 20
277.44299316
 30
0.0
 41
1.00000000
 42
1.00000000
 50
0.0
  0
INSERT
  5
6DA
100
AcDbEntity
  8
DIM49
100
AcDbBlockReference
  2
BEM_0017
 10
295.08715820
 20
276.56552124
 30
0.0
 41
1.00000000
 42
1.00000000
 50
0.0
  0
ENDBLK
  5
6DB
100
AcDbEntity
  8
0
100
AcDbBlockEnd
  0
BLOCK
  5
6DC
100
AcDbEntity
  8
0
100
AcDbBlockBegin
  2
FIG_________________00034
 70
    64
 10
0.0
 20
0.0
 30
0.0
  3
FIG_________________00034
  0
INSERT
  5
6DD
100
AcDbEntity
  8
0
100
AcDbBlockReference
  2
_KF_XXXX____________00035
 10
704.54068604
 20
392.59486694
 30
0.0
  0
INSERT
  5
6DE
100
AcDbEntity
  8
0
100
AcDbBlockReference
  2
_KF_XXXX____________00036
 10
704.54068604
 20
392.59486694
 30
0.0
  0
INSERT
  5
6DF
100
AcDbEntity
  8
0
100
AcDbBlockReference
  2
_KF_XXXX____________00037
 10
186.90643311
 20
387.34487915
 30
0.0
  0
INSERT
  5
6E0
100
AcDbEntity
  8
0
100
AcDbBlockReference
  2
_Z1_XXXX____________00038
 10
187.98053954
 20
381.34499382
 30
0.0
  0
INSERT
  5
6E1
100
AcDbEntity
  8
0
100
AcDbBlockReference
  2
_Z1_XXXX____________00039
 10
183.98060058
 20
381.34493278
 30
0.0
  0
ENDBLK
  5
6E2
100
AcDbEntity
  8
0
100
AcDbBlockEnd
  0
BLOCK
  5
6E3
100
AcDbEntity
  8
0
100
AcDbBlockBegin
  2
_KF_XXXX____________00035
 70
    64
 10
704.54068604
 20
392.59486694
 30
0.0
  3
_KF_XXXX____________00035
  0
POLYLINE
  5
6E4
100
AcDbEntity
  8
K
100
AcDb2dPolyline
  6
DOT
 62
     1
 66
     1
  0
VERTEX
  5
6E5
100
AcDbEntity
  8
K
100
AcDbVertex
100
AcDb2dVertex
 10
704.54068604
 20
392.59486694
 30
0.0
  0
VERTEX
  5
6E6
100
AcDbEntity
  8
K
100
AcDbVertex
100
AcDb2dVertex
 10
704.54068604
 20
390.09486694
 30
0.0
  0
SEQEND
  5
6E7
100
AcDbEntity
  8
K
  0
POLYLINE
  5
6E8
100
AcDbEntity
  8
HATCH
100
AcDb2dPolyline
 66
     1
  0
VERTEX
  5
6E9
100
AcDbEntity
  8
HATCH
100
AcDbVertex
100
AcDb2dVertex
 10
704.54068604
 20
390.09486694
 30
0.0
  0
VERTEX
  5
6EA
100
AcDbEntity
  8
HATCH
100
AcDbVertex
100
AcDb2dVertex
 10
704.54068604
 20
388.79487915
 30
0.0
  0
VERTEX
  5
6EB
100
AcDbEntity
  8
HATCH
100
AcDbVertex
100
AcDb2dVertex
 10
719.04068604
 20
388.79487915
 30
0.0
  0
VERTEX
  5
6EC
100
AcDbEntity
  8
HATCH
100
AcDbVertex
100
AcDb2dVertex
 10
719.04068604
 20
390.09486694
 30
0.0
  0
SEQEND
  5
6ED
100
AcDbEntity
  8
HATCH
  0
LINE
  5
6EE
100
AcDbEntity
  8
K
100
AcDbLine
  6
DOT
 62
     1
 10
719.04068604
 20
390.09486694
 30
0.0
 11
719.04068604
 21
392.59486694
 31
0.0
  0
POLYLINE
  5
6EF
100
AcDbEntity
  8
K
100
AcDb2dPolyline
  6
DOT
 62
     1
 66
     1
  0
VERTEX
  5
6F0
100
AcDbEntity
  8
K
100
AcDbVertex
100
AcDb2dVertex
 10
699.34067383
 20
392.59486694
 30
0.0
  0
VERTEX
  5
6F1
100
AcDbEntity
  8
K
100
AcDbVertex
100
AcDb2dVertex
 10
699.34067383
 20
407.79487915
 30
0.0
  0
VERTEX
  5
6F2
100
AcDbEntity
  8
K
100
AcDbVertex
100
AcDb2dVertex
 10
724.24069824
 20
407.79487915
 30
0.0
  0
VERTEX
  5
6F3
100
AcDbEntity
  8
K
100
AcDbVertex
100
AcDb2dVertex
 10
724.24069824
 20
392.59486694
 30
0.0
  0
SEQEND
  5
6F4
100
AcDbEntity
  8
K
  0
LINE
  5
6F5
100
AcDbEntity
  8
LE_MIDDLE
100
AcDbLine
  6
DASHDOT
 62
     1
 10
711.79068604
 20
379.03121948
 30
0.0
 11
711.79068604
 21
409.73356934
 31
0.0
  0
ENDBLK
  5
6F6
100
AcDbEntity
  8
0
100
AcDbBlockEnd
  0
BLOCK
  5
6F7
100
AcDbEntity
  8
0
100
AcDbBlockBegin
  2
_KF_XXXX____________00036
 70
    64
 10
704.54068604
 20
392.59486694
 30
0.0
  3
_KF_XXXX____________00036
  0
POLYLINE
  5
6F8
100
AcDbEntity
  8
K
100
AcDb2dPolyline
  6
DOT
 62
     1
 66
     1
  0
VERTEX
  5
6F9
100
AcDbEntity
  8
K
100
AcDbVertex
100
AcDb2dVertex
 10
704.54068604
 20
392.59486694
 30
0.0
  0
VERTEX
  5
6FA
100
AcDbEntity
  8
K
100
AcDbVertex
100
AcDb2dVertex
 10
699.14060059
 20
392.59486694
 30
0.0
  0
VERTEX
  5
6FB
100
AcDbEntity
  8
K
100
AcDbVertex
100
AcDb2dVertex
 10
699.14060059
 20
407.99483032
 30
0.0
  0
VERTEX
  5
6FC
100
AcDbEntity
  8
K
100
AcDbVertex
100
AcDb2dVertex
 10
701.14060059
 20
407.99483032
 30
0.0
  0
VERTEX
  5
6FD
100
AcDbEntity
  8
K
100
AcDbVertex
100
AcDb2dVertex
 10
701.14060059
 20
408.59483643
 30
0.0
  0
VERTEX
  5
6FE
100
AcDbEntity
  8
K
100
AcDbVertex
100
AcDb2dVertex
 10
722.44064941
 20
408.59483643
 30
0.0
  0
VERTEX
  5
6FF
100
AcDbEntity
  8
K
100
AcDbVertex
100
AcDb2dVertex
 10
722.44064941
 20
407.99483032
 30
0.0
  0
VERTEX
  5
700
100
AcDbEntity
  8
K
100
AcDbVertex
100
AcDb2dVertex
 10
724.44064941
 20
407.99483032
 30
0.0
  0
VERTEX
  5
701
100
AcDbEntity
  8
K
100
AcDbVertex
100
AcDb2dVertex
 10
724.44064941
 20
392.59486694
 30
0.0
  0
VERTEX
  5
702
100
AcDbEntity
  8
K
100
AcDbVertex
100
AcDb2dVertex
 10
719.04068604
 20
392.59486694
 30
0.0
  0
SEQEND
  5
703
100
AcDbEntity
  8
K
  0
LINE
  5
704
100
AcDbEntity
  8
K
100
AcDbLine
  6
DOT
 62
     8
 10
704.04062500
 20
392.59486694
 30
0.0
 11
704.04062500
 21
390.09486694
 31
0.0
  0
LINE
  5
705
100
AcDbEntity
  8
K
100
AcDbLine
  6
DOT
 62
     8
 10
719.54062500
 20
392.59486694
 30
0.0
 11
719.54062500
 21
390.09486694
 31
0.0
  0
ENDBLK
  5
706
100
AcDbEntity
  8
0
100
AcDbBlockEnd
  0
BLOCK
  5
707
100
AcDbEntity
  8
0
100
AcDbBlockBegin
  2
_KF_XXXX____________00037
 70
    64
 10
186.90643311
 20
387.34487915
 30
0.0
  3
_KF_XXXX____________00037
  0
POLYLINE
  5
708
100
AcDbEntity
  8
HATCH
100
AcDb2dPolyline
 66
     1
  0
VERTEX
  5
709
100
AcDbEntity
  8
HATCH
100
AcDbVertex
100
AcDb2dVertex
 10
186.90643311
 20
387.34487915
 30
0.0
  0
VERTEX
  5
70A
100
AcDbEntity
  8
HATCH
100
AcDbVertex
100
AcDb2dVertex
 10
419.08715820
 20
387.34487915
 30
0.0
  0
VERTEX
  5
70B
100
AcDbEntity
  8
HATCH
100
AcDbVertex
100
AcDb2dVertex
 10
419.08715820
 20
381.34487915
 30
0.0
  0
VERTEX
  5
70C
100
AcDbEntity
  8
HATCH
100
AcDbVertex
100
AcDb2dVertex
 10
187.98046875
 20
381.34487915
 30
0.0
  0
SEQEND
  5
70D
100
AcDbEntity
  8
HATCH
  0
POLYLINE
  5
70E
100
AcDbEntity
  8
HATCH
100
AcDb2dPolyline
 66
     1
  0
VERTEX
  5
70F
100
AcDbEntity
  8
HATCH
100
AcDbVertex
100
AcDb2dVertex
 10
183.98052979
 20
381.34487915
 30
0.0
  0
VERTEX
  5
710
100
AcDbEntity
  8
HATCH
100
AcDbVertex
100
AcDb2dVertex
 10
131.34411621
 20
381.34487915
 30
0.0
  0
VERTEX
  5
711
100
AcDbEntity
  8
HATCH
100
AcDbVertex
100
AcDb2dVertex
 10
131.34411621
 20
387.34487915
 30
0.0
  0
VERTEX
  5
712
100
AcDbEntity
  8
HATCH
100
AcDbVertex
100
AcDb2dVertex
 10
182.90643311
 20
387.34487915
 30
0.0
  0
SEQEND
  5
713
100
AcDbEntity
  8
HATCH
  0
LINE
  5
714
100
AcDbEntity
  8
LE_MIDDLE
100
AcDbLine
  6
DASHDOT
 62
     1
 10
408.08715820
 20
392.29248047
 30
0.0
 11
408.08715820
 21
366.54681396
 31
0.0
  0
LINE
  5
715
100
AcDbEntity
  8
HATCH
100
AcDbLine
 10
418.58715820
 20
381.34487915
 30
0.0
 11
418.58715820
 21
374.84487915
 31
0.0
  0
LINE
  5
716
100
AcDbEntity
  8
LE_MIDDLE
100
AcDbLine
  6
DASHDOT
 62
     1
 10
142.34411621
 20
390.55249023
 30
0.0
 11
142.34411621
 21
377.93545532
 31
0.0
  0
LINE
  5
717
100
AcDbEntity
  8
HATCH
100
AcDbLine
 10
397.58715820
 20
381.34487915
 30
0.0
 11
397.58715820
 21
374.84487915
 31
0.0
  0
ENDBLK
  5
718
100
AcDbEntity
  8
0
100
AcDbBlockEnd
  0
BLOCK
  5
719
100
AcDbEntity
  8
0
100
AcDbBlockBegin
  2
_Z1_XXXX____________00038
 70
    64
 10
187.98053954
 20
381.34499382
 30
0.0
  3
_Z1_XXXX____________00038
  0
ELLIPSE
  5
71A
100
AcDbEntity
  8
LE_RED
100
AcDbEllipse
 10
186.34310913
 20
376.69134521
 30
0.0
 11
-1.82929373
 21
-6.42364506
 31
0.0
 40
0.06653840
 41
2.39979891
 42
2.90709103
  0
ELLIPSE
  5
71B
100
AcDbEntity
  8
LE_RED
100
AcDbEllipse
 10
187.38497925
 20
384.73059082
 30
0.0
 11
0.70955033
 21
-2.22079742
 31
0.0
 40
0.19966064
 41
0.54963569
 42
2.12042437
  0
ELLIPSE
  5
71C
100
AcDbEntity
  8
LE_RED
100
AcDbEllipse
 10
187.45193481
 20
387.29101562
 30
0.0
 11
0.68427499
 21
-2.21950301
 31
0.0
 40
0.21851634
 41
4.62089130
 42
5.25796670
  0
ENDBLK
  5
71D
100
AcDbEntity
  8
0
100
AcDbBlockEnd
  0
BLOCK
  5
71E
100
AcDbEntity
  8
0
100
AcDbBlockBegin
  2
_Z1_XXXX____________00039
 70
    64
 10
183.98060058
 20
381.34493278
 30
0.0
  3
_Z1_XXXX____________00039
  0
ELLIPSE
  5
71F
100
AcDbEntity
  8
LE_RED
100
AcDbEllipse
 10
182.34317017
 20
376.69128418
 30
0.0
 11
-1.82929373
 21
-6.42364506
 31
0.0
 40
0.06653840
 41
2.39979891
 42
2.90709103
  0
ELLIPSE
  5
720
100
AcDbEntity
  8
LE_RED
100
AcDbEllipse
 10
183.38504028
 20
384.73052979
 30
0.0
 11
0.70955033
 21
-2.22079742
 31
0.0
 40
0.19966064
 41
0.54963569
 42
2.12039513
  0
ELLIPSE
  5
721
100
AcDbEntity
  8
LE_RED
100
AcDbEllipse
 10
183.45199585
 20
387.29089355
 30
0.0
 11
0.68427499
 21
-2.21950301
 31
0.0
 40
0.21851634
 41
4.62086583
 42
5.25796670
  0
ENDBLK
  5
722
100
AcDbEntity
  8
0
100
AcDbBlockEnd
  0
BLOCK
  5
723
100
AcDbEntity
  8
0
100
AcDbBlockBegin
  2
FIG_________________00040
 70
    64
 10
0.0
 20
0.0
 30
0.0
  3
FIG_________________00040
  0
INSERT
  5
724
100
AcDbEntity
  8
0
100
AcDbBlockReference
  2
_KF_XXXX____________00041
 10
733.64062500
 20
381.34487915
 30
0.0
  0
ENDBLK
  5
725
100
AcDbEntity
  8
0
100
AcDbBlockEnd
  0
BLOCK
  5
726
100
AcDbEntity
  8
0
100
AcDbBlockBegin
  2
_KF_XXXX____________00041
 70
    64
 10
733.64062500
 20
381.34487915
 30
0.0
  3
_KF_XXXX____________00041
  0
POLYLINE
  5
727
100
AcDbEntity
  8
HATCH
100
AcDb2dPolyline
 66
     1
  0
VERTEX
  5
728
100
AcDbEntity
  8
HATCH
100
AcDbVertex
100
AcDb2dVertex
 10
733.64062500
 20
381.34487915
 30
0.0
  0
VERTEX
  5
729
100
AcDbEntity
  8
HATCH
100
AcDbVertex
100
AcDb2dVertex
 10
700.79068604
 20
381.34487915
 30
0.0
  0
SEQEND
  5
72A
100
AcDbEntity
  8
HATCH
  0
POLYLINE
  5
72B
100
AcDbEntity
  8
LE_NORM
100
AcDb2dPolyline
 62
     8
 66
     1
  0
VERTEX
  5
72C
100
AcDbEntity
  8
LE_NORM
100
AcDbVertex
100
AcDb2dVertex
 10
700.79068604
 20
381.34487915
 30
0.0
  0
VERTEX
  5
72D
100
AcDbEntity
  8
LE_NORM
100
AcDbVertex
100
AcDb2dVertex
 10
700.79068604
 20
387.34487915
 30
0.0
  0
SEQEND
  5
72E
100
AcDbEntity
  8
LE_NORM
  0
LINE
  5
72F
100
AcDbEntity
  8
HATCH
100
AcDbLine
 10
700.79068604
 20
387.34487915
 30
0.0
 11
733.64062500
 21
387.34487915
 31
0.0
  0
LINE
  5
730
100
AcDbEntity
  8
LE_NORM
100
AcDbLine
 62
     8
 10
733.64062500
 20
381.34487915
 30
0.0
 11
733.64062500
 21
375.84490967
 31
0.0
  0
LINE
  5
731
100
AcDbEntity
  8
LE_NORM
100
AcDbLine
 62
     8
 10
711.64062500
 20
381.34487915
 30
0.0
 11
711.64062500
 21
375.84490967
 31
0.0
  0
LINE
  5
732
100
AcDbEntity
  8
LE_NORM
100
AcDbLine
 62
     8
 10
735.64062500
 20
387.34487915
 30
0.0
 11
735.64062500
 21
381.34487915
 31
0.0
  0
LINE
  5
733
100
AcDbEntity
  8
LE_NORM
100
AcDbLine
 62
     8
 10
733.64062500
 20
387.34487915
 30
0.0
 11
735.64062500
 21
387.34487915
 31
0.0
  0
LINE
  5
734
100
AcDbEntity
  8
LE_NORM
100
AcDbLine
 62
     8
 10
735.64062500
 20
381.34487915
 30
0.0
 11
733.64062500
 21
381.34487915
 31
0.0
  0
LINE
  5
735
100
AcDbEntity
  8
LE_NORM
100
AcDbLine
 62
     8
 10
713.64062500
 20
387.34487915
 30
0.0
 11
713.64062500
 21
381.34487915
 31
0.0
  0
ENDBLK
  5
736
100
AcDbEntity
  8
0
100
AcDbBlockEnd
  0
BLOCK
  5
737
100
AcDbEntity
  8
0
100
AcDbBlockBegin
  2
_MG_________________00042
 70
    64
 10
0.0
 20
0.0
 30
0.0
  3
_MG_________________00042
  0
INSERT
  5
738
100
AcDbEntity
  8
0
100
AcDbBlockReference
  2
_KF_XXXX____________00043
 10
698.14061378
 20
306.84490967
 30
0.0
  0
ENDBLK
  5
739
100
AcDbEntity
  8
0
100
AcDbBlockEnd
  0
BLOCK
  5
73A
100
AcDbEntity
  8
0
100
AcDbBlockBegin
  2
_KF_XXXX____________00043
 70
    64
 10
698.14061378
 20
306.84490967
 30
0.0
  3
_KF_XXXX____________00043
  0
POLYLINE
  5
73B
100
AcDbEntity
  8
LE_NORM
100
AcDb2dPolyline
 62
     3
 66
     1
  0
VERTEX
  5
73C
100
AcDbEntity
  8
LE_NORM
100
AcDbVertex
100
AcDb2dVertex
 10
698.14061378
 20
306.84490967
 30
0.0
  0
VERTEX
  5
73D
100
AcDbEntity
  8
LE_NORM
100
AcDbVertex
100
AcDb2dVertex
 10
698.14078799
 20
256.51171875
 30
0.0
 42
1.000000000
  0
VERTEX
  5
73E
100
AcDbEntity
  8
LE_NORM
100
AcDbVertex
100
AcDb2dVertex
 10
716.80743408
 20
256.51171875
 30
0.0
  0
VERTEX
  5
73F
100
AcDbEntity
  8
LE_NORM
100
AcDbVertex
100
AcDb2dVertex
 10
696.14062500
 20
256.51171875
 30
0.0
  0
SEQEND
  5
740
100
AcDbEntity
  8
LE_NORM
  0
LINE
  5
741
100
AcDbEntity
  8
LE_MIDDLE
100
AcDbLine
  6
DASHDOT
 62
     1
 10
707.47412109
 20
241.83294678
 30
0.0
 11
707.47412109
 21
304.73965454
 31
0.0
  0
LINE
  5
742
100
AcDbEntity
  8
LE_NORM
100
AcDbLine
 62
     3
 10
696.14062500
 20
291.17822266
 30
0.0
 11
716.80743408
 21
291.17822266
 31
0.0
  0
LINE
  5
743
100
AcDbEntity
  8
LE_NORM
100
AcDbLine
 62
     3
 10
716.80743408
 20
256.51171875
 30
0.0
 11
716.80743408
 21
306.84490967
 31
0.0
  0
ENDBLK
  5
744
100
AcDbEntity
  8
0
100
AcDbBlockEnd
  0
BLOCK
  5
745
100
AcDbEntity
  8
0
100
AcDbBlockBegin
  2
_FOLIEN_____________00044
 70
    64
 10
0.0
 20
-30.00000000
 30
0.0
  3
_FOLIEN_____________00044
  0
ENDBLK
  5
746
100
AcDbEntity
  8
0
100
AcDbBlockEnd
  0
BLOCK
  5
747
100
AcDbEntity
  8
0
100
AcDbBlockBegin
  2
FLÜGEL______________00045
 70
    64
 10
656.14062500
 20
377.84490967
 30
0.0
  3
FLÜGEL______________00045
  0
INSERT
  5
748
100
AcDbEntity
  8
HATCH
100
AcDbBlockReference
  2
*X3
 10
656.14062500
 20
377.84490967
 30
0.0
 41
1.00000000
 42
1.00000000
 50
0.0
  0
POLYLINE
  5
749
100
AcDbEntity
  8
LE_NORM
100
AcDb2dPolyline
 62
     8
 66
     1
  0
VERTEX
  5
74A
100
AcDbEntity
  8
LE_NORM
100
AcDbVertex
100
AcDb2dVertex
 10
656.14062500
 20
377.84490967
 30
0.0
  0
VERTEX
  5
74B
100
AcDbEntity
  8
LE_NORM
100
AcDbVertex
100
AcDb2dVertex
 10
656.14062500
 20
220.63738198
 30
0.0
  0
VERTEX
  5
74C
100
AcDbEntity
  8
LE_NORM
100
AcDbVertex
100
AcDb2dVertex
 10
662.39327004
 20
216.06420369
 30
0.0
  0
VERTEX
  5
74D
100
AcDbEntity
  8
LE_NORM
100
AcDbVertex
100
AcDb2dVertex
 10
670.78819675
 20
218.74770139
 30
0.0
  0
VERTEX
  5
74E
100
AcDbEntity
  8
LE_NORM
100
AcDbVertex
100
AcDb2dVertex
 10
680.52487230
 20
220.08945024
 30
0.0
  0
VERTEX
  5
74F
100
AcDbEntity
  8
LE_NORM
100
AcDbVertex
100
AcDb2dVertex
 10
689.57610783
 20
215.40618127
 30
0.0
  0
VERTEX
  5
750
100
AcDbEntity
  8
LE_NORM
100
AcDbVertex
100
AcDb2dVertex
 10
696.14062500
 20
220.63733373
 30
0.0
  0
VERTEX
  5
751
100
AcDbEntity
  8
LE_NORM
100
AcDbVertex
100
AcDb2dVertex
 10
696.14062500
 20
377.84490967
 30
0.0
  0
VERTEX
  5
752
100
AcDbEntity
  8
LE_NORM
100
AcDbVertex
100
AcDb2dVertex
 10
656.14062500
 20
377.84490967
 30
0.0
  0
SEQEND
  5
753
100
AcDbEntity
  8
LE_NORM
  0
INSERT
  5
754
100
AcDbEntity
  8
0
100
AcDbBlockReference
  2
FIG_________________00046
 10
698.64062500
 20
322.34490967
 30
0.0
  0
INSERT
  5
755
100
AcDbEntity
  8
0
100
AcDbBlockReference
  2
FIG_________________00047
 10
698.64062500
 20
338.34490967
 30
0.0
  0
ENDBLK
  5
756
100
AcDbEntity
  8
0
100
AcDbBlockEnd
  0
BLOCK
  5
757
100
AcDbEntity
  8
0
100
AcDbBlockBegin
  2
FIG_________________00046
 70
    64
 10
698.64062500
 20
322.34490967
 30
0.0
  3
FIG_________________00046
  0
POLYLINE
  5
758
100
AcDbEntity
  8
HATCH
100
AcDb2dPolyline
 66
     1
  0
VERTEX
  5
759
100
AcDbEntity
  8
HATCH
100
AcDbVertex
100
AcDb2dVertex
 10
698.64062500
 20
322.34490967
 30
0.0
  0
VERTEX
  5
75A
100
AcDbEntity
  8
HATCH
100
AcDbVertex
100
AcDb2dVertex
 10
700.74066162
 20
324.44491577
 30
0.0
  0
VERTEX
  5
75B
100
AcDbEntity
  8
HATCH
100
AcDbVertex
100
AcDb2dVertex
 10
701.14062500
 20
324.44491577
 30
0.0
  0
VERTEX
  5
75C
100
AcDbEntity
  8
HATCH
100
AcDbVertex
100
AcDb2dVertex
 10
701.14062500
 20
315.24490356
 30
0.0
  0
VERTEX
  5
75D
100
AcDbEntity
  8
HATCH
100
AcDbVertex
100
AcDb2dVertex
 10
700.74066162
 20
315.24490356
 30
0.0
  0
VERTEX
  5
75E
100
AcDbEntity
  8
HATCH
100
AcDbVertex
100
AcDb2dVertex
 10
698.64062500
 20
317.34490967
 30
0.0
  0
SEQEND
  5
75F
100
AcDbEntity
  8
HATCH
  0
POLYLINE
  5
760
100
AcDbEntity
  8
HATCH
100
AcDb2dPolyline
 66
     1
  0
VERTEX
  5
761
100
AcDbEntity
  8
HATCH
100
AcDbVertex
100
AcDb2dVertex
 10
681.14062500
 20
317.34490967
 30
0.0
  0
VERTEX
  5
762
100
AcDbEntity
  8
HATCH
100
AcDbVertex
100
AcDb2dVertex
 10
681.14062500
 20
322.34490967
 30
0.0
  0
VERTEX
  5
763
100
AcDbEntity
  8
HATCH
100
AcDbVertex
100
AcDb2dVertex
 10
698.64062500
 20
322.34490967
 30
0.0
  0
VERTEX
  5
764
100
AcDbEntity
  8
HATCH
100
AcDbVertex
100
AcDb2dVertex
 10
698.64062500
 20
317.34490967
 30
0.0
  0
VERTEX
  5
765
100
AcDbEntity
  8
HATCH
100
AcDbVertex
100
AcDb2dVertex
 10
681.14062500
 20
317.34490967
 30
0.0
  0
SEQEND
  5
766
100
AcDbEntity
  8
HATCH
  0
LINE
  5
767
100
AcDbEntity
  8
LE_RED
100
AcDbLine
 10
697.04064941
 20
321.84490967
 30
0.0
 11
681.14062500
 21
321.84490967
 31
0.0
  0
LINE
  5
768
100
AcDbEntity
  8
LE_RED
100
AcDbLine
 10
697.04064941
 20
317.84490967
 30
0.0
 11
681.14062500
 21
317.84490967
 31
0.0
  0
LINE
  5
769
100
AcDbEntity
  8
HATCH
100
AcDbLine
 10
697.04064941
 20
322.34490967
 30
0.0
 11
697.04064941
 21
317.34490967
 31
0.0
  0
LINE
  5
76A
100
AcDbEntity
  8
HATCH
100
AcDbLine
 10
700.74066162
 20
315.24490356
 30
0.0
 11
700.74066162
 21
324.44491577
 31
0.0
  0
LINE
  5
76B
100
AcDbEntity
  8
LE_MIDDLE
100
AcDbLine
  6
DASHDOT
 62
     1
 10
702.40594482
 20
319.84490967
 30
0.0
 11
678.89324951
 21
319.84490967
 31
0.0
  0
ENDBLK
  5
76C
100
AcDbEntity
  8
0
100
AcDbBlockEnd
  0
BLOCK
  5
76D
100
AcDbEntity
  8
0
100
AcDbBlockBegin
  2
FIG_________________00047
 70
    64
 10
698.64062500
 20
338.34490967
 30
0.0
  3
FIG_________________00047
  0
POLYLINE
  5
76E
100
AcDbEntity
  8
HATCH
100
AcDb2dPolyline
 66
     1
  0
VERTEX
  5
76F
100
AcDbEntity
  8
HATCH
100
AcDbVertex
100
AcDb2dVertex
 10
698.64062500
 20
338.34490967
 30
0.0
  0
VERTEX
  5
770
100
AcDbEntity
  8
HATCH
100
AcDbVertex
100
AcDb2dVertex
 10
700.74066162
 20
340.44491577
 30
0.0
  0
VERTEX
  5
771
100
AcDbEntity
  8
HATCH
100
AcDbVertex
100
AcDb2dVertex
 10
701.14062500
 20
340.44491577
 30
0.0
  0
VERTEX
  5
772
100
AcDbEntity
  8
HATCH
100
AcDbVertex
100
AcDb2dVertex
 10
701.14062500
 20
331.24490356
 30
0.0
  0
VERTEX
  5
773
100
AcDbEntity
  8
HATCH
100
AcDbVertex
100
AcDb2dVertex
 10
700.74066162
 20
331.24490356
 30
0.0
  0
VERTEX
  5
774
100
AcDbEntity
  8
HATCH
100
AcDbVertex
100
AcDb2dVertex
 10
698.64062500
 20
333.34490967
 30
0.0
  0
SEQEND
  5
775
100
AcDbEntity
  8
HATCH
  0
POLYLINE
  5
776
100
AcDbEntity
  8
HATCH
100
AcDb2dPolyline
 66
     1
  0
VERTEX
  5
777
100
AcDbEntity
  8
HATCH
100
AcDbVertex
100
AcDb2dVertex
 10
681.14062500
 20
333.34490967
 30
0.0
  0
VERTEX
  5
778
100
AcDbEntity
  8
HATCH
100
AcDbVertex
100
AcDb2dVertex
 10
681.14062500
 20
338.34490967
 30
0.0
  0
VERTEX
  5
779
100
AcDbEntity
  8
HATCH
100
AcDbVertex
100
AcDb2dVertex
 10
698.64062500
 20
338.34490967
 30
0.0
  0
VERTEX
  5
77A
100
AcDbEntity
  8
HATCH
100
AcDbVertex
100
AcDb2dVertex
 10
698.64062500
 20
333.34490967
 30
0.0
  0
VERTEX
  5
77B
100
AcDbEntity
  8
HATCH
100
AcDbVertex
100
AcDb2dVertex
 10
681.14062500
 20
333.34490967
 30
0.0
  0
SEQEND
  5
77C
100
AcDbEntity
  8
HATCH
  0
LINE
  5
77D
100
AcDbEntity
  8
LE_RED
100
AcDbLine
 10
697.04064941
 20
337.84490967
 30
0.0
 11
681.14062500
 21
337.84490967
 31
0.0
  0
LINE
  5
77E
100
AcDbEntity
  8
LE_RED
100
AcDbLine
 10
697.04064941
 20
333.84490967
 30
0.0
 11
681.14062500
 21
333.84490967
 31
0.0
  0
LINE
  5
77F
100
AcDbEntity
  8
HATCH
100
AcDbLine
 10
697.04064941
 20
338.34490967
 30
0.0
 11
697.04064941
 21
333.34490967
 31
0.0
  0
LINE
  5
780
100
AcDbEntity
  8
HATCH
100
AcDbLine
 10
700.74066162
 20
331.24490356
 30
0.0
 11
700.74066162
 21
340.44491577
 31
0.0
  0
LINE
  5
781
100
AcDbEntity
  8
LE_MIDDLE
100
AcDbLine
  6
DASHDOT
 62
     1
 10
702.40594482
 20
335.84490967
 30
0.0
 11
678.06329346
 21
335.84490967
 31
0.0
  0
ENDBLK
  5
782
100
AcDbEntity
  8
0
100
AcDbBlockEnd
  0
ENDSEC
  0
SECTION
  2
ENTITIES
  0
INSERT
  5
783
100
AcDbEntity
  8
0
100
AcDbBlockReference
  2
DECKEL______________00001
 10
731.59062500
 20
341.34490967
 30
0.0
  0
INSERT
  5
784
100
AcDbEntity
  8
0
100
AcDbBlockReference
  2
KONT________________00003
 10
701.14062500
 20
316.34490967
 30
0.0
  0
INSERT
  5
785
100
AcDbEntity
  8
0
100
AcDbBlockReference
  2
A-A_________________00006
 10
698.64062500
 20
390.09490967
 30
0.0
  0
INSERT
  5
786
100
AcDbEntity
  8
0
100
AcDbBlockReference
  2
SCHNITT_____________00010
 10
698.69062500
 20
307.84490967
 30
0.0
  0
INSERT
  5
787
100
AcDbEntity
  8
0
100
AcDbBlockReference
  2
HAUBE EDELST._______00015
 10
744.14062500
 20
307.84490967
 30
0.0
  0
INSERT
  5
788
100
AcDbEntity
  8
0
100
AcDbBlockReference
  2
DS__________________00016
 10
119.93247023
 20
389.62382048
 30
0.0
  0
INSERT
  5
789
100
AcDbEntity
  8
0
100
AcDbBlockReference
  2
DRAUFSICHT HAUBE____00019
 10
204.08718872
 20
309.34391726
 30
0.0
  0
INSERT
  5
78A
100
AcDbEntity
  8
0
100
AcDbBlockReference
  2
_KF_XXXX____________00021
 10
606.42065430
 20
291.17822266
 30
0.0
  0
INSERT
  5
78B
100
AcDbEntity
  8
0
100
AcDbBlockReference
  2
DINA3_______________00022
 10
0.0
 20
0.0
 30
0.0
  0
INSERT
  5
78C
100
AcDbEntity
  8
0
100
AcDbBlockReference
  2
0___________________00028
 10
696.14062500
 20
398.34490967
 30
0.0
  0
INSERT
  5
78D
100
AcDbEntity
  8
0
100
AcDbBlockReference
  2
_KF_XXXX____________00031
 10
137.84411621
 20
381.34481812
 30
0.0
  0
INSERT
  5
78E
100
AcDbEntity
  8
0
100
AcDbBlockReference
  2
_Z1_XXXX____________00032
 10
16.88306964
 20
406.01962256
 30
0.0
  0
INSERT
  5
78F
100
AcDbEntity
  8
0
100
AcDbBlockReference
  2
_MG_________________00033
 10
455.08718872
 20
277.44299316
 30
0.0
  0
INSERT
  5
790
100
AcDbEntity
  8
0
100
AcDbBlockReference
  2
FIG_________________00034
 10
0.0
 20
0.0
 30
0.0
  0
INSERT
  5
791
100
AcDbEntity
  8
0
100
AcDbBlockReference
  2
FIG_________________00040
 10
0.0
 20
0.0
 30
0.0
  0
INSERT
  5
792
100
AcDbEntity
  8
0
100
AcDbBlockReference
  2
_MG_________________00042
 10
0.0
 20
0.0
 30
0.0
  0
INSERT
  5
793
100
AcDbEntity
  8
0
100
AcDbBlockReference
  2
_FOLIEN_____________00044
 10
0.0
 20
-30.00000000
 30
0.0
  0
INSERT
  5
794
100
AcDbEntity
  8
0
100
AcDbBlockReference
  2
FLÜGEL______________00045
 10
656.14062500
 20
377.84490967
 30
0.0
  0
ENDSEC
  0
SECTION
  2
OBJECTS
  0
DICTIONARY
  5
C
330
0
100
AcDbDictionary
281
     1
  3
ACAD_GROUP
350
D
  3
ACAD_LAYOUT
350
19
  3
ACAD_MLINESTYLE
350
16
  0
DICTIONARY
  5
115
330
1E
100
AcDbDictionary
280
     1
281
     1
  3
ACAD_INDEX
360
116
  0
DICTIONARY
  5
D
100
AcDbDictionary
281
     1
  0
DICTIONARY
  5
19
100
AcDbDictionary
281
     1
  3
Layout1
350
1D
  3
Model
350
21
  0
DICTIONARY
  5
16
100
AcDbDictionary
281
     1
  3
Standard
350
17
  0
DICTIONARY
  5
116
100
AcDbDictionary
281
     1
  3
*A1
350
117
  0
LAYOUT
  5
1D
100
AcDbPlotSettings
  1

  2
C:\Programme\MDT\plotters\DWF Classic.pc3
  4

  6

 40
0.0
 41
0.0
 42
0.0
 43
0.0
 44
0.0
 45
0.0
 46
0.0
 47
0.0
 48
0.0
 49
0.0
140
0.0
141
0.0
142
1.0
143
1.0
 70
   688
 72
     0
 73
     0
 74
     5
  7

 75
    16
147
1.0
148
0.0
149
0.0
100
AcDbLayout
  1
Layout1
 70
     1
 71
     1
 10
0.0
 20
0.0
 11
12.0
 21
9.0
 12
0.0
 22
0.0
 32
0.0
 14
1.000000000000000E+20
 24
1.000000000000000E+20
 34
1.000000000000000E+20
 15
-1.000000000000000E+20
 25
-1.000000000000000E+20
 35
-1.000000000000000E+20
146
0.0
 13
0.0
 23
0.0
 33
0.0
 16
1.0
 26
0.0
 36
0.0
 17
0.0
 27
1.0
 37
0.0
 76
     0
330
1A
  0
LAYOUT
  5
21
100
AcDbPlotSettings
  1

  2
C:\Programme\MDT\plotters\DWF Classic.pc3
  4

  6

 40
0.0
 41
0.0
 42
0.0
 43
0.0
 44
0.0
 45
0.0
 46
0.0
 47
0.0
 48
0.0
 49
0.0
140
0.0
141
0.0
142
1.0
143
1.0
 70
  1712
 72
     0
 73
     0
 74
     0
  7

 75
     0
147
1.0
148
0.0
149
0.0
100
AcDbLayout
  1
Model
 70
     1
 71
     0
 10
0.0
 20
0.0
 11
12.0
 21
9.0
 12
0.0
 22
0.0
 32
0.0
 14
0.0
 24
0.0
 34
0.0
 15
0.0
 25
0.0
 35
0.0
146
0.0
 13
0.0
 23
0.0
 33
0.0
 16
1.0
 26
0.0
 36
0.0
 17
0.0
 27
1.0
 37
0.0
 76
     0
330
1E
  0
MLINESTYLE
  5
17
100
AcDbMlineStyle
  2
STANDARD
 70
     0
  3

 62
   256
 51
90.0
 52
90.0
 71
     2
 49
0.5
 62
   256
  6
BYLAYER
 49
-0.5
 62
   256
  6
BYLAYER
  0
ACDBPLACEHOLDER
  5
F
  0
XRECORD
  5
129
100
AcDbXrecord
280
     1
 90
        0
  0
XRECORD
  5
12A
100
AcDbXrecord
280
     1
  1
{46C4153B-0B27-49FA-99B6-AF3E057D65BC}
  0
XRECORD
  5
122
100
AcDbXrecord
280
     1
  1

  0
XRECORD
  5
128
100
AcDbXrecord
280
     1
 90
        0
  0
XRECORD
  5
124
100
AcDbXrecord
280
     1
340
19
  0
XRECORD
  5
127
100
AcDbXrecord
280
     1
 90
    10781
  0
XRECORD
  5
125
100
AcDbXrecord
280
     1
340
18
  0
XRECORD
  5
126
100
AcDbXrecord
280
     1
340
E
  0
XRECORD
  5
12C
100
AcDbXrecord
280
     1
 40
0.0
  0
XRECORD
  5
12F
100
AcDbXrecord
280
     1
340
0
  0
XRECORD
  5
135
100
AcDbXrecord
280
     1
 10
0.0
 20
0.0
 30
0.0
  0
XRECORD
  5
131
100
AcDbXrecord
280
     1
 10
0.0
 20
0.0
 30
0.0
  0
XRECORD
  5
134
100
AcDbXrecord
280
     1
 10
0.0
 20
0.0
 30
0.0
  0
XRECORD
  5
132
100
AcDbXrecord
280
     1
 10
0.0
 20
0.0
 30
0.0
  0
XRECORD
  5
133
100
AcDbXrecord
280
     1
 10
0.0
 20
0.0
 30
0.0
  0
XRECORD
  5
130
100
AcDbXrecord
280
     1
 10
0.0
 20
0.0
 30
0.0
  0
XRECORD
  5
12D
100
AcDbXrecord
280
     1
340
0
  0
XRECORD
  5
12E
100
AcDbXrecord
280
     1
 70
     0
  0
XRECORD
  5
123
100
AcDbXrecord
280
     1
  1

  0
XRECORD
  5
120
100
AcDbXrecord
280
     1
 90
        1
  0
XRECORD
  5
121
100
AcDbXrecord
280
     1
 90
       70
  0
XRECORD
  5
138
100
AcDbXrecord
280
     1
340
0
  0
XRECORD
  5
13E
100
AcDbXrecord
280
     1
 10
0.0
 20
0.0
 30
0.0
  0
XRECORD
  5
13A
100
AcDbXrecord
280
     1
 10
0.0
 20
0.0
 30
0.0
  0
XRECORD
  5
13D
100
AcDbXrecord
280
     1
 10
0.0
 20
0.0
 30
0.0
  0
XRECORD
  5
13B
100
AcDbXrecord
280
     1
 10
0.0
 20
0.0
 30
0.0
  0
XRECORD
  5
13C
100
AcDbXrecord
280
     1
 10
0.0
 20
0.0
 30
0.0
  0
XRECORD
  5
139
100
AcDbXrecord
280
     1
 10
0.0
 20
0.0
 30
0.0
  0
XRECORD
  5
136
100
AcDbXrecord
280
     1
340
0
  0
XRECORD
  5
137
100
AcDbXrecord
280
     1
 70
     0
  0
XRECORD
  5
12B
100
AcDbXrecord
280
     1
  1
{09700D79-BD6A-4B2C-8A65-8ED4ED61BA28}
  0
DICTIONARYVAR
  5
11D
100
DictionaryVariables
280
     0
  1
1
  0
ENDSEC
  0
EOF
