  0
SECTION
  2
HEADER
  9
$ACADVER
  1
AC1032
  9
$ACADMAINTVER
 90
       55
  9
$DWGCODEPAGE
  3
ANSI_1252
  9
$LASTSAVEDBY
  1
chrwyd
  9
$REQUIREDVERSIONS
160
                 0
  9
$INSBASE
 10
0.0
 20
0.0
 30
0.0
  9
$EXTMIN
 10
53.11258930229999
 20
42.31104207280001
 30
0.0
  9
$EXTMAX
 10
261.098908591
 20
373.9453748208999
 30
0.0
  9
$LIMMIN
 10
0.0
 20
0.0
  9
$LIMMAX
 10
297.0
 20
420.0
  9
$ORTHOMODE
 70
     0
  9
$REGENMODE
 70
     1
  9
$FILLMODE
 70
     1
  9
$QTEXTMODE
 70
     0
  9
$MIRRTEXT
 70
     1
  9
$LTSCALE
 40
1.0
  9
$ATTMODE
 70
     1
  9
$TEXTSIZE
 40
2.5
  9
$TRACEWID
 40
1.0
  9
$TEXTSTYLE
  7
STANDARD
  9
$CLAYER
  8
0
  9
$CELTYPE
  6
ByLayer
  9
$CECOLOR
 62
   256
  9
$CELTSCALE
 40
1.0
  9
$DISPSILH
 70
     0
  9
$DIMSCALE
 40
1.0
  9
$DIMASZ
 40
2.5
  9
$DIMEXO
 40
0.0
  9
$DIMDLI
 40
3.75
  9
$DIMRND
 40
0.0
  9
$DIMDLE
 40
0.0
  9
$DIMEXE
 40
1.0
  9
$DIMTP
 40
0.0
  9
$DIMTM
 40
0.0
  9
$DIMTXT
 40
2.5
  9
$DIMCEN
 40
2.5
  9
$DIMTSZ
 40
0.0
  9
$DIMTOL
 70
     0
  9
$DIMLIM
 70
     0
  9
$DIMTIH
 70
     1
  9
$DIMTOH
 70
     1
  9
$DIMSE1
 70
     0
  9
$DIMSE2
 70
     0
  9
$DIMTAD
 70
     1
  9
$DIMZIN
 70
     0
  9
$DIMBLK
  1

  9
$DIMASO
 70
     1
  9
$DIMSHO
 70
     1
  9
$DIMPOST
  1

  9
$DIMAPOST
  1

  9
$DIMALT
 70
     0
  9
$DIMALTD
 70
     3
  9
$DIMALTF
 40
0.0393700787
  9
$DIMLFAC
 40
1.0
  9
$DIMTOFL
 70
     1
  9
$DIMTVP
 40
0.0
  9
$DIMTIX
 70
     0
  9
$DIMSOXD
 70
     0
  9
$DIMSAH
 70
     0
  9
$DIMBLK1
  1

  9
$DIMBLK2
  1

  9
$DIMSTYLE
  2
ISO-25
  9
$DIMCLRD
 70
     0
  9
$DIMCLRE
 70
     0
  9
$DIMCLRT
 70
     0
  9
$DIMTFAC
 40
1.0
  9
$DIMGAP
 40
2.0
  9
$DIMJUST
 70
     0
  9
$DIMSD1
 70
     0
  9
$DIMSD2
 70
     0
  9
$DIMTOLJ
 70
     1
  9
$DIMTZIN
 70
     0
  9
$DIMALTZ
 70
     0
  9
$DIMALTTZ
 70
     0
  9
$DIMUPT
 70
     0
  9
$DIMDEC
 70
     2
  9
$DIMTDEC
 70
     2
  9
$DIMALTU
 70
     2
  9
$DIMALTTD
 70
     2
  9
$DIMTXSTY
  7
STANDARD
  9
$DIMAUNIT
 70
     0
  9
$DIMADEC
 70
     0
  9
$DIMALTRND
 40
0.0
  9
$DIMAZIN
 70
     0
  9
$DIMDSEP
 70
    46
  9
$DIMATFIT
 70
     3
  9
$DIMFRAC
 70
     0
  9
$DIMLDRBLK
  1

  9
$DIMLUNIT
 70
     2
  9
$DIMLWD
 70
    -2
  9
$DIMLWE
 70
    -2
  9
$DIMTMOVE
 70
     2
  9
$DIMFXL
 40
1.0
  9
$DIMFXLON
 70
     0
  9
$DIMJOGANG
 40
0.7853981633974483
  9
$DIMTFILL
 70
     0
  9
$DIMTFILLCLR
 70
     0
  9
$DIMARCSYM
 70
     0
  9
$DIMLTYPE
  6

  9
$DIMLTEX1
  6

  9
$DIMLTEX2
  6

  9
$DIMTXTDIRECTION
 70
     0
  9
$LUNITS
 70
     2
  9
$LUPREC
 70
     2
  9
$SKETCHINC
 40
1.0
  9
$FILLETRAD
 40
0.0
  9
$AUNITS
 70
     0
  9
$AUPREC
 70
     1
  9
$MENU
  1
.
  9
$ELEVATION
 40
0.0
  9
$PELEVATION
 40
0.0
  9
$THICKNESS
 40
0.0
  9
$LIMCHECK
 70
     0
  9
$CHAMFERA
 40
0.0
  9
$CHAMFERB
 40
0.0
  9
$CHAMFERC
 40
0.0
  9
$CHAMFERD
 40
0.0
  9
$SKPOLY
 70
     0
  9
$TDCREATE
 40
2460255.709686586
  9
$TDUCREATE
 40
2460255.668019919
  9
$TDUPDATE
 40
2460255.714934132
  9
$TDUUPDATE
 40
2460255.673267465
  9
$TDINDWG
 40
0.0006097106
  9
$TDUSRTIMER
 40
0.0006096991
  9
$USRTIMER
 70
     1
  9
$ANGBASE
 50
0.0
  9
$ANGDIR
 70
     0
  9
$PDMODE
 70
     0
  9
$PDSIZE
 40
-1.0
  9
$PLINEWID
 40
0.0
  9
$SPLFRAME
 70
     0
  9
$SPLINETYPE
 70
     6
  9
$SPLINESEGS
 70
     8
  9
$HANDSEED
  5
507
  9
$SURFTAB1
 70
     6
  9
$SURFTAB2
 70
     6
  9
$SURFTYPE
 70
     6
  9
$SURFU
 70
     6
  9
$SURFV
 70
     6
  9
$UCSBASE
  2

  9
$UCSNAME
  2

  9
$UCSORG
 10
0.0
 20
0.0
 30
0.0
  9
$UCSXDIR
 10
1.0
 20
0.0
 30
0.0
  9
$UCSYDIR
 10
0.0
 20
1.0
 30
0.0
  9
$UCSORTHOREF
  2

  9
$UCSORTHOVIEW
 70
     0
  9
$UCSORGTOP
 10
0.0
 20
0.0
 30
0.0
  9
$UCSORGBOTTOM
 10
0.0
 20
0.0
 30
0.0
  9
$UCSORGLEFT
 10
0.0
 20
0.0
 30
0.0
  9
$UCSORGRIGHT
 10
0.0
 20
0.0
 30
0.0
  9
$UCSORGFRONT
 10
0.0
 20
0.0
 30
0.0
  9
$UCSORGBACK
 10
0.0
 20
0.0
 30
0.0
  9
$PUCSBASE
  2

  9
$PUCSNAME
  2

  9
$PUCSORG
 10
0.0
 20
0.0
 30
0.0
  9
$PUCSXDIR
 10
1.0
 20
0.0
 30
0.0
  9
$PUCSYDIR
 10
0.0
 20
1.0
 30
0.0
  9
$PUCSORTHOREF
  2

  9
$PUCSORTHOVIEW
 70
     0
  9
$PUCSORGTOP
 10
0.0
 20
0.0
 30
0.0
  9
$PUCSORGBOTTOM
 10
0.0
 20
0.0
 30
0.0
  9
$PUCSORGLEFT
 10
0.0
 20
0.0
 30
0.0
  9
$PUCSORGRIGHT
 10
0.0
 20
0.0
 30
0.0
  9
$PUCSORGFRONT
 10
0.0
 20
0.0
 30
0.0
  9
$PUCSORGBACK
 10
0.0
 20
0.0
 30
0.0
  9
$USERI1
 70
     0
  9
$USERI2
 70
     0
  9
$USERI3
 70
     0
  9
$USERI4
 70
     0
  9
$USERI5
 70
     0
  9
$USERR1
 40
0.0
  9
$USERR2
 40
0.0
  9
$USERR3
 40
0.0
  9
$USERR4
 40
0.0
  9
$USERR5
 40
0.0
  9
$WORLDVIEW
 70
     1
  9
$SHADEDGE
 70
     3
  9
$SHADEDIF
 70
    70
  9
$TILEMODE
 70
     1
  9
$MAXACTVP
 70
    64
  9
$PINSBASE
 10
0.0
 20
0.0
 30
0.0
  9
$PLIMCHECK
 70
     0
  9
$PEXTMIN
 10
1.000000000000000E+20
 20
1.000000000000000E+20
 30
1.000000000000000E+20
  9
$PEXTMAX
 10
-1.000000000000000E+20
 20
-1.000000000000000E+20
 30
-1.000000000000000E+20
  9
$PLIMMIN
 10
0.0
 20
0.0
  9
$PLIMMAX
 10
0.0
 20
0.0
  9
$UNITMODE
 70
     0
  9
$VISRETAIN
 70
     1
  9
$PLINEGEN
 70
     0
  9
$PSLTSCALE
 70
     1
  9
$TREEDEPTH
 70
  3020
  9
$CMLSTYLE
  2
Standard
  9
$CMLJUST
 70
     0
  9
$CMLSCALE
 40
1.0
  9
$PROXYGRAPHICS
 70
     1
  9
$MEASUREMENT
 70
     0
  9
$CELWEIGHT
370
    -1
  9
$ENDCAPS
280
     0
  9
$JOINSTYLE
280
     0
  9
$LWDISPLAY
290
     0
  9
$INSUNITS
 70
     0
  9
$HYPERLINKBASE
  1

  9
$STYLESHEET
  1

  9
$XEDIT
290
     1
  9
$CEPSNTYPE
380
     0
  9
$PSTYLEMODE
290
     0
  9
$FINGERPRINTGUID
  2
{2960ad1f-7a7a-4e5b-ab94-d381a39bfc6f}
  9
$VERSIONGUID
  2
{FAEB1C32-E019-11D5-929B-00C0DF256EC4}
  9
$EXTNAMES
290
     1
  9
$PSVPSCALE
 40
0.0
  9
$OLESTARTUP
290
     0
  9
$SORTENTS
280
   127
  9
$INDEXCTL
280
     0
  9
$HIDETEXT
280
     1
  9
$XCLIPFRAME
280
     2
  9
$HALOGAP
280
     0
  9
$OBSCOLOR
 70
   257
  9
$OBSLTYPE
280
     0
  9
$INTERSECTIONDISPLAY
280
     0
  9
$INTERSECTIONCOLOR
 70
   257
  9
$DIMASSOC
280
     2
  9
$PROJECTNAME
  1

  9
$CAMERADISPLAY
290
     0
  9
$LENSLENGTH
 40
50.0
  9
$CAMERAHEIGHT
 40
0.0
  9
$STEPSPERSEC
 40
2.0
  9
$STEPSIZE
 40
6.0
  9
$3DDWFPREC
 40
2.0
  9
$PSOLWIDTH
 40
0.25
  9
$PSOLHEIGHT
 40
4.0
  9
$LOFTANG1
 40
1.570796326794897
  9
$LOFTANG2
 40
1.570796326794897
  9
$LOFTMAG1
 40
0.0
  9
$LOFTMAG2
 40
0.0
  9
$LOFTPARAM
 70
     7
  9
$LOFTNORMALS
280
     1
  9
$LATITUDE
 40
37.795
  9
$LONGITUDE
 40
-122.394
  9
$NORTHDIRECTION
 40
0.0
  9
$TIMEZONE
 70
 -8000
  9
$LIGHTGLYPHDISPLAY
280
     1
  9
$TILEMODELIGHTSYNCH
280
     1
  9
$SOLIDHIST
280
     0
  9
$SHOWHIST
280
     1
  9
$DWFFRAME
280
     2
  9
$DGNFRAME
280
     2
  9
$REALWORLDSCALE
290
     1
  9
$INTERFERECOLOR
 62
   256
  9
$CSHADOW
280
     0
  9
$SHADOWPLANELOCATION
 40
0.0
  0
ENDSEC
  0
SECTION
  2
CLASSES
  0
CLASS
  1
ACDBDICTIONARYWDFLT
  2
AcDbDictionaryWithDefault
  3
ObjectDBX Classes
 90
        0
 91
        3
280
     0
281
     0
  0
CLASS
  1
MATERIAL
  2
AcDbMaterial
  3
ObjectDBX Classes
 90
     1153
 91
        3
280
     0
281
     0
  0
CLASS
  1
SCALE
  2
AcDbScale
  3
ObjectDBX Classes
 90
     1153
 91
        3
280
     0
281
     0
  0
CLASS
  1
VISUALSTYLE
  2
AcDbVisualStyle
  3
ObjectDBX Classes
 90
     4095
 91
        3
280
     0
281
     0
  0
CLASS
  1
TABLESTYLE
  2
AcDbTableStyle
  3
ObjectDBX Classes
 90
     4095
 91
        3
280
     0
281
     0
  0
CLASS
  1
MLEADERSTYLE
  2
AcDbMLeaderStyle
  3
ACDB_MLEADERSTYLE_CLASS
 90
     4095
 91
        3
280
     0
281
     0
  0
CLASS
  1
DICTIONARYVAR
  2
AcDbDictionaryVar
  3
ObjectDBX Classes
 90
        0
 91
        3
280
     0
281
     0
  0
CLASS
  1
CELLSTYLEMAP
  2
AcDbCellStyleMap
  3
ObjectDBX Classes
 90
     1152
 91
        3
280
     0
281
     0
  0
ENDSEC
  0
SECTION
  2
TABLES
  0
TABLE
  2
VPORT
  5
42E
330
0
100
AcDbSymbolTable
 70
     1
  0
VPORT
  5
445
330
42E
100
AcDbSymbolTableRecord
100
AcDbViewportTableRecord
  2
*ACTIVE
 70
     0
 10
0.0
 20
0.0
 11
1.0
 21
1.0
 12
157.10574894665
 22
208.12820844685
 13
0.0
 23
0.0
 14
10.0
 24
10.0
 15
10.0
 25
10.0
 16
0.0
 26
0.0
 36
1.0
 17
0.0
 27
0.0
 37
0.0
 40
338.267019403062
 41
1.718213058419244
 42
50.0
 43
0.0
 44
0.0
 50
0.0
 51
0.0
 71
    16
 72
  2000
 73
     1
 74
     3
 75
     0
 76
     0
 77
     0
 78
     0
281
     0
 65
     0
110
0.0
120
0.0
130
0.0
111
1.0
121
0.0
131
0.0
112
0.0
122
1.0
132
0.0
 79
     0
146
0.0
348
4E1
 60
     3
 61
     5
292
     1
282
     1
141
0.0
142
0.0
 63
   256
  0
ENDTAB
  0
TABLE
  2
LTYPE
  5
42B
330
0
100
AcDbSymbolTable
 70
     6
  0
LTYPE
  5
439
330
42B
100
AcDbSymbolTableRecord
100
AcDbLinetypeTableRecord
  2
ByBlock
 70
     0
  3

 72
    65
 73
     0
 40
0.0
  0
LTYPE
  5
43A
330
42B
100
AcDbSymbolTableRecord
100
AcDbLinetypeTableRecord
  2
ByLayer
 70
     0
  3

 72
    65
 73
     0
 40
0.0
  0
LTYPE
  5
43B
330
42B
100
AcDbSymbolTableRecord
100
AcDbLinetypeTableRecord
  2
CONTINUOUS
 70
     0
  3
Solid line
 72
    65
 73
     0
 40
0.0
  0
LTYPE
  5
447
330
42B
100
AcDbSymbolTableRecord
100
AcDbLinetypeTableRecord
  2
HIDDEN
 70
     0
  3
Hidden __ __ __ __ __ __ __ __ __ __ __ __ __ __
 72
    65
 73
     2
 40
1.905
 49
1.27
 74
     0
 49
-0.635
 74
     0
  0
LTYPE
  5
448
330
42B
100
AcDbSymbolTableRecord
100
AcDbLinetypeTableRecord
  2
PHANTOM
 70
     0
  3
Phantom ______  __  __  ______  __  __  ______
 72
    65
 73
     6
 40
12.7
 49
6.35
 74
     0
 49
-1.27
 74
     0
 49
1.27
 74
     0
 49
-1.27
 74
     0
 49
1.27
 74
     0
 49
-1.27
 74
     0
  0
LTYPE
  5
449
330
42B
100
AcDbSymbolTableRecord
100
AcDbLinetypeTableRecord
  2
CENTER
 70
     0
  3
Center ____ _ ____ _ ____ _ ____ _ ____ _ ____
 72
    65
 73
     4
 40
10.16
 49
6.35
 74
     0
 49
-1.27
 74
     0
 49
1.27
 74
     0
 49
-1.27
 74
     0
  0
LTYPE
  5
44A
330
42B
100
AcDbSymbolTableRecord
100
AcDbLinetypeTableRecord
  2
CENTERX2
 70
     0
  3
Center (2x) ________  __  ________  __  _____
 72
    65
 73
     4
 40
20.32
 49
12.7
 74
     0
 49
-2.54
 74
     0
 49
2.54
 74
     0
 49
-2.54
 74
     0
  0
LTYPE
  5
44B
330
42B
100
AcDbSymbolTableRecord
100
AcDbLinetypeTableRecord
  2
DOT2
 70
     0
  3
Dot (.5x) ........................................
 72
    65
 73
     2
 40
0.635
 49
0.0
 74
     0
 49
-0.635
 74
     0
  0
ENDTAB
  0
TABLE
  2
LAYER
  5
429
330
0
100
AcDbSymbolTable
 70
     3
  0
LAYER
  5
436
330
429
100
AcDbSymbolTableRecord
100
AcDbLayerTableRecord
  2
0
 70
     0
 62
     7
  6
CONTINUOUS
370
    -3
390
435
347
450
348
0
  0
LAYER
  5
451
330
429
100
AcDbSymbolTableRecord
100
AcDbLayerTableRecord
  2
REVISIONNOTES
 70
     0
 62
     1
  6
CONTINUOUS
370
    -3
390
435
347
450
348
0
  0
LAYER
  5
4FA
330
429
100
AcDbSymbolTableRecord
100
AcDbLayerTableRecord
  2
Defpoints
 70
     0
 62
     7
  6
CONTINUOUS
290
     0
370
    -3
390
435
347
450
348
0
  0
ENDTAB
  0
TABLE
  2
STYLE
  5
42A
330
0
100
AcDbSymbolTable
 70
     1
  0
STYLE
  5
437
330
42A
100
AcDbSymbolTableRecord
100
AcDbTextStyleTableRecord
  2
STANDARD
 70
     0
 40
0.0
 41
1.0
 50
0.0
 71
     0
 42
2.5
  3
txt
  4

  0
ENDTAB
  0
TABLE
  2
VIEW
  5
42C
330
0
100
AcDbSymbolTable
 70
     0
  0
ENDTAB
  0
TABLE
  2
UCS
  5
42D
330
0
100
AcDbSymbolTable
 70
     0
  0
ENDTAB
  0
TABLE
  2
APPID
  5
42F
330
0
100
AcDbSymbolTable
 70
     1
  0
APPID
  5
438
330
42F
100
AcDbSymbolTableRecord
100
AcDbRegAppTableRecord
  2
ACAD
 70
     0
  0
ENDTAB
  0
TABLE
  2
DIMSTYLE
  5
430
330
0
100
AcDbSymbolTable
 70
     4
100
AcDbDimStyleTable
  0
DIMSTYLE
105
454
330
430
100
AcDbSymbolTableRecord
100
AcDbDimStyleTableRecord
  2
ISO-25
 70
     0
 41
2.5
 42
0.625
 43
3.75
 44
1.25
 73
     0
 74
     0
 77
     1
 78
     8
140
2.5
141
2.5
143
0.0393700787
147
0.625
171
     3
172
     1
178
     0
340
437
  0
DIMSTYLE
105
455
330
430
100
AcDbSymbolTableRecord
100
AcDbDimStyleTableRecord
  2
SLDDIMSTYLE0
 70
     0
 41
2.5
 44
0.0
 45
0.000000001
 73
     0
 74
     0
 77
     1
 78
    12
140
2.5
147
0.625
173
     1
178
     0
340
437
  0
DIMSTYLE
105
456
330
430
100
AcDbSymbolTableRecord
100
AcDbDimStyleTableRecord
  2
SLDDIMSTYLE1
 70
     0
 41
2.5
 44
0.0
 45
0.000000001
 73
     0
 74
     0
 77
     1
 78
    12
140
2.5
141
0.0
147
0.625
172
     1
173
     1
178
     0
340
437
  0
DIMSTYLE
105
457
330
430
100
AcDbSymbolTableRecord
100
AcDbDimStyleTableRecord
  2
SLDDIMSTYLE2
 70
     0
 41
2.5
 44
0.0
 45
0.000000001
 73
     0
 74
     0
 77
     1
 78
    12
140
2.5
147
0.625
172
     1
173
     1
178
     0
340
437
  0
ENDTAB
  0
TABLE
  2
BLOCK_RECORD
  5
428
330
0
100
AcDbSymbolTable
 70
    48
  0
BLOCK_RECORD
  5
442
102
{ACAD_XDICTIONARY
360
4FB
102
}
330
428
100
AcDbSymbolTableRecord
100
AcDbBlockTableRecord
  2
*Model_Space
340
443
 70
     0
280
     1
281
     0
  0
BLOCK_RECORD
  5
440
330
428
100
AcDbSymbolTableRecord
100
AcDbBlockTableRecord
  2
*Paper_Space
340
441
 70
     0
280
     1
281
     0
  0
BLOCK_RECORD
  5
45B
330
428
100
AcDbSymbolTableRecord
100
AcDbBlockTableRecord
  2
_D
340
0
 70
     0
280
     1
281
     0
  0
BLOCK_RECORD
  5
45D
330
428
100
AcDbSymbolTableRecord
100
AcDbBlockTableRecord
  2
_D_1
340
0
 70
     0
280
     1
281
     0
  0
BLOCK_RECORD
  5
45F
330
428
100
AcDbSymbolTableRecord
100
AcDbBlockTableRecord
  2
_D_2
340
0
 70
     0
280
     1
281
     0
  0
BLOCK_RECORD
  5
461
330
428
100
AcDbSymbolTableRecord
100
AcDbBlockTableRecord
  2
_D_3
340
0
 70
     0
280
     1
281
     0
  0
BLOCK_RECORD
  5
463
330
428
100
AcDbSymbolTableRecord
100
AcDbBlockTableRecord
  2
_D_4
340
0
 70
     0
280
     1
281
     0
  0
BLOCK_RECORD
  5
465
330
428
100
AcDbSymbolTableRecord
100
AcDbBlockTableRecord
  2
_D_5
340
0
 70
     0
280
     1
281
     0
  0
BLOCK_RECORD
  5
467
330
428
100
AcDbSymbolTableRecord
100
AcDbBlockTableRecord
  2
_D_6
340
0
 70
     0
280
     1
281
     0
  0
BLOCK_RECORD
  5
469
330
428
100
AcDbSymbolTableRecord
100
AcDbBlockTableRecord
  2
_D_7
340
0
 70
     0
280
     1
281
     0
  0
BLOCK_RECORD
  5
46B
330
428
100
AcDbSymbolTableRecord
100
AcDbBlockTableRecord
  2
_D_8
340
0
 70
     0
280
     1
281
     0
  0
BLOCK_RECORD
  5
46D
330
428
100
AcDbSymbolTableRecord
100
AcDbBlockTableRecord
  2
_D_9
340
0
 70
     0
280
     1
281
     0
  0
BLOCK_RECORD
  5
46F
330
428
100
AcDbSymbolTableRecord
100
AcDbBlockTableRecord
  2
_D_10
340
0
 70
     0
280
     1
281
     0
  0
BLOCK_RECORD
  5
471
330
428
100
AcDbSymbolTableRecord
100
AcDbBlockTableRecord
  2
_D_11
340
0
 70
     0
280
     1
281
     0
  0
BLOCK_RECORD
  5
473
330
428
100
AcDbSymbolTableRecord
100
AcDbBlockTableRecord
  2
_D_12
340
0
 70
     0
280
     1
281
     0
  0
BLOCK_RECORD
  5
475
330
428
100
AcDbSymbolTableRecord
100
AcDbBlockTableRecord
  2
_D_13
340
0
 70
     0
280
     1
281
     0
  0
BLOCK_RECORD
  5
477
330
428
100
AcDbSymbolTableRecord
100
AcDbBlockTableRecord
  2
_D_14
340
0
 70
     0
280
     1
281
     0
  0
BLOCK_RECORD
  5
479
330
428
100
AcDbSymbolTableRecord
100
AcDbBlockTableRecord
  2
_D_15
340
0
 70
     0
280
     1
281
     0
  0
BLOCK_RECORD
  5
47B
330
428
100
AcDbSymbolTableRecord
100
AcDbBlockTableRecord
  2
_D_16
340
0
 70
     0
280
     1
281
     0
  0
BLOCK_RECORD
  5
47D
330
428
100
AcDbSymbolTableRecord
100
AcDbBlockTableRecord
  2
_D_17
340
0
 70
     0
280
     1
281
     0
  0
BLOCK_RECORD
  5
47F
330
428
100
AcDbSymbolTableRecord
100
AcDbBlockTableRecord
  2
_D_18
340
0
 70
     0
280
     1
281
     0
  0
BLOCK_RECORD
  5
481
330
428
100
AcDbSymbolTableRecord
100
AcDbBlockTableRecord
  2
_D_19
340
0
 70
     0
280
     1
281
     0
  0
BLOCK_RECORD
  5
483
330
428
100
AcDbSymbolTableRecord
100
AcDbBlockTableRecord
  2
_D_20
340
0
 70
     0
280
     1
281
     0
  0
BLOCK_RECORD
  5
485
330
428
100
AcDbSymbolTableRecord
100
AcDbBlockTableRecord
  2
_D_21
340
0
 70
     0
280
     1
281
     0
  0
BLOCK_RECORD
  5
487
330
428
100
AcDbSymbolTableRecord
100
AcDbBlockTableRecord
  2
_D_22
340
0
 70
     0
280
     1
281
     0
  0
BLOCK_RECORD
  5
489
330
428
100
AcDbSymbolTableRecord
100
AcDbBlockTableRecord
  2
_D_23
340
0
 70
     0
280
     1
281
     0
  0
BLOCK_RECORD
  5
48B
330
428
100
AcDbSymbolTableRecord
100
AcDbBlockTableRecord
  2
_D_24
340
0
 70
     0
280
     1
281
     0
  0
BLOCK_RECORD
  5
48D
330
428
100
AcDbSymbolTableRecord
100
AcDbBlockTableRecord
  2
_D_25
340
0
 70
     0
280
     1
281
     0
  0
BLOCK_RECORD
  5
48F
330
428
100
AcDbSymbolTableRecord
100
AcDbBlockTableRecord
  2
_D_26
340
0
 70
     0
280
     1
281
     0
  0
BLOCK_RECORD
  5
491
330
428
100
AcDbSymbolTableRecord
100
AcDbBlockTableRecord
  2
SW_SYMBOL_MOD_BOX
340
0
102
{BLKREFS
331
210
102
}
 70
     0
280
     1
281
     0
  0
BLOCK_RECORD
  5
493
330
428
100
AcDbSymbolTableRecord
100
AcDbBlockTableRecord
  2
_D_27
340
0
 70
     0
280
     1
281
     0
  0
BLOCK_RECORD
  5
495
330
428
100
AcDbSymbolTableRecord
100
AcDbBlockTableRecord
  2
SW_NOTE_0
340
0
102
{BLKREFS
331
0
102
}
 70
     0
280
     1
281
     0
  0
BLOCK_RECORD
  5
497
330
428
100
AcDbSymbolTableRecord
100
AcDbBlockTableRecord
  2
SW_CENTERMARKSYMBOL_0
340
0
102
{BLKREFS
331
230
102
}
 70
     0
280
     1
281
     0
  0
BLOCK_RECORD
  5
499
330
428
100
AcDbSymbolTableRecord
100
AcDbBlockTableRecord
  2
SW_CENTERMARKSYMBOL_1
340
0
102
{BLKREFS
331
23C
102
}
 70
     0
280
     1
281
     0
  0
BLOCK_RECORD
  5
49B
330
428
100
AcDbSymbolTableRecord
100
AcDbBlockTableRecord
  2
SW_CENTERMARKSYMBOL_2
340
0
102
{BLKREFS
331
248
102
}
 70
     0
280
     1
281
     0
  0
BLOCK_RECORD
  5
49D
330
428
100
AcDbSymbolTableRecord
100
AcDbBlockTableRecord
  2
SW_CENTERMARKSYMBOL_3
340
0
102
{BLKREFS
331
254
102
}
 70
     0
280
     1
281
     0
  0
BLOCK_RECORD
  5
49F
330
428
100
AcDbSymbolTableRecord
100
AcDbBlockTableRecord
  2
SW_CENTERMARKSYMBOL_4
340
0
102
{BLKREFS
331
260
102
}
 70
     0
280
     1
281
     0
  0
BLOCK_RECORD
  5
4A1
330
428
100
AcDbSymbolTableRecord
100
AcDbBlockTableRecord
  2
SW_CENTERMARKSYMBOL_5
340
0
102
{BLKREFS
331
26C
102
}
 70
     0
280
     1
281
     0
  0
BLOCK_RECORD
  5
4A3
330
428
100
AcDbSymbolTableRecord
100
AcDbBlockTableRecord
  2
SW_CENTERMARKSYMBOL_6
340
0
102
{BLKREFS
331
278
102
}
 70
     0
280
     1
281
     0
  0
BLOCK_RECORD
  5
4A5
330
428
100
AcDbSymbolTableRecord
100
AcDbBlockTableRecord
  2
SW_CENTERMARKSYMBOL_7
340
0
102
{BLKREFS
331
284
102
}
 70
     0
280
     1
281
     0
  0
BLOCK_RECORD
  5
4A7
330
428
100
AcDbSymbolTableRecord
100
AcDbBlockTableRecord
  2
SW_CENTERMARKSYMBOL_8
340
0
102
{BLKREFS
331
290
102
}
 70
     0
280
     1
281
     0
  0
BLOCK_RECORD
  5
4A9
330
428
100
AcDbSymbolTableRecord
100
AcDbBlockTableRecord
  2
SW_CENTERMARKSYMBOL_9
340
0
102
{BLKREFS
331
29C
102
}
 70
     0
280
     1
281
     0
  0
BLOCK_RECORD
  5
4AB
330
428
100
AcDbSymbolTableRecord
100
AcDbBlockTableRecord
  2
SW_CENTERMARKSYMBOL_10
340
0
102
{BLKREFS
331
2A8
102
}
 70
     0
280
     1
281
     0
  0
BLOCK_RECORD
  5
4AD
330
428
100
AcDbSymbolTableRecord
100
AcDbBlockTableRecord
  2
_D_28
340
0
 70
     0
280
     1
281
     0
  0
BLOCK_RECORD
  5
4AF
330
428
100
AcDbSymbolTableRecord
100
AcDbBlockTableRecord
  2
_D_29
340
0
 70
     0
280
     1
281
     0
  0
BLOCK_RECORD
  5
4B1
330
428
100
AcDbSymbolTableRecord
100
AcDbBlockTableRecord
  2
_D_30
340
0
 70
     0
280
     1
281
     0
  0
BLOCK_RECORD
  5
4B3
330
428
100
AcDbSymbolTableRecord
100
AcDbBlockTableRecord
  2
SW_CENTERMARKSYMBOL_11
340
0
102
{BLKREFS
331
3CC
102
}
 70
     0
280
     1
281
     0
  0
BLOCK_RECORD
  5
4B5
330
428
100
AcDbSymbolTableRecord
100
AcDbBlockTableRecord
  2
SW_CENTERMARKSYMBOL_12
340
0
102
{BLKREFS
331
3D8
102
}
 70
     0
280
     1
281
     0
  0
BLOCK_RECORD
  5
4B7
330
428
100
AcDbSymbolTableRecord
100
AcDbBlockTableRecord
  2
_D_31
340
0
 70
     0
280
     1
281
     0
  0
BLOCK_RECORD
  5
4B9
330
428
100
AcDbSymbolTableRecord
100
AcDbBlockTableRecord
  2
_D_32
340
0
 70
     0
280
     1
281
     0
  0
ENDTAB
  0
ENDSEC
  0
SECTION
  2
BLOCKS
  0
BLOCK
  5
458
330
442
100
AcDbEntity
  8
0
100
AcDbBlockBegin
  2
*Model_Space
 70
     0
 10
0.0
 20
0.0
 30
0.0
  3
*Model_Space
  1

  0
ENDBLK
  5
21
330
442
100
AcDbEntity
  8
0
100
AcDbBlockEnd
  0
BLOCK
  5
459
330
440
100
AcDbEntity
 67
     1
  8
0
100
AcDbBlockBegin
  2
*Paper_Space
 70
     0
 10
0.0
 20
0.0
 30
0.0
  3
*Paper_Space
  1

  0
ENDBLK
  5
1D
330
440
100
AcDbEntity
 67
     1
  8
0
100
AcDbBlockEnd
  0
BLOCK
  5
45A
330
45B
100
AcDbEntity
  8
0
100
AcDbBlockBegin
  2
_D
 70
     0
 10
0.0
 20
0.0
 30
0.0
  3
_D
  1

  0
SOLID
  5
EA
330
45B
100
AcDbEntity
  8
0
  6
Continuous
 62
     7
100
AcDbTrace
 10
21.2288877324
 20
373.9453748209
 30
0.0
 11
20.8442723477
 21
371.4453748209
 31
0.0
 12
21.613503117
 22
371.4453748209
 32
0.0
 13
21.613503117
 23
371.4453748209
 33
0.0
  0
SOLID
  5
EB
330
45B
100
AcDbEntity
  8
0
  6
Continuous
 62
     7
100
AcDbTrace
 10
21.2288877324
 20
125.9453748209
 30
0.0
 11
21.613503117
 21
128.4453748209
 31
0.0
 12
20.8442723477
 22
128.4453748209
 32
0.0
 13
20.8442723477
 23
128.4453748209
 33
0.0
  0
LINE
  5
EC
330
45B
100
AcDbEntity
  8
0
  6
Continuous
 62
     7
100
AcDbLine
 10
77.0847689631
 20
373.9453748209
 30
0.0
 11
20.2288877324
 21
373.9453748209
 31
0.0
  0
LINE
  5
ED
330
45B
100
AcDbEntity
  8
0
  6
Continuous
 62
     7
100
AcDbLine
 10
77.0847689631
 20
125.9453748209
 30
0.0
 11
20.2288877324
 21
125.9453748209
 31
0.0
  0
LINE
  5
EE
330
45B
100
AcDbEntity
  8
0
  6
Continuous
 62
     7
100
AcDbLine
 10
21.2288877324
 20
373.9453748209
 30
0.0
 11
21.2288877324
 21
125.9453748209
 31
0.0
  0
TEXT
  5
EF
330
45B
100
AcDbEntity
  8
0
  6
Continuous
 62
     7
100
AcDbText
 10
-3198.9404615229
 20
247.0807914255
 30
8.1457613325
 40
2.5
  1
248
 50
90.0
 41
0.7
 11
-3201.4404615229
 21
247.0807914255
 31
8.1457613325
100
AcDbText
 73
     3
  0
ENDBLK
  5
E9
330
45B
100
AcDbEntity
  8
0
100
AcDbBlockEnd
  0
BLOCK
  5
45C
330
45D
100
AcDbEntity
  8
0
100
AcDbBlockBegin
  2
_D_1
 70
     0
 10
0.0
 20
0.0
 30
0.0
  3
_D_1
  1

  0
SOLID
  5
F4
330
45D
100
AcDbEntity
  8
0
  6
Continuous
 62
     7
100
AcDbTrace
 10
194.2569239789
 20
325.9453748209
 30
0.0
 11
193.8723085943
 21
323.4453748209
 31
0.0
 12
194.6415393635
 22
323.4453748209
 32
0.0
 13
194.6415393635
 23
323.4453748209
 33
0.0
  0
SOLID
  5
F5
330
45D
100
AcDbEntity
  8
0
  6
Continuous
 62
     7
100
AcDbTrace
 10
194.2569239789
 20
165.9453748209
 30
0.0
 11
194.6415393635
 21
168.4453748209
 31
0.0
 12
193.8723085943
 22
168.4453748209
 32
0.0
 13
193.8723085943
 23
168.4453748209
 33
0.0
  0
LINE
  5
F6
330
45D
100
AcDbEntity
  8
0
  6
Continuous
 62
     7
100
AcDbLine
 10
149.6705554007
 20
325.9453748209
 30
0.0
 11
195.2569239789
 21
325.9453748209
 31
0.0
  0
LINE
  5
F7
330
45D
100
AcDbEntity
  8
0
  6
Continuous
 62
     7
100
AcDbLine
 10
149.6705554007
 20
165.9453748209
 30
0.0
 11
195.2569239789
 21
165.9453748209
 31
0.0
  0
LINE
  5
F8
330
45D
100
AcDbEntity
  8
0
  6
Continuous
 62
     7
100
AcDbLine
 10
194.2569239789
 20
325.9453748209
 30
0.0
 11
194.2569239789
 21
165.9453748209
 31
0.0
  0
TEXT
  5
F9
330
45D
100
AcDbEntity
  8
0
  6
Continuous
 62
     7
100
AcDbText
 10
-3025.9124252764
 20
243.0807914255
 30
8.1457613325
 40
2.5
  1
160
 50
90.0
 41
0.7
 11
-3028.4124252764
 21
243.0807914255
 31
8.1457613325
100
AcDbText
 73
     3
  0
ENDBLK
  5
F3
330
45D
100
AcDbEntity
  8
0
100
AcDbBlockEnd
  0
BLOCK
  5
45E
330
45F
100
AcDbEntity
  8
0
100
AcDbBlockBegin
  2
_D_2
 70
     0
 10
0.0
 20
0.0
 30
0.0
  3
_D_2
  1

  0
SOLID
  5
FE
330
45F
100
AcDbEntity
  8
0
  6
Continuous
 62
     7
100
AcDbTrace
 10
194.4695665433
 20
373.9453748209
 30
0.0
 11
194.0849511587
 21
371.4453748209
 31
0.0
 12
194.8541819279
 22
371.4453748209
 32
0.0
 13
194.8541819279
 23
371.4453748209
 33
0.0
  0
SOLID
  5
FF
330
45F
100
AcDbEntity
  8
0
  6
Continuous
 62
     7
100
AcDbTrace
 10
194.4695665433
 20
325.9453748209
 30
0.0
 11
194.8541819279
 21
328.4453748209
 31
0.0
 12
194.0849511587
 22
328.4453748209
 32
0.0
 13
194.0849511587
 23
328.4453748209
 33
0.0
  0
LINE
  5
100
330
45F
100
AcDbEntity
  8
0
  6
Continuous
 62
     7
100
AcDbLine
 10
80.0847689631
 20
373.9453748209
 30
0.0
 11
195.4695665433
 21
373.9453748209
 31
0.0
  0
LINE
  5
101
330
45F
100
AcDbEntity
  8
0
  6
Continuous
 62
     7
100
AcDbLine
 10
149.6705554007
 20
325.9453748209
 30
0.0
 11
195.4695665433
 21
325.9453748209
 31
0.0
  0
LINE
  5
102
330
45F
100
AcDbEntity
  8
0
  6
Continuous
 62
     7
100
AcDbLine
 10
194.4695665433
 20
373.9453748209
 30
0.0
 11
194.4695665433
 21
325.9453748209
 31
0.0
  0
TEXT
  5
103
330
45F
100
AcDbEntity
  8
0
  6
Continuous
 62
     7
100
AcDbText
 10
-3025.699782712
 20
348.0356525961
 30
8.1457613325
 40
2.5
  1
48
 50
90.0
 41
0.7
 11
-3028.199782712
 21
348.0356525961
 31
8.1457613325
100
AcDbText
 73
     3
  0
ENDBLK
  5
FD
330
45F
100
AcDbEntity
  8
0
100
AcDbBlockEnd
  0
BLOCK
  5
460
330
461
100
AcDbEntity
  8
0
100
AcDbBlockBegin
  2
_D_3
 70
     0
 10
0.0
 20
0.0
 30
0.0
  3
_D_3
  1

  0
SOLID
  5
108
330
461
100
AcDbEntity
  8
0
  6
Continuous
 62
     7
100
AcDbTrace
 10
185.6593954806
 20
273.9453748209
 30
0.0
 11
185.274780096
 21
271.4453748209
 31
0.0
 12
186.0440108652
 22
271.4453748209
 32
0.0
 13
186.0440108652
 23
271.4453748209
 33
0.0
  0
SOLID
  5
109
330
461
100
AcDbEntity
  8
0
  6
Continuous
 62
     7
100
AcDbTrace
 10
185.6593954806
 20
195.9453748209
 30
0.0
 11
186.0440108652
 21
198.4453748209
 31
0.0
 12
185.274780096
 22
198.4453748209
 32
0.0
 13
185.274780096
 23
198.4453748209
 33
0.0
  0
LINE
  5
10A
330
461
100
AcDbEntity
  8
0
  6
Continuous
 62
     7
100
AcDbLine
 10
137.0847689631
 20
273.9453748209
 30
0.0
 11
186.6593954806
 21
273.9453748209
 31
0.0
  0
LINE
  5
10B
330
461
100
AcDbEntity
  8
0
  6
Continuous
 62
     7
100
AcDbLine
 10
150.6847689631
 20
195.9453748209
 30
0.0
 11
186.6593954806
 21
195.9453748209
 31
0.0
  0
LINE
  5
10C
330
461
100
AcDbEntity
  8
0
  6
Continuous
 62
     7
100
AcDbLine
 10
185.6593954806
 20
273.9453748209
 30
0.0
 11
185.6593954806
 21
195.9453748209
 31
0.0
  0
TEXT
  5
10D
330
461
100
AcDbEntity
  8
0
  6
Continuous
 62
     7
100
AcDbText
 10
-3034.5099537747
 20
233.0356525961
 30
8.1457613325
 40
2.5
  1
78
 50
90.0
 41
0.7
 11
-3037.0099537747
 21
233.0356525961
 31
8.1457613325
100
AcDbText
 73
     3
  0
ENDBLK
  5
107
330
461
100
AcDbEntity
  8
0
100
AcDbBlockEnd
  0
BLOCK
  5
462
330
463
100
AcDbEntity
  8
0
100
AcDbBlockBegin
  2
_D_4
 70
     0
 10
0.0
 20
0.0
 30
0.0
  3
_D_4
  1

  0
SOLID
  5
113
330
463
100
AcDbEntity
  8
0
  6
Continuous
 62
     7
100
AcDbTrace
 10
153.8491059852
 20
190.8042540143
 30
0.0
 11
152.4085225339
 21
192.8833519712
 31
0.0
 12
151.8502079319
 22
192.3542009705
 32
0.0
 13
151.8502079319
 23
192.3542009705
 33
0.0
  0
SOLID
  5
114
330
463
100
AcDbEntity
  8
0
  6
Continuous
 62
     7
100
AcDbTrace
 10
158.3204319411
 20
186.0864956275
 30
0.0
 11
159.7610153923
 21
184.0073976707
 31
0.0
 12
160.3193299943
 22
184.5365486714
 32
0.0
 13
160.3193299943
 23
184.5365486714
 33
0.0
  0
LINE
  5
115
330
463
100
AcDbEntity
  8
0
  6
Continuous
 62
     7
100
AcDbLine
 10
158.3204319411
 20
186.0864956275
 30
0.0
 11
172.6227439515
 21
170.9959267217
 31
0.0
  0
LINE
  5
116
330
463
100
AcDbEntity
  8
0
  6
Continuous
 62
     7
100
AcDbLine
 10
153.8491059852
 20
190.8042540143
 30
0.0
 11
150.5419122308
 21
194.2937202768
 31
0.0
  0
LINE
  5
117
330
463
100
AcDbEntity
  8
0
  6
Continuous
 62
     7
100
AcDbLine
 10
158.3204319411
 20
186.0864956275
 30
0.0
 11
153.8491059852
 21
190.8042540143
 31
0.0
  0
TEXT
  5
118
330
463
100
AcDbEntity
  8
0
  6
Continuous
 62
     7
100
AcDbText
 10
2504.052552704638
 20
2392.243185302636
 30
8.1457613325
 40
2.5
  1
%%c
 50
313.4638126908001
 41
0.7
 11
2505.8670751611
 21
2393.9629260549
 31
8.1457613325
100
AcDbText
 73
     3
  0
TEXT
  5
119
330
463
100
AcDbEntity
  8
0
  6
Continuous
 62
     7
100
AcDbText
 10
2506.564951245138
 20
2389.602413777736
 30
8.1457613325
 40
2.5
  1
6.5
 50
313.4638126908001
 41
0.7
 11
2508.3794737016
 21
2391.32215453
 31
8.1457613325
100
AcDbText
 73
     3
  0
ENDBLK
  5
112
330
463
100
AcDbEntity
  8
0
100
AcDbBlockEnd
  0
BLOCK
  5
464
330
465
100
AcDbEntity
  8
0
100
AcDbBlockBegin
  2
_D_5
 70
     0
 10
0.0
 20
0.0
 30
0.0
  3
_D_5
  1

  0
SOLID
  5
11E
330
465
100
AcDbEntity
  8
0
  6
Continuous
 62
     7
100
AcDbTrace
 10
120.7161611685
 20
275.8528011135
 30
0.0
 11
122.9660399409
 21
277.0086447462
 31
0.0
 12
122.5145780965
 22
277.6314594694
 32
0.0
 13
122.5145780965
 23
277.6314594694
 33
0.0
  0
SOLID
  5
11F
330
465
100
AcDbEntity
  8
0
  6
Continuous
 62
     7
100
AcDbTrace
 10
115.4533767578
 20
272.0379485284
 30
0.0
 11
113.2034979853
 21
270.8821048957
 31
0.0
 12
113.6549598297
 22
270.2592901725
 32
0.0
 13
113.6549598297
 23
270.2592901725
 33
0.0
  0
LINE
  5
120
330
465
100
AcDbEntity
  8
0
  6
Continuous
 62
     7
100
AcDbLine
 10
115.4533767578
 20
272.0379485284
 30
0.0
 11
101.6816833531
 21
262.0552138984
 31
0.0
  0
LINE
  5
121
330
465
100
AcDbEntity
  8
0
  6
Continuous
 62
     7
100
AcDbLine
 10
120.7161611685
 20
275.8528011135
 30
0.0
 11
124.6087531882
 21
278.674437641
 31
0.0
  0
LINE
  5
122
330
465
100
AcDbEntity
  8
0
  6
Continuous
 62
     7
100
AcDbLine
 10
115.4533767578
 20
272.0379485284
 30
0.0
 11
120.7161611685
 21
275.8528011135
 31
0.0
  0
TEXT
  5
123
330
465
100
AcDbEntity
  8
0
  6
Continuous
 62
     7
100
AcDbText
 10
-1788.229097991806
 20
2869.283874938933
 30
8.1457613325
 40
2.5
  1
%%c
 50
35.9373581577
 41
0.7
 11
-1789.6963489861
 21
2871.3080227892
 31
8.1457613325
100
AcDbText
 73
     3
  0
TEXT
  5
124
330
465
100
AcDbEntity
  8
0
  6
Continuous
 62
     7
100
AcDbText
 10
-1785.281994185006
 20
2871.428729205632
 30
8.1457613325
 40
2.5
  1
6.5
 50
35.9373581577
 41
0.7
 11
-1786.7492451793
 21
2873.4528770559
 31
8.1457613325
100
AcDbText
 73
     3
  0
ENDBLK
  5
11D
330
465
100
AcDbEntity
  8
0
100
AcDbBlockEnd
  0
BLOCK
  5
466
330
467
100
AcDbEntity
  8
0
100
AcDbBlockBegin
  2
_D_6
 70
     0
 10
0.0
 20
0.0
 30
0.0
  3
_D_6
  1

  0
SOLID
  5
129
330
467
100
AcDbEntity
  8
0
  6
Continuous
 62
     7
100
AcDbTrace
 10
139.6808298472
 20
255.1514730982
 30
0.0
 11
141.6890856445
 21
256.6892759616
 31
0.0
 12
141.133988562
 22
257.2218012711
 32
0.0
 13
141.133988562
 23
257.2218012711
 33
0.0
  0
SOLID
  5
12A
330
467
100
AcDbEntity
  8
0
  6
Continuous
 62
     7
100
AcDbTrace
 10
134.488708079
 20
249.7392765437
 30
0.0
 11
132.4804522817
 21
248.2014736803
 31
0.0
 12
133.0355493642
 22
247.6689483707
 32
0.0
 13
133.0355493642
 23
247.6689483707
 33
0.0
  0
LINE
  5
12B
330
467
100
AcDbEntity
  8
0
  6
Continuous
 62
     7
100
AcDbLine
 10
134.488708079
 20
249.7392765437
 30
0.0
 11
124.6478350829
 21
239.4812854369
 31
0.0
  0
LINE
  5
12C
330
467
100
AcDbEntity
  8
0
  6
Continuous
 62
     7
100
AcDbLine
 10
139.6808298472
 20
255.1514730982
 30
0.0
 11
143.0091130319
 21
258.6208298639
 31
0.0
  0
LINE
  5
12D
330
467
100
AcDbEntity
  8
0
  6
Continuous
 62
     7
100
AcDbLine
 10
134.488708079
 20
249.7392765437
 30
0.0
 11
139.6808298472
 21
255.1514730982
 31
0.0
  0
TEXT
  5
12E
330
467
100
AcDbEntity
  8
0
  6
Continuous
 62
     7
100
AcDbText
 10
-2199.097664997732
 20
2468.736907095246
 30
8.1457613325
 40
2.5
  1
%%c
 50
46.1889068429
 41
0.7
 11
-2200.9017305159
 21
2470.4676143513
 31
8.1457613325
100
AcDbText
 73
     3
  0
TEXT
  5
12F
330
467
100
AcDbEntity
  8
0
  6
Continuous
 62
     7
100
AcDbText
 10
-2196.579329109632
 20
2471.372017155246
 30
8.1457613325
 40
2.5
  1
7.5
 50
46.1889068429
 41
0.7
 11
-2198.3833946278
 21
2473.1027244113
 31
8.1457613325
100
AcDbText
 73
     3
  0
ENDBLK
  5
128
330
467
100
AcDbEntity
  8
0
100
AcDbBlockEnd
  0
BLOCK
  5
468
330
469
100
AcDbEntity
  8
0
100
AcDbBlockBegin
  2
_D_7
 70
     0
 10
0.0
 20
0.0
 30
0.0
  3
_D_7
  1

  0
SOLID
  5
134
330
469
100
AcDbEntity
  8
0
  6
Continuous
 62
     7
100
AcDbTrace
 10
177.6915477516
 20
273.9453748209
 30
0.0
 11
177.306932367
 21
271.4453748209
 31
0.0
 12
178.0761631363
 22
271.4453748209
 32
0.0
 13
178.0761631363
 23
271.4453748209
 33
0.0
  0
SOLID
  5
135
330
469
100
AcDbEntity
  8
0
  6
Continuous
 62
     7
100
AcDbTrace
 10
177.6915477516
 20
252.4453748209
 30
0.0
 11
178.0761631363
 21
254.9453748209
 31
0.0
 12
177.306932367
 22
254.9453748209
 32
0.0
 13
177.306932367
 23
254.9453748209
 33
0.0
  0
LINE
  5
136
330
469
100
AcDbEntity
  8
0
  6
Continuous
 62
     7
100
AcDbLine
 10
137.0847689631
 20
273.9453748209
 30
0.0
 11
178.6915477516
 21
273.9453748209
 31
0.0
  0
LINE
  5
137
330
469
100
AcDbEntity
  8
0
  6
Continuous
 62
     7
100
AcDbLine
 10
143.3347689631
 20
252.4453748209
 30
0.0
 11
178.6915477516
 21
252.4453748209
 31
0.0
  0
LINE
  5
138
330
469
100
AcDbEntity
  8
0
  6
Continuous
 62
     7
100
AcDbLine
 10
177.6915477516
 20
273.9453748209
 30
0.0
 11
177.6915477516
 21
252.4453748209
 31
0.0
  0
TEXT
  5
139
330
469
100
AcDbEntity
  8
0
  6
Continuous
 62
     7
100
AcDbText
 10
-3042.4778015037
 20
259.8533610148
 30
8.1457613325
 40
2.5
  1
21.5
 50
90.0
 41
0.7
 11
-3044.9778015037
 21
259.8533610148
 31
8.1457613325
100
AcDbText
 73
     3
  0
ENDBLK
  5
133
330
469
100
AcDbEntity
  8
0
100
AcDbBlockEnd
  0
BLOCK
  5
46A
330
46B
100
AcDbEntity
  8
0
100
AcDbBlockBegin
  2
_D_8
 70
     0
 10
0.0
 20
0.0
 30
0.0
  3
_D_8
  1

  0
SOLID
  5
13F
330
46B
100
AcDbEntity
  8
0
  6
Continuous
 62
     7
100
AcDbTrace
 10
185.6593954806
 20
195.9453748209
 30
0.0
 11
186.0440108652
 21
198.4453748209
 31
0.0
 12
185.274780096
 22
198.4453748209
 32
0.0
 13
185.274780096
 23
198.4453748209
 33
0.0
  0
SOLID
  5
140
330
46B
100
AcDbEntity
  8
0
  6
Continuous
 62
     7
100
AcDbTrace
 10
185.6593954806
 20
188.4453748209
 30
0.0
 11
185.274780096
 21
185.9453748209
 31
0.0
 12
186.0440108652
 22
185.9453748209
 32
0.0
 13
186.0440108652
 23
185.9453748209
 33
0.0
  0
LINE
  5
141
330
46B
100
AcDbEntity
  8
0
  6
Continuous
 62
     7
100
AcDbLine
 10
150.6847689631
 20
195.9453748209
 30
0.0
 11
186.6593954806
 21
195.9453748209
 31
0.0
  0
LINE
  5
142
330
46B
100
AcDbEntity
  8
0
  6
Continuous
 62
     7
100
AcDbLine
 10
161.8347689631
 20
188.4453748209
 30
0.0
 11
186.6593954806
 21
188.4453748209
 31
0.0
  0
LINE
  5
143
330
46B
100
AcDbEntity
  8
0
  6
Continuous
 62
     7
100
AcDbLine
 10
185.6593954806
 20
195.9453748209
 30
0.0
 11
185.6593954806
 21
200.7530671286
 31
0.0
  0
LINE
  5
144
330
46B
100
AcDbEntity
  8
0
  6
Continuous
 62
     7
100
AcDbLine
 10
185.6593954806
 20
195.9453748209
 30
0.0
 11
185.6593954806
 21
188.4453748209
 31
0.0
  0
LINE
  5
145
330
46B
100
AcDbEntity
  8
0
  6
Continuous
 62
     7
100
AcDbLine
 10
185.6593954806
 20
188.4453748209
 30
0.0
 11
185.6593954806
 21
183.6376825133
 31
0.0
  0
TEXT
  5
146
330
46B
100
AcDbEntity
  8
0
  6
Continuous
 62
     7
100
AcDbText
 10
-3034.5099537747
 20
189.808222069
 30
8.1457613325
 40
2.5
  1
7.5
 50
90.0
 41
0.7
 11
-3037.0099537747
 21
189.808222069
 31
8.1457613325
100
AcDbText
 73
     3
  0
ENDBLK
  5
13E
330
46B
100
AcDbEntity
  8
0
100
AcDbBlockEnd
  0
BLOCK
  5
46C
330
46D
100
AcDbEntity
  8
0
100
AcDbBlockBegin
  2
_D_9
 70
     0
 10
0.0
 20
0.0
 30
0.0
  3
_D_9
  1

  0
SOLID
  5
14B
330
46D
100
AcDbEntity
  8
0
  6
Continuous
 62
     7
100
AcDbTrace
 10
137.0847689631
 20
221.8486926048
 30
0.0
 11
139.5847689631
 21
221.4640772201
 31
0.0
 12
139.5847689631
 22
222.2333079894
 32
0.0
 13
139.5847689631
 23
222.2333079894
 33
0.0
  0
SOLID
  5
14C
330
46D
100
AcDbEntity
  8
0
  6
Continuous
 62
     7
100
AcDbTrace
 10
156.0847689631
 20
221.8486926048
 30
0.0
 11
153.5847689631
 21
222.2333079894
 31
0.0
 12
153.5847689631
 22
221.4640772201
 32
0.0
 13
153.5847689631
 23
221.4640772201
 33
0.0
  0
LINE
  5
14D
330
46D
100
AcDbEntity
  8
0
  6
Continuous
 62
     7
100
AcDbLine
 10
137.0847689631
 20
209.5453748209
 30
0.0
 11
137.0847689631
 21
222.8486926048
 31
0.0
  0
LINE
  5
14E
330
46D
100
AcDbEntity
  8
0
  6
Continuous
 62
     7
100
AcDbLine
 10
156.0847689631
 20
194.1953748209
 30
0.0
 11
156.0847689631
 21
222.8486926048
 31
0.0
  0
LINE
  5
14F
330
46D
100
AcDbEntity
  8
0
  6
Continuous
 62
     7
100
AcDbLine
 10
137.0847689631
 20
221.8486926048
 30
0.0
 11
156.0847689631
 21
221.8486926048
 31
0.0
  0
TEXT
  5
150
330
46D
100
AcDbEntity
  8
0
  6
Continuous
 62
     7
100
AcDbText
 10
144.6750467383
 20
3442.01804186
 30
8.1457613325
 40
2.5
  1
19
 41
0.7
 11
144.6750467383
 21
3444.51804186
 31
8.1457613325
100
AcDbText
 73
     3
  0
ENDBLK
  5
14A
330
46D
100
AcDbEntity
  8
0
100
AcDbBlockEnd
  0
BLOCK
  5
46E
330
46F
100
AcDbEntity
  8
0
100
AcDbBlockBegin
  2
_D_10
 70
     0
 10
0.0
 20
0.0
 30
0.0
  3
_D_10
  1

  0
SOLID
  5
155
330
46F
100
AcDbEntity
  8
0
  6
Continuous
 62
     7
100
AcDbTrace
 10
118.0847689631
 20
221.8486926048
 30
0.0
 11
120.5847689631
 21
221.4640772201
 31
0.0
 12
120.5847689631
 22
222.2333079894
 32
0.0
 13
120.5847689631
 23
222.2333079894
 33
0.0
  0
SOLID
  5
156
330
46F
100
AcDbEntity
  8
0
  6
Continuous
 62
     7
100
AcDbTrace
 10
137.0847689631
 20
221.8486926048
 30
0.0
 11
134.5847689631
 21
222.2333079894
 31
0.0
 12
134.5847689631
 22
221.4640772201
 32
0.0
 13
134.5847689631
 23
221.4640772201
 33
0.0
  0
LINE
  5
157
330
46F
100
AcDbEntity
  8
0
  6
Continuous
 62
     7
100
AcDbLine
 10
118.0847689631
 20
194.1953748209
 30
0.0
 11
118.0847689631
 21
222.8486926048
 31
0.0
  0
LINE
  5
158
330
46F
100
AcDbEntity
  8
0
  6
Continuous
 62
     7
100
AcDbLine
 10
137.0847689631
 20
209.5453748209
 30
0.0
 11
137.0847689631
 21
222.8486926048
 31
0.0
  0
LINE
  5
159
330
46F
100
AcDbEntity
  8
0
  6
Continuous
 62
     7
100
AcDbLine
 10
118.0847689631
 20
221.8486926048
 30
0.0
 11
137.0847689631
 21
221.8486926048
 31
0.0
  0
TEXT
  5
15A
330
46F
100
AcDbEntity
  8
0
  6
Continuous
 62
     7
100
AcDbText
 10
125.6750467383
 20
3442.01804186
 30
8.1457613325
 40
2.5
  1
19
 41
0.7
 11
125.6750467383
 21
3444.51804186
 31
8.1457613325
100
AcDbText
 73
     3
  0
ENDBLK
  5
154
330
46F
100
AcDbEntity
  8
0
100
AcDbBlockEnd
  0
BLOCK
  5
470
330
471
100
AcDbEntity
  8
0
100
AcDbBlockBegin
  2
_D_11
 70
     0
 10
0.0
 20
0.0
 30
0.0
  3
_D_11
  1

  0
SOLID
  5
15F
330
471
100
AcDbEntity
  8
0
  6
Continuous
 62
     7
100
AcDbTrace
 10
77.0847689631
 20
107.2774371062
 30
0.0
 11
79.5847689631
 21
106.8928217216
 31
0.0
 12
79.5847689631
 22
107.6620524908
 32
0.0
 13
79.5847689631
 23
107.6620524908
 33
0.0
  0
SOLID
  5
160
330
471
100
AcDbEntity
  8
0
  6
Continuous
 62
     7
100
AcDbTrace
 10
137.0847689631
 20
107.2774371062
 30
0.0
 11
134.5847689631
 21
107.6620524908
 31
0.0
 12
134.5847689631
 22
106.8928217216
 32
0.0
 13
134.5847689631
 23
106.8928217216
 33
0.0
  0
LINE
  5
161
330
471
100
AcDbEntity
  8
0
  6
Continuous
 62
     7
100
AcDbLine
 10
77.0847689631
 20
125.9453748209
 30
0.0
 11
77.0847689631
 21
106.2774371062
 31
0.0
  0
LINE
  5
162
330
471
100
AcDbEntity
  8
0
  6
Continuous
 62
     7
100
AcDbLine
 10
137.0847689631
 20
182.3453748209
 30
0.0
 11
137.0847689631
 21
106.2774371062
 31
0.0
  0
LINE
  5
163
330
471
100
AcDbEntity
  8
0
  6
Continuous
 62
     7
100
AcDbLine
 10
77.0847689631
 20
107.2774371062
 30
0.0
 11
137.0847689631
 21
107.2774371062
 31
0.0
  0
TEXT
  5
164
330
471
100
AcDbEntity
  8
0
  6
Continuous
 62
     7
100
AcDbText
 10
97.7306022765
 20
3327.4467863615
 30
8.1457613325
 40
2.5
  1
DM
 41
0.7
 11
97.7306022765
 21
3329.9467863615
 31
8.1457613325
100
AcDbText
 73
     3
  0
TEXT
  5
165
330
471
100
AcDbEntity
  8
0
  6
Continuous
 62
     7
100
AcDbText
 10
103.0708804252
 20
3327.4467863615
 30
8.1457613325
 40
2.5
  1
60/70/80
 41
0.7
 11
103.0708804252
 21
3329.9467863615
 31
8.1457613325
100
AcDbText
 73
     3
  0
ENDBLK
  5
15E
330
471
100
AcDbEntity
  8
0
100
AcDbBlockEnd
  0
BLOCK
  5
472
330
473
100
AcDbEntity
  8
0
100
AcDbBlockBegin
  2
_D_12
 70
     0
 10
0.0
 20
0.0
 30
0.0
  3
_D_12
  1

  0
SOLID
  5
16A
330
473
100
AcDbEntity
  8
0
  6
Continuous
 62
     7
100
AcDbTrace
 10
137.0847689631
 20
107.2187340913
 30
0.0
 11
139.5847689631
 21
106.8341187067
 31
0.0
 12
139.5847689631
 22
107.603349476
 32
0.0
 13
139.5847689631
 23
107.603349476
 33
0.0
  0
SOLID
  5
16B
330
473
100
AcDbEntity
  8
0
  6
Continuous
 62
     7
100
AcDbTrace
 10
167.0847689631
 20
107.2187340913
 30
0.0
 11
164.5847689631
 21
107.603349476
 31
0.0
 12
164.5847689631
 22
106.8341187067
 32
0.0
 13
164.5847689631
 23
106.8341187067
 33
0.0
  0
LINE
  5
16C
330
473
100
AcDbEntity
  8
0
  6
Continuous
 62
     7
100
AcDbLine
 10
137.0847689631
 20
182.3453748209
 30
0.0
 11
137.0847689631
 21
106.2187340913
 31
0.0
  0
LINE
  5
16D
330
473
100
AcDbEntity
  8
0
  6
Continuous
 62
     7
100
AcDbLine
 10
167.0847689631
 20
183.3595883833
 30
0.0
 11
167.0847689631
 21
106.2187340913
 31
0.0
  0
LINE
  5
16E
330
473
100
AcDbEntity
  8
0
  6
Continuous
 62
     7
100
AcDbLine
 10
137.0847689631
 20
107.2187340913
 30
0.0
 11
167.0847689631
 21
107.2187340913
 31
0.0
  0
TEXT
  5
16F
330
473
100
AcDbEntity
  8
0
  6
Continuous
 62
     7
100
AcDbText
 10
150.1750467383
 20
3327.3880833466
 30
8.1457613325
 40
2.5
  1
30
 41
0.7
 11
150.1750467383
 21
3329.8880833466
 31
8.1457613325
100
AcDbText
 73
     3
  0
ENDBLK
  5
169
330
473
100
AcDbEntity
  8
0
100
AcDbBlockEnd
  0
BLOCK
  5
474
330
475
100
AcDbEntity
  8
0
100
AcDbBlockBegin
  2
_D_13
 70
     0
 10
0.0
 20
0.0
 30
0.0
  3
_D_13
  1

  0
SOLID
  5
174
330
475
100
AcDbEntity
  8
0
  6
Continuous
 62
     7
100
AcDbTrace
 10
35.0847689631
 20
273.9453748209
 30
0.0
 11
35.4693843477
 21
276.4453748209
 31
0.0
 12
34.7001535785
 22
276.4453748209
 32
0.0
 13
34.7001535785
 23
276.4453748209
 33
0.0
  0
SOLID
  5
175
330
475
100
AcDbEntity
  8
0
  6
Continuous
 62
     7
100
AcDbTrace
 10
35.0847689631
 20
295.2453748209
 30
0.0
 11
34.7001535785
 21
292.7453748209
 31
0.0
 12
35.4693843477
 22
292.7453748209
 32
0.0
 13
35.4693843477
 23
292.7453748209
 33
0.0
  0
LINE
  5
176
330
475
100
AcDbEntity
  8
0
  6
Continuous
 62
     7
100
AcDbLine
 10
137.0847689631
 20
273.9453748209
 30
0.0
 11
34.0847689631
 21
273.9453748209
 31
0.0
  0
LINE
  5
177
330
475
100
AcDbEntity
  8
0
  6
Continuous
 62
     7
100
AcDbLine
 10
64.2257594689
 20
295.2453748209
 30
0.0
 11
34.0847689631
 21
295.2453748209
 31
0.0
  0
LINE
  5
178
330
475
100
AcDbEntity
  8
0
  6
Continuous
 62
     7
100
AcDbLine
 10
35.0847689631
 20
273.9453748209
 30
0.0
 11
35.0847689631
 21
295.2453748209
 31
0.0
  0
TEXT
  5
179
330
475
100
AcDbEntity
  8
0
  6
Continuous
 62
     7
100
AcDbText
 10
-3185.0845802922
 20
281.2533610148
 30
8.1457613325
 40
2.5
  1
21.3
 50
90.0
 41
0.7
 11
-3187.5845802922
 21
281.2533610148
 31
8.1457613325
100
AcDbText
 73
     3
  0
ENDBLK
  5
173
330
475
100
AcDbEntity
  8
0
100
AcDbBlockEnd
  0
BLOCK
  5
476
330
477
100
AcDbEntity
  8
0
100
AcDbBlockBegin
  2
_D_14
 70
     0
 10
0.0
 20
0.0
 30
0.0
  3
_D_14
  1

  0
SOLID
  5
17E
330
477
100
AcDbEntity
  8
0
  6
Continuous
 62
     7
100
AcDbTrace
 10
35.0847689631
 20
273.9453748209
 30
0.0
 11
34.7001535785
 21
271.4453748209
 31
0.0
 12
35.4693843477
 22
271.4453748209
 32
0.0
 13
35.4693843477
 23
271.4453748209
 33
0.0
  0
SOLID
  5
17F
330
477
100
AcDbEntity
  8
0
  6
Continuous
 62
     7
100
AcDbTrace
 10
35.0847689631
 20
219.9453748209
 30
0.0
 11
35.4693843477
 21
222.4453748209
 31
0.0
 12
34.7001535785
 22
222.4453748209
 32
0.0
 13
34.7001535785
 23
222.4453748209
 33
0.0
  0
LINE
  5
180
330
477
100
AcDbEntity
  8
0
  6
Continuous
 62
     7
100
AcDbLine
 10
137.0847689631
 20
273.9453748209
 30
0.0
 11
34.0847689631
 21
273.9453748209
 31
0.0
  0
LINE
  5
181
330
477
100
AcDbEntity
  8
0
  6
Continuous
 62
     7
100
AcDbLine
 10
55.3847689631
 20
219.9453748209
 30
0.0
 11
34.0847689631
 21
219.9453748209
 31
0.0
  0
LINE
  5
182
330
477
100
AcDbEntity
  8
0
  6
Continuous
 62
     7
100
AcDbLine
 10
35.0847689631
 20
273.9453748209
 30
0.0
 11
35.0847689631
 21
219.9453748209
 31
0.0
  0
TEXT
  5
183
330
477
100
AcDbEntity
  8
0
  6
Continuous
 62
     7
100
AcDbText
 10
-3185.0845802922
 20
245.0356525961
 30
8.1457613325
 40
2.5
  1
54
 50
90.0
 41
0.7
 11
-3187.5845802922
 21
245.0356525961
 31
8.1457613325
100
AcDbText
 73
     3
  0
ENDBLK
  5
17D
330
477
100
AcDbEntity
  8
0
100
AcDbBlockEnd
  0
BLOCK
  5
478
330
479
100
AcDbEntity
  8
0
100
AcDbBlockBegin
  2
_D_15
 70
     0
 10
0.0
 20
0.0
 30
0.0
  3
_D_15
  1

  0
SOLID
  5
188
330
479
100
AcDbEntity
  8
0
  6
Continuous
 62
     7
100
AcDbTrace
 10
46.9834216382
 20
234.9453748209
 30
0.0
 11
46.5988062536
 21
232.4453748209
 31
0.0
 12
47.3680370228
 22
232.4453748209
 32
0.0
 13
47.3680370228
 23
232.4453748209
 33
0.0
  0
SOLID
  5
189
330
479
100
AcDbEntity
  8
0
  6
Continuous
 62
     7
100
AcDbTrace
 10
46.9834216382
 20
204.9453748209
 30
0.0
 11
47.3680370228
 21
207.4453748209
 31
0.0
 12
46.5988062536
 22
207.4453748209
 32
0.0
 13
46.5988062536
 23
207.4453748209
 33
0.0
  0
LINE
  5
18A
330
479
100
AcDbEntity
  8
0
  6
Continuous
 62
     7
100
AcDbLine
 10
57.3847689631
 20
234.9453748209
 30
0.0
 11
45.9834216382
 21
234.9453748209
 31
0.0
  0
LINE
  5
18B
330
479
100
AcDbEntity
  8
0
  6
Continuous
 62
     7
100
AcDbLine
 10
57.3847689631
 20
204.9453748209
 30
0.0
 11
45.9834216382
 21
204.9453748209
 31
0.0
  0
LINE
  5
18C
330
479
100
AcDbEntity
  8
0
  6
Continuous
 62
     7
100
AcDbLine
 10
46.9834216382
 20
234.9453748209
 30
0.0
 11
46.9834216382
 21
204.9453748209
 31
0.0
  0
TEXT
  5
18D
330
479
100
AcDbEntity
  8
0
  6
Continuous
 62
     7
100
AcDbText
 10
-3173.1859276171
 20
221.3007140237
 30
8.1457613325
 40
2.5
  1
30
 50
90.0
 41
0.7
 11
-3175.6859276171
 21
221.3007140237
 31
8.1457613325
100
AcDbText
 73
     3
  0
ENDBLK
  5
187
330
479
100
AcDbEntity
  8
0
100
AcDbBlockEnd
  0
BLOCK
  5
47A
330
47B
100
AcDbEntity
  8
0
100
AcDbBlockBegin
  2
_D_16
 70
     0
 10
0.0
 20
0.0
 30
0.0
  3
_D_16
  1

  0
SOLID
  5
192
330
47B
100
AcDbEntity
  8
0
  6
Continuous
 62
     7
100
AcDbTrace
 10
57.0847689631
 20
195.684225496
 30
0.0
 11
59.5847689631
 21
195.2996101114
 31
0.0
 12
59.5847689631
 22
196.0688408806
 32
0.0
 13
59.5847689631
 23
196.0688408806
 33
0.0
  0
SOLID
  5
193
330
47B
100
AcDbEntity
  8
0
  6
Continuous
 62
     7
100
AcDbTrace
 10
77.0847689631
 20
195.684225496
 30
0.0
 11
74.5847689631
 21
196.0688408806
 31
0.0
 12
74.5847689631
 22
195.2996101114
 32
0.0
 13
74.5847689631
 23
195.2996101114
 33
0.0
  0
LINE
  5
194
330
47B
100
AcDbEntity
  8
0
  6
Continuous
 62
     7
100
AcDbLine
 10
57.0847689631
 20
205.2453748209
 30
0.0
 11
57.0847689631
 21
194.684225496
 31
0.0
  0
LINE
  5
195
330
47B
100
AcDbEntity
  8
0
  6
Continuous
 62
     7
100
AcDbLine
 10
57.0847689631
 20
195.684225496
 30
0.0
 11
77.0847689631
 21
195.684225496
 31
0.0
  0
TEXT
  5
196
330
47B
100
AcDbEntity
  8
0
  6
Continuous
 62
     7
100
AcDbText
 10
65.1750467383
 20
3415.8535747513
 30
8.1457613325
 40
2.5
  1
20
 41
0.7
 11
65.1750467383
 21
3418.3535747513
 31
8.1457613325
100
AcDbText
 73
     3
  0
ENDBLK
  5
191
330
47B
100
AcDbEntity
  8
0
100
AcDbBlockEnd
  0
BLOCK
  5
47C
330
47D
100
AcDbEntity
  8
0
100
AcDbBlockBegin
  2
_D_17
 70
     0
 10
0.0
 20
0.0
 30
0.0
  3
_D_17
  1

  0
SOLID
  5
19B
330
47D
100
AcDbEntity
  8
0
  6
Continuous
 62
     7
100
AcDbTrace
 10
48.2299664071
 20
279.2453748209
 30
0.0
 11
48.6145817918
 21
281.7453748209
 31
0.0
 12
47.8453510225
 22
281.7453748209
 32
0.0
 13
47.8453510225
 23
281.7453748209
 33
0.0
  0
SOLID
  5
19C
330
47D
100
AcDbEntity
  8
0
  6
Continuous
 62
     7
100
AcDbTrace
 10
48.2299664071
 20
311.2453748209
 30
0.0
 11
47.8453510225
 21
308.7453748209
 31
0.0
 12
48.6145817918
 22
308.7453748209
 32
0.0
 13
48.6145817918
 23
308.7453748209
 33
0.0
  0
LINE
  5
19D
330
47D
100
AcDbEntity
  8
0
  6
Continuous
 62
     7
100
AcDbLine
 10
66.2257594689
 20
279.2453748209
 30
0.0
 11
47.2299664071
 21
279.2453748209
 31
0.0
  0
LINE
  5
19E
330
47D
100
AcDbEntity
  8
0
  6
Continuous
 62
     7
100
AcDbLine
 10
66.2257594689
 20
311.2453748209
 30
0.0
 11
47.2299664071
 21
311.2453748209
 31
0.0
  0
LINE
  5
19F
330
47D
100
AcDbEntity
  8
0
  6
Continuous
 62
     7
100
AcDbLine
 10
48.2299664071
 20
279.2453748209
 30
0.0
 11
48.2299664071
 21
311.2453748209
 31
0.0
  0
TEXT
  5
1A0
330
47D
100
AcDbEntity
  8
0
  6
Continuous
 62
     7
100
AcDbText
 10
-3171.9393828481
 20
296.7667770805
 30
8.1457613325
 40
2.5
  1
32
 50
90.0
 41
0.7
 11
-3174.4393828481
 21
296.7667770805
 31
8.1457613325
100
AcDbText
 73
     3
  0
ENDBLK
  5
19A
330
47D
100
AcDbEntity
  8
0
100
AcDbBlockEnd
  0
BLOCK
  5
47E
330
47F
100
AcDbEntity
  8
0
100
AcDbBlockBegin
  2
_D_18
 70
     0
 10
0.0
 20
0.0
 30
0.0
  3
_D_18
  1

  0
SOLID
  5
1A5
330
47F
100
AcDbEntity
  8
0
  6
Continuous
 62
     7
100
AcDbTrace
 10
80.0847689631
 20
118.9281652902
 30
0.0
 11
82.5847689631
 21
118.5435499056
 31
0.0
 12
82.5847689631
 22
119.3127806749
 32
0.0
 13
82.5847689631
 23
119.3127806749
 33
0.0
  0
SOLID
  5
1A6
330
47F
100
AcDbEntity
  8
0
  6
Continuous
 62
     7
100
AcDbTrace
 10
77.0847689631
 20
118.9281652902
 30
0.0
 11
74.5847689631
 21
119.3127806749
 31
0.0
 12
74.5847689631
 22
118.5435499056
 32
0.0
 13
74.5847689631
 23
118.5435499056
 33
0.0
  0
LINE
  5
1A7
330
47F
100
AcDbEntity
  8
0
  6
Continuous
 62
     7
100
AcDbLine
 10
80.0847689631
 20
125.9453748209
 30
0.0
 11
80.0847689631
 21
117.9281652902
 31
0.0
  0
LINE
  5
1A8
330
47F
100
AcDbEntity
  8
0
  6
Continuous
 62
     7
100
AcDbLine
 10
77.0847689631
 20
125.9453748209
 30
0.0
 11
77.0847689631
 21
117.9281652902
 31
0.0
  0
LINE
  5
1A9
330
47F
100
AcDbEntity
  8
0
  6
Continuous
 62
     7
100
AcDbLine
 10
80.0847689631
 20
118.9281652902
 30
0.0
 11
84.8924612708
 21
118.9281652902
 31
0.0
  0
LINE
  5
1AA
330
47F
100
AcDbEntity
  8
0
  6
Continuous
 62
     7
100
AcDbLine
 10
80.0847689631
 20
118.9281652902
 30
0.0
 11
77.0847689631
 21
118.9281652902
 31
0.0
  0
LINE
  5
1AB
330
47F
100
AcDbEntity
  8
0
  6
Continuous
 62
     7
100
AcDbLine
 10
77.0847689631
 20
118.9281652902
 30
0.0
 11
55.2959496354
 21
118.9281652902
 31
0.0
  0
TEXT
  5
1AC
330
47F
100
AcDbEntity
  8
0
  6
Continuous
 62
     7
100
AcDbText
 10
55.2959496354
 20
3339.0975145455
 30
8.1457613325
 40
2.5
  1
3
 41
0.7
 11
55.2959496354
 21
3341.5975145455
 31
8.1457613325
100
AcDbText
 73
     3
  0
ENDBLK
  5
1A4
330
47F
100
AcDbEntity
  8
0
100
AcDbBlockEnd
  0
BLOCK
  5
480
330
481
100
AcDbEntity
  8
0
100
AcDbBlockBegin
  2
_D_19
 70
     0
 10
0.0
 20
0.0
 30
0.0
  3
_D_19
  1

  0
SOLID
  5
1B1
330
481
100
AcDbEntity
  8
0
  6
Continuous
 62
     7
100
AcDbTrace
 10
194.2569239789
 20
165.9453748209
 30
0.0
 11
193.8723085943
 21
163.4453748209
 31
0.0
 12
194.6415393635
 22
163.4453748209
 32
0.0
 13
194.6415393635
 23
163.4453748209
 33
0.0
  0
SOLID
  5
1B2
330
481
100
AcDbEntity
  8
0
  6
Continuous
 62
     7
100
AcDbTrace
 10
194.2569239789
 20
125.9453748209
 30
0.0
 11
194.6415393635
 21
128.4453748209
 31
0.0
 12
193.8723085943
 22
128.4453748209
 32
0.0
 13
193.8723085943
 23
128.4453748209
 33
0.0
  0
LINE
  5
1B3
330
481
100
AcDbEntity
  8
0
  6
Continuous
 62
     7
100
AcDbLine
 10
149.6705554007
 20
165.9453748209
 30
0.0
 11
195.2569239789
 21
165.9453748209
 31
0.0
  0
LINE
  5
1B4
330
481
100
AcDbEntity
  8
0
  6
Continuous
 62
     7
100
AcDbLine
 10
80.0847689631
 20
125.9453748209
 30
0.0
 11
195.2569239789
 21
125.9453748209
 31
0.0
  0
LINE
  5
1B5
330
481
100
AcDbEntity
  8
0
  6
Continuous
 62
     7
100
AcDbLine
 10
194.2569239789
 20
165.9453748209
 30
0.0
 11
194.2569239789
 21
125.9453748209
 31
0.0
  0
TEXT
  5
1B6
330
481
100
AcDbEntity
  8
0
  6
Continuous
 62
     7
100
AcDbText
 10
-3025.9124252764
 20
144.0356525961
 30
8.1457613325
 40
2.5
  1
40
 50
90.0
 41
0.7
 11
-3028.4124252764
 21
144.0356525961
 31
8.1457613325
100
AcDbText
 73
     3
  0
ENDBLK
  5
1B0
330
481
100
AcDbEntity
  8
0
100
AcDbBlockEnd
  0
BLOCK
  5
482
330
483
100
AcDbEntity
  8
0
100
AcDbBlockBegin
  2
_D_20
 70
     0
 10
0.0
 20
0.0
 30
0.0
  3
_D_20
  1

  0
SOLID
  5
1BB
330
483
100
AcDbEntity
  8
0
  6
Continuous
 62
     7
100
AcDbTrace
 10
137.0847689631
 20
154.6759801747
 30
0.0
 11
139.5847689631
 21
154.2913647901
 31
0.0
 12
139.5847689631
 22
155.0605955594
 32
0.0
 13
139.5847689631
 23
155.0605955594
 33
0.0
  0
SOLID
  5
1BC
330
483
100
AcDbEntity
  8
0
  6
Continuous
 62
     7
100
AcDbTrace
 10
127.0847689631
 20
154.6759801747
 30
0.0
 11
124.5847689631
 21
155.0605955594
 31
0.0
 12
124.5847689631
 22
154.2913647901
 32
0.0
 13
124.5847689631
 23
154.2913647901
 33
0.0
  0
LINE
  5
1BD
330
483
100
AcDbEntity
  8
0
  6
Continuous
 62
     7
100
AcDbLine
 10
137.0847689631
 20
182.3453748209
 30
0.0
 11
137.0847689631
 21
153.6759801747
 31
0.0
  0
LINE
  5
1BE
330
483
100
AcDbEntity
  8
0
  6
Continuous
 62
     7
100
AcDbLine
 10
127.0847689631
 20
177.8453748209
 30
0.0
 11
127.0847689631
 21
153.6759801747
 31
0.0
  0
LINE
  5
1BF
330
483
100
AcDbEntity
  8
0
  6
Continuous
 62
     7
100
AcDbLine
 10
137.0847689631
 20
154.6759801747
 30
0.0
 11
141.8924612708
 21
154.6759801747
 31
0.0
  0
LINE
  5
1C0
330
483
100
AcDbEntity
  8
0
  6
Continuous
 62
     7
100
AcDbLine
 10
137.0847689631
 20
154.6759801747
 30
0.0
 11
127.0847689631
 21
154.6759801747
 31
0.0
  0
LINE
  5
1C1
330
483
100
AcDbEntity
  8
0
  6
Continuous
 62
     7
100
AcDbLine
 10
127.0847689631
 20
154.6759801747
 30
0.0
 11
122.2770766554
 21
154.6759801747
 31
0.0
  0
TEXT
  5
1C2
330
483
100
AcDbEntity
  8
0
  6
Continuous
 62
     7
100
AcDbText
 10
130.1750467383
 20
3374.84532943
 30
8.1457613325
 40
2.5
  1
10
 41
0.7
 11
130.1750467383
 21
3377.34532943
 31
8.1457613325
100
AcDbText
 73
     3
  0
ENDBLK
  5
1BA
330
483
100
AcDbEntity
  8
0
100
AcDbBlockEnd
  0
BLOCK
  5
484
330
485
100
AcDbEntity
  8
0
100
AcDbBlockBegin
  2
_D_21
 70
     0
 10
0.0
 20
0.0
 30
0.0
  3
_D_21
  1

  0
SOLID
  5
1C7
330
485
100
AcDbEntity
  8
0
  6
Continuous
 62
     7
100
AcDbTrace
 10
147.0847689631
 20
154.6759801747
 30
0.0
 11
149.5847689631
 21
154.2913647901
 31
0.0
 12
149.5847689631
 22
155.0605955594
 32
0.0
 13
149.5847689631
 23
155.0605955594
 33
0.0
  0
SOLID
  5
1C8
330
485
100
AcDbEntity
  8
0
  6
Continuous
 62
     7
100
AcDbTrace
 10
137.0847689631
 20
154.6759801747
 30
0.0
 11
134.5847689631
 21
155.0605955594
 31
0.0
 12
134.5847689631
 22
154.2913647901
 32
0.0
 13
134.5847689631
 23
154.2913647901
 33
0.0
  0
LINE
  5
1C9
330
485
100
AcDbEntity
  8
0
  6
Continuous
 62
     7
100
AcDbLine
 10
147.0847689631
 20
177.8453748209
 30
0.0
 11
147.0847689631
 21
153.6759801747
 31
0.0
  0
LINE
  5
1CA
330
485
100
AcDbEntity
  8
0
  6
Continuous
 62
     7
100
AcDbLine
 10
137.0847689631
 20
182.3453748209
 30
0.0
 11
137.0847689631
 21
153.6759801747
 31
0.0
  0
LINE
  5
1CB
330
485
100
AcDbEntity
  8
0
  6
Continuous
 62
     7
100
AcDbLine
 10
147.0847689631
 20
154.6759801747
 30
0.0
 11
151.8924612708
 21
154.6759801747
 31
0.0
  0
LINE
  5
1CC
330
485
100
AcDbEntity
  8
0
  6
Continuous
 62
     7
100
AcDbLine
 10
147.0847689631
 20
154.6759801747
 30
0.0
 11
137.0847689631
 21
154.6759801747
 31
0.0
  0
LINE
  5
1CD
330
485
100
AcDbEntity
  8
0
  6
Continuous
 62
     7
100
AcDbLine
 10
137.0847689631
 20
154.6759801747
 30
0.0
 11
132.2770766554
 21
154.6759801747
 31
0.0
  0
TEXT
  5
1CE
330
485
100
AcDbEntity
  8
0
  6
Continuous
 62
     7
100
AcDbText
 10
140.1750467383
 20
3374.84532943
 30
8.1457613325
 40
2.5
  1
10
 41
0.7
 11
140.1750467383
 21
3377.34532943
 31
8.1457613325
100
AcDbText
 73
     3
  0
ENDBLK
  5
1C6
330
485
100
AcDbEntity
  8
0
100
AcDbBlockEnd
  0
BLOCK
  5
486
330
487
100
AcDbEntity
  8
0
100
AcDbBlockBegin
  2
_D_22
 70
     0
 10
0.0
 20
0.0
 30
0.0
  3
_D_22
  1

  0
SOLID
  5
1D3
330
487
100
AcDbEntity
  8
0
  6
Continuous
 62
     7
100
AcDbTrace
 10
109.5679727043
 20
195.9453748209
 30
0.0
 11
109.9525880889
 21
198.4453748209
 31
0.0
 12
109.1833573197
 22
198.4453748209
 32
0.0
 13
109.1833573197
 23
198.4453748209
 33
0.0
  0
SOLID
  5
1D4
330
487
100
AcDbEntity
  8
0
  6
Continuous
 62
     7
100
AcDbTrace
 10
109.5679727043
 20
182.9453748209
 30
0.0
 11
109.1833573197
 21
180.4453748209
 31
0.0
 12
109.9525880889
 22
180.4453748209
 32
0.0
 13
109.9525880889
 23
180.4453748209
 33
0.0
  0
LINE
  5
1D5
330
487
100
AcDbEntity
  8
0
  6
Continuous
 62
     7
100
AcDbLine
 10
123.4847689631
 20
195.9453748209
 30
0.0
 11
108.5679727043
 21
195.9453748209
 31
0.0
  0
LINE
  5
1D6
330
487
100
AcDbEntity
  8
0
  6
Continuous
 62
     7
100
AcDbLine
 10
121.9847689631
 20
182.9453748209
 30
0.0
 11
108.5679727043
 21
182.9453748209
 31
0.0
  0
LINE
  5
1D7
330
487
100
AcDbEntity
  8
0
  6
Continuous
 62
     7
100
AcDbLine
 10
109.5679727043
 20
195.9453748209
 30
0.0
 11
109.5679727043
 21
200.7530671286
 31
0.0
  0
LINE
  5
1D8
330
487
100
AcDbEntity
  8
0
  6
Continuous
 62
     7
100
AcDbLine
 10
109.5679727043
 20
195.9453748209
 30
0.0
 11
109.5679727043
 21
182.9453748209
 31
0.0
  0
LINE
  5
1D9
330
487
100
AcDbEntity
  8
0
  6
Continuous
 62
     7
100
AcDbLine
 10
109.5679727043
 20
182.9453748209
 30
0.0
 11
109.5679727043
 21
178.1376825133
 31
0.0
  0
TEXT
  5
1DA
330
487
100
AcDbEntity
  8
0
  6
Continuous
 62
     7
100
AcDbText
 10
-3110.601376551
 20
187.5356525961
 30
8.1457613325
 40
2.5
  1
13
 50
90.0
 41
0.7
 11
-3113.101376551
 21
187.5356525961
 31
8.1457613325
100
AcDbText
 73
     3
  0
ENDBLK
  5
1D2
330
487
100
AcDbEntity
  8
0
100
AcDbBlockEnd
  0
BLOCK
  5
488
330
489
100
AcDbEntity
  8
0
100
AcDbBlockBegin
  2
_D_23
 70
     0
 10
0.0
 20
0.0
 30
0.0
  3
_D_23
  1

  0
SOLID
  5
1DF
330
489
100
AcDbEntity
  8
0
  6
Continuous
 62
     7
100
AcDbTrace
 10
94.4369477733
 20
195.9453748209
 30
0.0
 11
94.821563158
 21
198.4453748209
 31
0.0
 12
94.0523323887
 22
198.4453748209
 32
0.0
 13
94.0523323887
 23
198.4453748209
 33
0.0
  0
SOLID
  5
1E0
330
489
100
AcDbEntity
  8
0
  6
Continuous
 62
     7
100
AcDbTrace
 10
94.4369477733
 20
181.4453748209
 30
0.0
 11
94.0523323887
 21
178.9453748209
 31
0.0
 12
94.821563158
 22
178.9453748209
 32
0.0
 13
94.821563158
 23
178.9453748209
 33
0.0
  0
LINE
  5
1E1
330
489
100
AcDbEntity
  8
0
  6
Continuous
 62
     7
100
AcDbLine
 10
123.4847689631
 20
195.9453748209
 30
0.0
 11
93.4369477733
 21
195.9453748209
 31
0.0
  0
LINE
  5
1E2
330
489
100
AcDbEntity
  8
0
  6
Continuous
 62
     7
100
AcDbLine
 10
122.010643153
 20
181.4453748209
 30
0.0
 11
93.4369477733
 21
181.4453748209
 31
0.0
  0
LINE
  5
1E3
330
489
100
AcDbEntity
  8
0
  6
Continuous
 62
     7
100
AcDbLine
 10
94.4369477733
 20
195.9453748209
 30
0.0
 11
94.4369477733
 21
200.7530671286
 31
0.0
  0
LINE
  5
1E4
330
489
100
AcDbEntity
  8
0
  6
Continuous
 62
     7
100
AcDbLine
 10
94.4369477733
 20
195.9453748209
 30
0.0
 11
94.4369477733
 21
181.4453748209
 31
0.0
  0
LINE
  5
1E5
330
489
100
AcDbEntity
  8
0
  6
Continuous
 62
     7
100
AcDbLine
 10
94.4369477733
 20
181.4453748209
 30
0.0
 11
94.4369477733
 21
176.6376825133
 31
0.0
  0
TEXT
  5
1E6
330
489
100
AcDbEntity
  8
0
  6
Continuous
 62
     7
100
AcDbText
 10
-3125.7324014819
 20
182.6814859552
 30
8.1457613325
 40
2.5
  1
14.5
 50
90.0
 41
0.7
 11
-3128.2324014819
 21
182.6814859552
 31
8.1457613325
100
AcDbText
 73
     3
  0
TEXT
  5
1E7
330
489
100
AcDbEntity
  8
0
  6
Continuous
 62
     7
100
AcDbText
 10
-3125.7324014819
 20
189.3655135674
 30
8.1457613325
 40
2.5
  1
 PZ
 50
90.0
 41
0.7
 11
-3128.2324014819
 21
189.3655135674
 31
8.1457613325
100
AcDbText
 73
     3
  0
ENDBLK
  5
1DE
330
489
100
AcDbEntity
  8
0
100
AcDbBlockEnd
  0
BLOCK
  5
48A
330
48B
100
AcDbEntity
  8
0
100
AcDbBlockBegin
  2
_D_24
 70
     0
 10
0.0
 20
0.0
 30
0.0
  3
_D_24
  1

  0
SOLID
  5
1EC
330
48B
100
AcDbEntity
  8
0
  6
Continuous
 62
     7
100
AcDbTrace
 10
66.0847689631
 20
264.459492468
 30
0.0
 11
63.5847689631
 21
264.8441078526
 31
0.0
 12
63.5847689631
 22
264.0748770833
 32
0.0
 13
63.5847689631
 23
264.0748770833
 33
0.0
  0
SOLID
  5
1ED
330
48B
100
AcDbEntity
  8
0
  6
Continuous
 62
     7
100
AcDbTrace
 10
77.0847689631
 20
264.459492468
 30
0.0
 11
79.5847689631
 21
264.0748770833
 31
0.0
 12
79.5847689631
 22
264.8441078526
 32
0.0
 13
79.5847689631
 23
264.8441078526
 33
0.0
  0
LINE
  5
1EE
330
48B
100
AcDbEntity
  8
0
  6
Continuous
 62
     7
100
AcDbLine
 10
66.0847689631
 20
279.2453748209
 30
0.0
 11
66.0847689631
 21
263.459492468
 31
0.0
  0
LINE
  5
1EF
330
48B
100
AcDbEntity
  8
0
  6
Continuous
 62
     7
100
AcDbLine
 10
66.0847689631
 20
264.459492468
 30
0.0
 11
61.2770766554
 21
264.459492468
 31
0.0
  0
LINE
  5
1F0
330
48B
100
AcDbEntity
  8
0
  6
Continuous
 62
     7
100
AcDbLine
 10
66.0847689631
 20
264.459492468
 30
0.0
 11
77.0847689631
 21
264.459492468
 31
0.0
  0
LINE
  5
1F1
330
48B
100
AcDbEntity
  8
0
  6
Continuous
 62
     7
100
AcDbLine
 10
77.0847689631
 20
264.459492468
 30
0.0
 11
81.8924612708
 21
264.459492468
 31
0.0
  0
TEXT
  5
1F2
330
48B
100
AcDbEntity
  8
0
  6
Continuous
 62
     7
100
AcDbText
 10
69.6750467383
 20
3484.6288417232
 30
8.1457613325
 40
2.5
  1
12
 41
0.7
 11
69.6750467383
 21
3487.1288417232
 31
8.1457613325
100
AcDbText
 73
     3
  0
ENDBLK
  5
1EB
330
48B
100
AcDbEntity
  8
0
100
AcDbBlockEnd
  0
BLOCK
  5
48C
330
48D
100
AcDbEntity
  8
0
100
AcDbBlockBegin
  2
_D_25
 70
     0
 10
0.0
 20
0.0
 30
0.0
  3
_D_25
  1

  0
SOLID
  5
1F7
330
48D
100
AcDbEntity
  8
0
  6
Continuous
 62
     7
100
AcDbTrace
 10
129.0051442617
 20
184.6981322807
 30
0.0
 11
131.1109426197
 21
186.0993968058
 31
0.0
 12
130.592375324
 22
186.6675551781
 32
0.0
 13
130.592375324
 23
186.6675551781
 33
0.0
  0
SOLID
  5
1F8
330
48D
100
AcDbEntity
  8
0
  6
Continuous
 62
     7
100
AcDbTrace
 10
125.1643936645
 20
181.1926173612
 30
0.0
 11
123.0585953065
 21
179.7913528361
 31
0.0
 12
123.5771626023
 22
179.2231944638
 32
0.0
 13
123.5771626023
 23
179.2231944638
 33
0.0
  0
LINE
  5
1F9
330
48D
100
AcDbEntity
  8
0
  6
Continuous
 62
     7
100
AcDbLine
 10
125.1643936645
 20
181.1926173612
 30
0.0
 11
114.474250969
 21
171.4355519746
 31
0.0
  0
LINE
  5
1FA
330
48D
100
AcDbEntity
  8
0
  6
Continuous
 62
     7
100
AcDbLine
 10
129.0051442617
 20
184.6981322807
 30
0.0
 11
132.5561340889
 21
187.9391778793
 31
0.0
  0
LINE
  5
1FB
330
48D
100
AcDbEntity
  8
0
  6
Continuous
 62
     7
100
AcDbLine
 10
125.1643936645
 20
181.1926173612
 30
0.0
 11
129.0051442617
 21
184.6981322807
 31
0.0
  0
TEXT
  5
1FC
330
48D
100
AcDbEntity
  8
0
  6
Continuous
 62
     7
100
AcDbText
 10
-2056.348691103924
 20
2549.856326850533
 30
8.1457613325
 40
2.5
  1
%%c
 50
42.3872066913
 41
0.7
 11
-2058.0340348152
 21
2551.7028415607
 31
8.1457613325
100
AcDbText
 73
     3
  0
TEXT
  5
1FD
330
48D
100
AcDbEntity
  8
0
  6
Continuous
 62
     7
100
AcDbText
 10
-2053.661179768825
 20
2552.318663849633
 30
8.1457613325
 40
2.5
  1
5.2
 50
42.3872066913
 41
0.7
 11
-2055.3465234801
 21
2554.1651785598
 31
8.1457613325
100
AcDbText
 73
     3
  0
ENDBLK
  5
1F6
330
48D
100
AcDbEntity
  8
0
100
AcDbBlockEnd
  0
BLOCK
  5
48E
330
48F
100
AcDbEntity
  8
0
100
AcDbBlockBegin
  2
_D_26
 70
     0
 10
0.0
 20
0.0
 30
0.0
  3
_D_26
  1

  0
SOLID
  5
202
330
48F
100
AcDbEntity
  8
0
  6
Continuous
 62
     7
100
AcDbTrace
 10
131.9307501789
 20
292.5954745847
 30
0.0
 11
129.418850228
 21
292.8926069303
 31
0.0
 12
129.4456959947
 22
292.1238447557
 32
0.0
 13
129.4456959947
 23
292.1238447557
 33
0.0
  0
SOLID
  5
203
330
48F
100
AcDbEntity
  8
0
  6
Continuous
 62
     7
100
AcDbTrace
 10
140.9252676221
 20
292.9095700551
 30
0.0
 11
143.437167573
 21
292.6124377095
 31
0.0
 12
143.4103218063
 22
293.3811998841
 32
0.0
 13
143.4103218063
 23
293.3811998841
 33
0.0
  0
LINE
  5
204
330
48F
100
AcDbEntity
  8
0
  6
Continuous
 62
     7
100
AcDbLine
 10
132.4304625064
 20
278.2855858074
 30
0.0
 11
131.8958506822
 21
293.5948654118
 31
0.0
  0
LINE
  5
205
330
48F
100
AcDbEntity
  8
0
  6
Continuous
 62
     7
100
AcDbLine
 10
141.4249799495
 20
278.5996812777
 30
0.0
 11
140.8903681254
 21
293.9089608821
 31
0.0
  0
LINE
  5
206
330
48F
100
AcDbEntity
  8
0
  6
Continuous
 62
     7
100
AcDbLine
 10
131.9307501789
 20
292.5954745847
 30
0.0
 11
127.1259865875
 21
292.4276885429
 31
0.0
  0
LINE
  5
207
330
48F
100
AcDbEntity
  8
0
  6
Continuous
 62
     7
100
AcDbLine
 10
131.9307501789
 20
292.5954745847
 30
0.0
 11
140.9252676221
 21
292.9095700551
 31
0.0
  0
LINE
  5
208
330
48F
100
AcDbEntity
  8
0
  6
Continuous
 62
     7
100
AcDbLine
 10
140.9252676221
 20
292.9095700551
 30
0.0
 11
145.7300312135
 21
293.0773560969
 31
0.0
  0
INSERT
  5
210
330
48F
100
AcDbEntity
  8
0
  6
Continuous
 62
     7
100
AcDbBlockReference
  2
SW_SYMBOL_MOD_BOX
 10
132.3041888508
 20
292.9700705077
 30
0.0
 41
0.0032226693
 42
0.0032226693
 43
0.0032226693
 50
2.0
  0
TEXT
  5
211
330
48F
100
AcDbEntity
  8
0
  6
Continuous
 62
     7
100
AcDbText
 10
23.38528876135625
 20
3510.944117776252
 30
8.1457613325
 40
2.5
  1
8/
 50
2.0
 41
0.7
 11
23.2980400196
 21
3513.4425948438
 31
8.1457613325
100
AcDbText
 73
     3
  0
TEXT
  5
212
330
48F
100
AcDbEntity
  8
0
  6
Continuous
 62
     7
100
AcDbText
 10
26.24812689735625
 20
3511.044090286852
 30
8.1457613325
 40
2.5
  1
9
 50
2.0
 41
0.7
 11
26.1608781556
 21
3513.5425673544
 31
8.1457613325
100
AcDbText
 73
     3
  0
ENDBLK
  5
201
330
48F
100
AcDbEntity
  8
0
100
AcDbBlockEnd
  0
BLOCK
  5
490
330
491
100
AcDbEntity
  8
0
100
AcDbBlockBegin
  2
SW_SYMBOL_MOD_BOX
 70
     0
 10
0.0
 20
0.0
 30
0.0
  3
SW_SYMBOL_MOD_BOX
  1

  0
LINE
  5
20C
330
491
100
AcDbEntity
  8
0
  6
Continuous
 62
     0
100
AcDbLine
 10
200.0
 20
200.0
 30
0.0
 11
800.0
 21
200.0
 31
0.0
  0
LINE
  5
20D
330
491
100
AcDbEntity
  8
0
  6
Continuous
 62
     0
100
AcDbLine
 10
200.0
 20
200.0
 30
0.0
 11
200.0
 21
800.0
 31
0.0
  0
LINE
  5
20E
330
491
100
AcDbEntity
  8
0
  6
Continuous
 62
     0
100
AcDbLine
 10
200.0
 20
800.0
 30
0.0
 11
800.0
 21
800.0
 31
0.0
  0
LINE
  5
20F
330
491
100
AcDbEntity
  8
0
  6
Continuous
 62
     0
100
AcDbLine
 10
800.0
 20
800.0
 30
0.0
 11
800.0
 21
200.0
 31
0.0
  0
ENDBLK
  5
20B
330
491
100
AcDbEntity
  8
0
100
AcDbBlockEnd
  0
BLOCK
  5
492
330
493
100
AcDbEntity
  8
0
100
AcDbBlockBegin
  2
_D_27
 70
     0
 10
0.0
 20
0.0
 30
0.0
  3
_D_27
  1

  0
SOLID
  5
217
330
493
100
AcDbEntity
  8
0
  6
Continuous
 62
     7
100
AcDbTrace
 10
35.0847689631
 20
295.2453748209
 30
0.0
 11
35.4693843477
 21
297.7453748209
 31
0.0
 12
34.7001535785
 22
297.7453748209
 32
0.0
 13
34.7001535785
 23
297.7453748209
 33
0.0
  0
SOLID
  5
218
330
493
100
AcDbEntity
  8
0
  6
Continuous
 62
     7
100
AcDbTrace
 10
35.0847689631
 20
325.9453748209
 30
0.0
 11
34.7001535785
 21
323.4453748209
 31
0.0
 12
35.4693843477
 22
323.4453748209
 32
0.0
 13
35.4693843477
 23
323.4453748209
 33
0.0
  0
LINE
  5
219
330
493
100
AcDbEntity
  8
0
  6
Continuous
 62
     7
100
AcDbLine
 10
64.2257594689
 20
295.2453748209
 30
0.0
 11
34.0847689631
 21
295.2453748209
 31
0.0
  0
LINE
  5
21A
330
493
100
AcDbEntity
  8
0
  6
Continuous
 62
     7
100
AcDbLine
 10
80.0847689631
 20
325.9453748209
 30
0.0
 11
34.0847689631
 21
325.9453748209
 31
0.0
  0
LINE
  5
21B
330
493
100
AcDbEntity
  8
0
  6
Continuous
 62
     7
100
AcDbLine
 10
35.0847689631
 20
295.2453748209
 30
0.0
 11
35.0847689631
 21
325.9453748209
 31
0.0
  0
TEXT
  5
21C
330
493
100
AcDbEntity
  8
0
  6
Continuous
 62
     7
100
AcDbText
 10
-3185.0845802922
 20
307.2533610148
 30
8.1457613325
 40
2.5
  1
30.7
 50
90.0
 41
0.7
 11
-3187.5845802922
 21
307.2533610148
 31
8.1457613325
100
AcDbText
 73
     3
  0
ENDBLK
  5
216
330
493
100
AcDbEntity
  8
0
100
AcDbBlockEnd
  0
BLOCK
  5
494
330
495
100
AcDbEntity
  8
0
100
AcDbBlockBegin
  2
SW_NOTE_0
 70
     0
 10
0.0
 20
0.0
 30
0.0
  3
SW_NOTE_0
  1

  0
LINE
  5
220
330
495
100
AcDbEntity
  8
0
  6
Continuous
 62
     0
100
AcDbLine
 10
-7.3488553074
 20
9.0373392647
 30
0.0
 11
-2.858546597
 21
9.0373392647
 31
0.0
  0
TEXT
  5
221
330
495
100
AcDbEntity
  8
0
  6
Continuous
 62
     0
100
AcDbText
 10
-7.8330729901
 20
3229.2487708508
 30
0.0
 40
2.5
  1
PZ
 41
0.7
 11
-7.8330729901
 21
3231.7487708508
 31
0.0
100
AcDbText
 73
     3
  0
LINE
  5
222
330
495
100
AcDbEntity
  8
0
  6
Continuous
 62
     0
100
AcDbLine
 10
-2.858546597
 20
9.0373392647
 30
0.0
 11
0.0
 21
0.0
 31
0.0
  0
SOLID
  5
223
330
495
100
AcDbEntity
  8
0
  6
Continuous
 62
     0
100
AcDbTrace
 10
0.0
 20
0.0
 30
0.0
 11
-0.3872352187
 21
2.4995955432
 31
0.0
 12
-1.1206519037
 22
2.267612909
 32
0.0
 13
-1.1206519037
 23
2.267612909
 33
0.0
  0
ENDBLK
  5
21F
330
495
100
AcDbEntity
  8
0
100
AcDbBlockEnd
  0
BLOCK
  5
496
330
497
100
AcDbEntity
  8
0
100
AcDbBlockBegin
  2
SW_CENTERMARKSYMBOL_0
 70
     0
 10
0.0
 20
0.0
 30
0.0
  3
SW_CENTERMARKSYMBOL_0
  1

  0
LINE
  5
228
330
497
100
AcDbEntity
  8
0
  6
Continuous
 62
     0
100
AcDbLine
 10
0.0
 20
0.0
 30
0.0
 11
0.0
 21
2.5
 31
0.0
  0
LINE
  5
229
330
497
100
AcDbEntity
  8
0
  6
Continuous
 62
     0
100
AcDbLine
 10
0.0
 20
0.0
 30
0.0
 11
-2.5
 21
0.0
 31
0.0
  0
LINE
  5
22A
330
497
100
AcDbEntity
  8
0
  6
Continuous
 62
     0
100
AcDbLine
 10
0.0
 20
0.0
 30
0.0
 11
0.0
 21
-2.5
 31
0.0
  0
LINE
  5
22B
330
497
100
AcDbEntity
  8
0
  6
Continuous
 62
     0
100
AcDbLine
 10
0.0
 20
0.0
 30
0.0
 11
2.5
 21
0.0
 31
0.0
  0
LINE
  5
22C
330
497
100
AcDbEntity
  8
0
  6
Continuous
 62
     0
100
AcDbLine
 10
0.0
 20
5.0
 30
0.0
 11
0.0
 21
11.15
 31
0.0
  0
LINE
  5
22D
330
497
100
AcDbEntity
  8
0
  6
Continuous
 62
     0
100
AcDbLine
 10
-5.0
 20
0.0
 30
0.0
 11
-11.15
 21
0.0
 31
0.0
  0
LINE
  5
22E
330
497
100
AcDbEntity
  8
0
  6
Continuous
 62
     0
100
AcDbLine
 10
0.0
 20
-5.0
 30
0.0
 11
0.0
 21
-11.15
 31
0.0
  0
LINE
  5
22F
330
497
100
AcDbEntity
  8
0
  6
Continuous
 62
     0
100
AcDbLine
 10
5.0
 20
0.0
 30
0.0
 11
11.15
 21
0.0
 31
0.0
  0
ENDBLK
  5
227
330
497
100
AcDbEntity
  8
0
100
AcDbBlockEnd
  0
BLOCK
  5
498
330
499
100
AcDbEntity
  8
0
100
AcDbBlockBegin
  2
SW_CENTERMARKSYMBOL_1
 70
     0
 10
0.0
 20
0.0
 30
0.0
  3
SW_CENTERMARKSYMBOL_1
  1

  0
LINE
  5
234
330
499
100
AcDbEntity
  8
0
  6
Continuous
 62
     0
100
AcDbLine
 10
0.0
 20
0.0
 30
0.0
 11
0.0
 21
2.5
 31
0.0
  0
LINE
  5
235
330
499
100
AcDbEntity
  8
0
  6
Continuous
 62
     0
100
AcDbLine
 10
0.0
 20
0.0
 30
0.0
 11
-2.5
 21
0.0
 31
0.0
  0
LINE
  5
236
330
499
100
AcDbEntity
  8
0
  6
Continuous
 62
     0
100
AcDbLine
 10
0.0
 20
0.0
 30
0.0
 11
0.0
 21
-2.5
 31
0.0
  0
LINE
  5
237
330
499
100
AcDbEntity
  8
0
  6
Continuous
 62
     0
100
AcDbLine
 10
0.0
 20
0.0
 30
0.0
 11
2.5
 21
0.0
 31
0.0
  0
LINE
  5
238
330
499
100
AcDbEntity
  8
0
  6
Continuous
 62
     0
100
AcDbLine
 10
0.0
 20
5.0
 30
0.0
 11
0.0
 21
5.75
 31
0.0
  0
LINE
  5
239
330
499
100
AcDbEntity
  8
0
  6
Continuous
 62
     0
100
AcDbLine
 10
-5.0
 20
0.0
 30
0.0
 11
-5.75
 21
0.0
 31
0.0
  0
LINE
  5
23A
330
499
100
AcDbEntity
  8
0
  6
Continuous
 62
     0
100
AcDbLine
 10
0.0
 20
-5.0
 30
0.0
 11
0.0
 21
-5.75
 31
0.0
  0
LINE
  5
23B
330
499
100
AcDbEntity
  8
0
  6
Continuous
 62
     0
100
AcDbLine
 10
5.0
 20
0.0
 30
0.0
 11
5.75
 21
0.0
 31
0.0
  0
ENDBLK
  5
233
330
499
100
AcDbEntity
  8
0
100
AcDbBlockEnd
  0
BLOCK
  5
49A
330
49B
100
AcDbEntity
  8
0
100
AcDbBlockBegin
  2
SW_CENTERMARKSYMBOL_2
 70
     0
 10
0.0
 20
0.0
 30
0.0
  3
SW_CENTERMARKSYMBOL_2
  1

  0
LINE
  5
240
330
49B
100
AcDbEntity
  8
0
  6
Continuous
 62
     0
100
AcDbLine
 10
0.0
 20
0.0
 30
0.0
 11
0.0
 21
2.5
 31
0.0
  0
LINE
  5
241
330
49B
100
AcDbEntity
  8
0
  6
Continuous
 62
     0
100
AcDbLine
 10
0.0
 20
0.0
 30
0.0
 11
-2.5
 21
0.0
 31
0.0
  0
LINE
  5
242
330
49B
100
AcDbEntity
  8
0
  6
Continuous
 62
     0
100
AcDbLine
 10
0.0
 20
0.0
 30
0.0
 11
0.0
 21
-2.5
 31
0.0
  0
LINE
  5
243
330
49B
100
AcDbEntity
  8
0
  6
Continuous
 62
     0
100
AcDbLine
 10
0.0
 20
0.0
 30
0.0
 11
2.5
 21
0.0
 31
0.0
  0
LINE
  5
244
330
49B
100
AcDbEntity
  8
0
  6
Continuous
 62
     0
100
AcDbLine
 10
0.0
 20
5.0
 30
0.0
 11
0.0
 21
5.75
 31
0.0
  0
LINE
  5
245
330
49B
100
AcDbEntity
  8
0
  6
Continuous
 62
     0
100
AcDbLine
 10
-5.0
 20
0.0
 30
0.0
 11
-5.75
 21
0.0
 31
0.0
  0
LINE
  5
246
330
49B
100
AcDbEntity
  8
0
  6
Continuous
 62
     0
100
AcDbLine
 10
0.0
 20
-5.0
 30
0.0
 11
0.0
 21
-5.75
 31
0.0
  0
LINE
  5
247
330
49B
100
AcDbEntity
  8
0
  6
Continuous
 62
     0
100
AcDbLine
 10
5.0
 20
0.0
 30
0.0
 11
5.75
 21
0.0
 31
0.0
  0
ENDBLK
  5
23F
330
49B
100
AcDbEntity
  8
0
100
AcDbBlockEnd
  0
BLOCK
  5
49C
330
49D
100
AcDbEntity
  8
0
100
AcDbBlockBegin
  2
SW_CENTERMARKSYMBOL_3
 70
     0
 10
0.0
 20
0.0
 30
0.0
  3
SW_CENTERMARKSYMBOL_3
  1

  0
LINE
  5
24C
330
49D
100
AcDbEntity
  8
0
  6
Continuous
 62
     0
100
AcDbLine
 10
0.0
 20
0.0
 30
0.0
 11
0.0
 21
2.5
 31
0.0
  0
LINE
  5
24D
330
49D
100
AcDbEntity
  8
0
  6
Continuous
 62
     0
100
AcDbLine
 10
0.0
 20
0.0
 30
0.0
 11
-2.5
 21
0.0
 31
0.0
  0
LINE
  5
24E
330
49D
100
AcDbEntity
  8
0
  6
Continuous
 62
     0
100
AcDbLine
 10
0.0
 20
0.0
 30
0.0
 11
0.0
 21
-2.5
 31
0.0
  0
LINE
  5
24F
330
49D
100
AcDbEntity
  8
0
  6
Continuous
 62
     0
100
AcDbLine
 10
0.0
 20
0.0
 30
0.0
 11
2.5
 21
0.0
 31
0.0
  0
LINE
  5
250
330
49D
100
AcDbEntity
  8
0
  6
Continuous
 62
     0
100
AcDbLine
 10
0.0
 20
5.0
 30
0.0
 11
0.0
 21
6.25
 31
0.0
  0
LINE
  5
251
330
49D
100
AcDbEntity
  8
0
  6
Continuous
 62
     0
100
AcDbLine
 10
-5.0
 20
0.0
 30
0.0
 11
-6.25
 21
0.0
 31
0.0
  0
LINE
  5
252
330
49D
100
AcDbEntity
  8
0
  6
Continuous
 62
     0
100
AcDbLine
 10
0.0
 20
-5.0
 30
0.0
 11
0.0
 21
-6.25
 31
0.0
  0
LINE
  5
253
330
49D
100
AcDbEntity
  8
0
  6
Continuous
 62
     0
100
AcDbLine
 10
5.0
 20
0.0
 30
0.0
 11
6.25
 21
0.0
 31
0.0
  0
ENDBLK
  5
24B
330
49D
100
AcDbEntity
  8
0
100
AcDbBlockEnd
  0
BLOCK
  5
49E
330
49F
100
AcDbEntity
  8
0
100
AcDbBlockBegin
  2
SW_CENTERMARKSYMBOL_4
 70
     0
 10
0.0
 20
0.0
 30
0.0
  3
SW_CENTERMARKSYMBOL_4
  1

  0
LINE
  5
258
330
49F
100
AcDbEntity
  8
0
  6
Continuous
 62
     0
100
AcDbLine
 10
0.0
 20
0.0
 30
0.0
 11
0.0
 21
2.5
 31
0.0
  0
LINE
  5
259
330
49F
100
AcDbEntity
  8
0
  6
Continuous
 62
     0
100
AcDbLine
 10
0.0
 20
0.0
 30
0.0
 11
-2.5
 21
0.0
 31
0.0
  0
LINE
  5
25A
330
49F
100
AcDbEntity
  8
0
  6
Continuous
 62
     0
100
AcDbLine
 10
0.0
 20
0.0
 30
0.0
 11
0.0
 21
-2.5
 31
0.0
  0
LINE
  5
25B
330
49F
100
AcDbEntity
  8
0
  6
Continuous
 62
     0
100
AcDbLine
 10
0.0
 20
0.0
 30
0.0
 11
2.5
 21
0.0
 31
0.0
  0
LINE
  5
25C
330
49F
100
AcDbEntity
  8
0
  6
Continuous
 62
     0
100
AcDbLine
 10
0.0
 20
5.0
 30
0.0
 11
0.0
 21
5.75
 31
0.0
  0
LINE
  5
25D
330
49F
100
AcDbEntity
  8
0
  6
Continuous
 62
     0
100
AcDbLine
 10
-5.0
 20
0.0
 30
0.0
 11
-5.75
 21
0.0
 31
0.0
  0
LINE
  5
25E
330
49F
100
AcDbEntity
  8
0
  6
Continuous
 62
     0
100
AcDbLine
 10
0.0
 20
-5.0
 30
0.0
 11
0.0
 21
-5.75
 31
0.0
  0
LINE
  5
25F
330
49F
100
AcDbEntity
  8
0
  6
Continuous
 62
     0
100
AcDbLine
 10
5.0
 20
0.0
 30
0.0
 11
5.75
 21
0.0
 31
0.0
  0
ENDBLK
  5
257
330
49F
100
AcDbEntity
  8
0
100
AcDbBlockEnd
  0
BLOCK
  5
4A0
330
4A1
100
AcDbEntity
  8
0
100
AcDbBlockBegin
  2
SW_CENTERMARKSYMBOL_5
 70
     0
 10
0.0
 20
0.0
 30
0.0
  3
SW_CENTERMARKSYMBOL_5
  1

  0
LINE
  5
264
330
4A1
100
AcDbEntity
  8
0
  6
Continuous
 62
     0
100
AcDbLine
 10
0.0
 20
0.0
 30
0.0
 11
0.0
 21
2.5
 31
0.0
  0
LINE
  5
265
330
4A1
100
AcDbEntity
  8
0
  6
Continuous
 62
     0
100
AcDbLine
 10
0.0
 20
0.0
 30
0.0
 11
-2.5
 21
0.0
 31
0.0
  0
LINE
  5
266
330
4A1
100
AcDbEntity
  8
0
  6
Continuous
 62
     0
100
AcDbLine
 10
0.0
 20
0.0
 30
0.0
 11
0.0
 21
-2.5
 31
0.0
  0
LINE
  5
267
330
4A1
100
AcDbEntity
  8
0
  6
Continuous
 62
     0
100
AcDbLine
 10
0.0
 20
0.0
 30
0.0
 11
2.5
 21
0.0
 31
0.0
  0
LINE
  5
268
330
4A1
100
AcDbEntity
  8
0
  6
Continuous
 62
     0
100
AcDbLine
 10
0.0
 20
5.0
 30
0.0
 11
0.0
 21
5.75
 31
0.0
  0
LINE
  5
269
330
4A1
100
AcDbEntity
  8
0
  6
Continuous
 62
     0
100
AcDbLine
 10
-5.0
 20
0.0
 30
0.0
 11
-5.75
 21
0.0
 31
0.0
  0
LINE
  5
26A
330
4A1
100
AcDbEntity
  8
0
  6
Continuous
 62
     0
100
AcDbLine
 10
0.0
 20
-5.0
 30
0.0
 11
0.0
 21
-5.75
 31
0.0
  0
LINE
  5
26B
330
4A1
100
AcDbEntity
  8
0
  6
Continuous
 62
     0
100
AcDbLine
 10
5.0
 20
0.0
 30
0.0
 11
5.75
 21
0.0
 31
0.0
  0
ENDBLK
  5
263
330
4A1
100
AcDbEntity
  8
0
100
AcDbBlockEnd
  0
BLOCK
  5
4A2
330
4A3
100
AcDbEntity
  8
0
100
AcDbBlockBegin
  2
SW_CENTERMARKSYMBOL_6
 70
     0
 10
0.0
 20
0.0
 30
0.0
  3
SW_CENTERMARKSYMBOL_6
  1

  0
LINE
  5
270
330
4A3
100
AcDbEntity
  8
0
  6
Continuous
 62
     0
100
AcDbLine
 10
0.0
 20
0.0
 30
0.0
 11
0.0
 21
2.5
 31
0.0
  0
LINE
  5
271
330
4A3
100
AcDbEntity
  8
0
  6
Continuous
 62
     0
100
AcDbLine
 10
0.0
 20
0.0
 30
0.0
 11
-2.5
 21
0.0
 31
0.0
  0
LINE
  5
272
330
4A3
100
AcDbEntity
  8
0
  6
Continuous
 62
     0
100
AcDbLine
 10
0.0
 20
0.0
 30
0.0
 11
0.0
 21
-2.5
 31
0.0
  0
LINE
  5
273
330
4A3
100
AcDbEntity
  8
0
  6
Continuous
 62
     0
100
AcDbLine
 10
0.0
 20
0.0
 30
0.0
 11
2.5
 21
0.0
 31
0.0
  0
LINE
  5
274
330
4A3
100
AcDbEntity
  8
0
  6
Continuous
 62
     0
100
AcDbLine
 10
0.0
 20
5.0
 30
0.0
 11
0.0
 21
13.6
 31
0.0
  0
LINE
  5
275
330
4A3
100
AcDbEntity
  8
0
  6
Continuous
 62
     0
100
AcDbLine
 10
-5.0
 20
0.0
 30
0.0
 11
-13.6
 21
0.0
 31
0.0
  0
LINE
  5
276
330
4A3
100
AcDbEntity
  8
0
  6
Continuous
 62
     0
100
AcDbLine
 10
0.0
 20
-5.0
 30
0.0
 11
0.0
 21
-13.6
 31
0.0
  0
LINE
  5
277
330
4A3
100
AcDbEntity
  8
0
  6
Continuous
 62
     0
100
AcDbLine
 10
5.0
 20
0.0
 30
0.0
 11
13.6
 21
0.0
 31
0.0
  0
ENDBLK
  5
26F
330
4A3
100
AcDbEntity
  8
0
100
AcDbBlockEnd
  0
BLOCK
  5
4A4
330
4A5
100
AcDbEntity
  8
0
100
AcDbBlockBegin
  2
SW_CENTERMARKSYMBOL_7
 70
     0
 10
0.0
 20
0.0
 30
0.0
  3
SW_CENTERMARKSYMBOL_7
  1

  0
LINE
  5
27C
330
4A5
100
AcDbEntity
  8
0
  6
Continuous
 62
     0
100
AcDbLine
 10
0.0
 20
0.0
 30
0.0
 11
0.0
 21
2.5
 31
0.0
  0
LINE
  5
27D
330
4A5
100
AcDbEntity
  8
0
  6
Continuous
 62
     0
100
AcDbLine
 10
0.0
 20
0.0
 30
0.0
 11
-2.5
 21
0.0
 31
0.0
  0
LINE
  5
27E
330
4A5
100
AcDbEntity
  8
0
  6
Continuous
 62
     0
100
AcDbLine
 10
0.0
 20
0.0
 30
0.0
 11
0.0
 21
-2.5
 31
0.0
  0
LINE
  5
27F
330
4A5
100
AcDbEntity
  8
0
  6
Continuous
 62
     0
100
AcDbLine
 10
0.0
 20
0.0
 30
0.0
 11
2.5
 21
0.0
 31
0.0
  0
LINE
  5
280
330
4A5
100
AcDbEntity
  8
0
  6
Continuous
 62
     0
100
AcDbLine
 10
0.0
 20
5.0
 30
0.0
 11
0.0
 21
5.1
 31
0.0
  0
LINE
  5
281
330
4A5
100
AcDbEntity
  8
0
  6
Continuous
 62
     0
100
AcDbLine
 10
-5.0
 20
0.0
 30
0.0
 11
-5.1
 21
0.0
 31
0.0
  0
LINE
  5
282
330
4A5
100
AcDbEntity
  8
0
  6
Continuous
 62
     0
100
AcDbLine
 10
0.0
 20
-5.0
 30
0.0
 11
0.0
 21
-5.1
 31
0.0
  0
LINE
  5
283
330
4A5
100
AcDbEntity
  8
0
  6
Continuous
 62
     0
100
AcDbLine
 10
5.0
 20
0.0
 30
0.0
 11
5.1
 21
0.0
 31
0.0
  0
ENDBLK
  5
27B
330
4A5
100
AcDbEntity
  8
0
100
AcDbBlockEnd
  0
BLOCK
  5
4A6
330
4A7
100
AcDbEntity
  8
0
100
AcDbBlockBegin
  2
SW_CENTERMARKSYMBOL_8
 70
     0
 10
0.0
 20
0.0
 30
0.0
  3
SW_CENTERMARKSYMBOL_8
  1

  0
LINE
  5
288
330
4A7
100
AcDbEntity
  8
0
  6
Continuous
 62
     0
100
AcDbLine
 10
0.0
 20
0.0
 30
0.0
 11
0.0
 21
2.5
 31
0.0
  0
LINE
  5
289
330
4A7
100
AcDbEntity
  8
0
  6
Continuous
 62
     0
100
AcDbLine
 10
0.0
 20
0.0
 30
0.0
 11
-2.5
 21
0.0
 31
0.0
  0
LINE
  5
28A
330
4A7
100
AcDbEntity
  8
0
  6
Continuous
 62
     0
100
AcDbLine
 10
0.0
 20
0.0
 30
0.0
 11
0.0
 21
-2.5
 31
0.0
  0
LINE
  5
28B
330
4A7
100
AcDbEntity
  8
0
  6
Continuous
 62
     0
100
AcDbLine
 10
0.0
 20
0.0
 30
0.0
 11
2.5
 21
0.0
 31
0.0
  0
LINE
  5
28C
330
4A7
100
AcDbEntity
  8
0
  6
Continuous
 62
     0
100
AcDbLine
 10
0.0
 20
5.0
 30
0.0
 11
0.0
 21
5.1
 31
0.0
  0
LINE
  5
28D
330
4A7
100
AcDbEntity
  8
0
  6
Continuous
 62
     0
100
AcDbLine
 10
-5.0
 20
0.0
 30
0.0
 11
-5.1
 21
0.0
 31
0.0
  0
LINE
  5
28E
330
4A7
100
AcDbEntity
  8
0
  6
Continuous
 62
     0
100
AcDbLine
 10
0.0
 20
-5.0
 30
0.0
 11
0.0
 21
-5.1
 31
0.0
  0
LINE
  5
28F
330
4A7
100
AcDbEntity
  8
0
  6
Continuous
 62
     0
100
AcDbLine
 10
5.0
 20
0.0
 30
0.0
 11
5.1
 21
0.0
 31
0.0
  0
ENDBLK
  5
287
330
4A7
100
AcDbEntity
  8
0
100
AcDbBlockEnd
  0
BLOCK
  5
4A8
330
4A9
100
AcDbEntity
  8
0
100
AcDbBlockBegin
  2
SW_CENTERMARKSYMBOL_9
 70
     0
 10
0.0
 20
0.0
 30
0.0
  3
SW_CENTERMARKSYMBOL_9
  1

  0
LINE
  5
294
330
4A9
100
AcDbEntity
  8
0
  6
Continuous
 62
     0
100
AcDbLine
 10
0.0
 20
0.0
 30
0.0
 11
0.0
 21
2.5
 31
0.0
  0
LINE
  5
295
330
4A9
100
AcDbEntity
  8
0
  6
Continuous
 62
     0
100
AcDbLine
 10
0.0
 20
0.0
 30
0.0
 11
-2.5
 21
0.0
 31
0.0
  0
LINE
  5
296
330
4A9
100
AcDbEntity
  8
0
  6
Continuous
 62
     0
100
AcDbLine
 10
0.0
 20
0.0
 30
0.0
 11
0.0
 21
-2.5
 31
0.0
  0
LINE
  5
297
330
4A9
100
AcDbEntity
  8
0
  6
Continuous
 62
     0
100
AcDbLine
 10
0.0
 20
0.0
 30
0.0
 11
2.5
 21
0.0
 31
0.0
  0
LINE
  5
298
330
4A9
100
AcDbEntity
  8
0
  6
Continuous
 62
     0
100
AcDbLine
 10
0.0
 20
5.0
 30
0.0
 11
0.0
 21
5.1
 31
0.0
  0
LINE
  5
299
330
4A9
100
AcDbEntity
  8
0
  6
Continuous
 62
     0
100
AcDbLine
 10
-5.0
 20
0.0
 30
0.0
 11
-5.1
 21
0.0
 31
0.0
  0
LINE
  5
29A
330
4A9
100
AcDbEntity
  8
0
  6
Continuous
 62
     0
100
AcDbLine
 10
0.0
 20
-5.0
 30
0.0
 11
0.0
 21
-5.1
 31
0.0
  0
LINE
  5
29B
330
4A9
100
AcDbEntity
  8
0
  6
Continuous
 62
     0
100
AcDbLine
 10
5.0
 20
0.0
 30
0.0
 11
5.1
 21
0.0
 31
0.0
  0
ENDBLK
  5
293
330
4A9
100
AcDbEntity
  8
0
100
AcDbBlockEnd
  0
BLOCK
  5
4AA
330
4AB
100
AcDbEntity
  8
0
100
AcDbBlockBegin
  2
SW_CENTERMARKSYMBOL_10
 70
     0
 10
0.0
 20
0.0
 30
0.0
  3
SW_CENTERMARKSYMBOL_10
  1

  0
LINE
  5
2A0
330
4AB
100
AcDbEntity
  8
0
  6
Continuous
 62
     0
100
AcDbLine
 10
0.0
 20
0.0
 30
0.0
 11
0.0
 21
2.5
 31
0.0
  0
LINE
  5
2A1
330
4AB
100
AcDbEntity
  8
0
  6
Continuous
 62
     0
100
AcDbLine
 10
0.0
 20
0.0
 30
0.0
 11
-2.5
 21
0.0
 31
0.0
  0
LINE
  5
2A2
330
4AB
100
AcDbEntity
  8
0
  6
Continuous
 62
     0
100
AcDbLine
 10
0.0
 20
0.0
 30
0.0
 11
0.0
 21
-2.5
 31
0.0
  0
LINE
  5
2A3
330
4AB
100
AcDbEntity
  8
0
  6
Continuous
 62
     0
100
AcDbLine
 10
0.0
 20
0.0
 30
0.0
 11
2.5
 21
0.0
 31
0.0
  0
LINE
  5
2A4
330
4AB
100
AcDbEntity
  8
0
  6
Continuous
 62
     0
100
AcDbLine
 10
0.0
 20
5.0
 30
0.0
 11
0.0
 21
5.1
 31
0.0
  0
LINE
  5
2A5
330
4AB
100
AcDbEntity
  8
0
  6
Continuous
 62
     0
100
AcDbLine
 10
-5.0
 20
0.0
 30
0.0
 11
-5.1
 21
0.0
 31
0.0
  0
LINE
  5
2A6
330
4AB
100
AcDbEntity
  8
0
  6
Continuous
 62
     0
100
AcDbLine
 10
0.0
 20
-5.0
 30
0.0
 11
0.0
 21
-5.1
 31
0.0
  0
LINE
  5
2A7
330
4AB
100
AcDbEntity
  8
0
  6
Continuous
 62
     0
100
AcDbLine
 10
5.0
 20
0.0
 30
0.0
 11
5.1
 21
0.0
 31
0.0
  0
ENDBLK
  5
29F
330
4AB
100
AcDbEntity
  8
0
100
AcDbBlockEnd
  0
BLOCK
  5
4AC
330
4AD
100
AcDbEntity
  8
0
100
AcDbBlockBegin
  2
_D_28
 70
     0
 10
0.0
 20
0.0
 30
0.0
  3
_D_28
  1

  0
SOLID
  5
3A3
330
4AD
100
AcDbEntity
  8
0
  6
Continuous
 62
     7
100
AcDbTrace
 10
246.098908591
 20
252.8534773957
 30
0.0
 11
243.598908591
 21
253.2380927804
 31
0.0
 12
243.598908591
 22
252.4688620111
 32
0.0
 13
243.598908591
 23
252.4688620111
 33
0.0
  0
SOLID
  5
3A4
330
4AD
100
AcDbEntity
  8
0
  6
Continuous
 62
     7
100
AcDbTrace
 10
254.098908591
 20
252.8534773957
 30
0.0
 11
256.598908591
 21
252.4688620111
 31
0.0
 12
256.598908591
 22
253.2380927804
 32
0.0
 13
256.598908591
 23
253.2380927804
 33
0.0
  0
LINE
  5
3A5
330
4AD
100
AcDbEntity
  8
0
  6
Continuous
 62
     7
100
AcDbLine
 10
246.098908591
 20
234.6453748209
 30
0.0
 11
246.098908591
 21
253.8534773957
 31
0.0
  0
LINE
  5
3A6
330
4AD
100
AcDbEntity
  8
0
  6
Continuous
 62
     7
100
AcDbLine
 10
254.098908591
 20
234.6453748209
 30
0.0
 11
254.098908591
 21
253.8534773957
 31
0.0
  0
LINE
  5
3A7
330
4AD
100
AcDbEntity
  8
0
  6
Continuous
 62
     7
100
AcDbLine
 10
246.098908591
 20
252.8534773957
 30
0.0
 11
241.2912162833
 21
252.8534773957
 31
0.0
  0
LINE
  5
3A8
330
4AD
100
AcDbEntity
  8
0
  6
Continuous
 62
     7
100
AcDbLine
 10
246.098908591
 20
252.8534773957
 30
0.0
 11
254.098908591
 21
252.8534773957
 31
0.0
  0
LINE
  5
3A9
330
4AD
100
AcDbEntity
  8
0
  6
Continuous
 62
     7
100
AcDbLine
 10
254.098908591
 20
252.8534773957
 30
0.0
 11
258.9066008987
 21
252.8534773957
 31
0.0
  0
TEXT
  5
3AA
330
4AD
100
AcDbEntity
  8
0
  6
Continuous
 62
     7
100
AcDbText
 10
249.1440474786
 20
3473.022826651
 30
-53.1655918467
 40
2.5
  1
8
 41
0.7
 11
249.1440474786
 21
3475.522826651
 31
-53.1655918467
100
AcDbText
 73
     3
  0
ENDBLK
  5
3A2
330
4AD
100
AcDbEntity
  8
0
100
AcDbBlockEnd
  0
BLOCK
  5
4AE
330
4AF
100
AcDbEntity
  8
0
100
AcDbBlockBegin
  2
_D_29
 70
     0
 10
0.0
 20
0.0
 30
0.0
  3
_D_29
  1

  0
SOLID
  5
3AF
330
4AF
100
AcDbEntity
  8
0
  6
Continuous
 62
     7
100
AcDbTrace
 10
256.098908591
 20
269.5936136417
 30
0.0
 11
258.598908591
 21
269.2089982571
 31
0.0
 12
258.598908591
 22
269.9782290263
 32
0.0
 13
258.598908591
 23
269.9782290263
 33
0.0
  0
SOLID
  5
3B0
330
4AF
100
AcDbEntity
  8
0
  6
Continuous
 62
     7
100
AcDbTrace
 10
244.098908591
 20
269.5936136417
 30
0.0
 11
241.598908591
 21
269.9782290263
 31
0.0
 12
241.598908591
 22
269.2089982571
 32
0.0
 13
241.598908591
 23
269.2089982571
 33
0.0
  0
LINE
  5
3B1
330
4AF
100
AcDbEntity
  8
0
  6
Continuous
 62
     7
100
AcDbLine
 10
256.098908591
 20
283.2271042529
 30
0.0
 11
256.098908591
 21
268.5936136417
 31
0.0
  0
LINE
  5
3B2
330
4AF
100
AcDbEntity
  8
0
  6
Continuous
 62
     7
100
AcDbLine
 10
244.098908591
 20
279.2453748209
 30
0.0
 11
244.098908591
 21
268.5936136417
 31
0.0
  0
LINE
  5
3B3
330
4AF
100
AcDbEntity
  8
0
  6
Continuous
 62
     7
100
AcDbLine
 10
256.098908591
 20
269.5936136417
 30
0.0
 11
260.9066008987
 21
269.5936136417
 31
0.0
  0
LINE
  5
3B4
330
4AF
100
AcDbEntity
  8
0
  6
Continuous
 62
     7
100
AcDbLine
 10
256.098908591
 20
269.5936136417
 30
0.0
 11
244.098908591
 21
269.5936136417
 31
0.0
  0
LINE
  5
3B5
330
4AF
100
AcDbEntity
  8
0
  6
Continuous
 62
     7
100
AcDbLine
 10
244.098908591
 20
269.5936136417
 30
0.0
 11
239.2912162833
 21
269.5936136417
 31
0.0
  0
TEXT
  5
3B6
330
4AF
100
AcDbEntity
  8
0
  6
Continuous
 62
     7
100
AcDbText
 10
248.1891863662
 20
3489.762962897
 30
-53.1655918467
 40
2.5
  1
12
 41
0.7
 11
248.1891863662
 21
3492.262962897
 31
-53.1655918467
100
AcDbText
 73
     3
  0
ENDBLK
  5
3AE
330
4AF
100
AcDbEntity
  8
0
100
AcDbBlockEnd
  0
BLOCK
  5
4B0
330
4B1
100
AcDbEntity
  8
0
100
AcDbBlockBegin
  2
_D_30
 70
     0
 10
0.0
 20
0.0
 30
0.0
  3
_D_30
  1

  0
SOLID
  5
3BB
330
4B1
100
AcDbEntity
  8
0
  6
Continuous
 62
     7
100
AcDbTrace
 10
261.098908591
 20
108.8259389519
 30
0.0
 11
258.598908591
 21
109.2105543365
 31
0.0
 12
258.598908591
 22
108.4413235673
 32
0.0
 13
258.598908591
 23
108.4413235673
 33
0.0
  0
SOLID
  5
3BC
330
4B1
100
AcDbEntity
  8
0
  6
Continuous
 62
     7
100
AcDbTrace
 10
239.098908591
 20
108.8259389519
 30
0.0
 11
241.598908591
 21
108.4413235673
 31
0.0
 12
241.598908591
 22
109.2105543365
 32
0.0
 13
241.598908591
 23
109.2105543365
 33
0.0
  0
LINE
  5
3BD
330
4B1
100
AcDbEntity
  8
0
  6
Continuous
 62
     7
100
AcDbLine
 10
261.098908591
 20
125.9453748209
 30
0.0
 11
261.098908591
 21
107.8259389519
 31
0.0
  0
LINE
  5
3BE
330
4B1
100
AcDbEntity
  8
0
  6
Continuous
 62
     7
100
AcDbLine
 10
239.098908591
 20
125.9453748209
 30
0.0
 11
239.098908591
 21
107.8259389519
 31
0.0
  0
LINE
  5
3BF
330
4B1
100
AcDbEntity
  8
0
  6
Continuous
 62
     7
100
AcDbLine
 10
261.098908591
 20
108.8259389519
 30
0.0
 11
239.098908591
 21
108.8259389519
 31
0.0
  0
TEXT
  5
3C0
330
4B1
100
AcDbEntity
  8
0
  6
Continuous
 62
     7
100
AcDbText
 10
248.1891863661
 20
3328.9952882072
 30
-53.1655918467
 40
2.5
  1
22
 41
0.7
 11
248.1891863661
 21
3331.4952882072
 31
-53.1655918467
100
AcDbText
 73
     3
  0
ENDBLK
  5
3BA
330
4B1
100
AcDbEntity
  8
0
100
AcDbBlockEnd
  0
BLOCK
  5
4B2
330
4B3
100
AcDbEntity
  8
0
100
AcDbBlockBegin
  2
SW_CENTERMARKSYMBOL_11
 70
     0
 10
0.0
 20
0.0
 30
0.0
  3
SW_CENTERMARKSYMBOL_11
  1

  0
LINE
  5
3C4
330
4B3
100
AcDbEntity
  8
0
  6
Continuous
 62
     0
100
AcDbLine
 10
0.0
 20
0.0
 30
0.0
 11
0.0
 21
2.5
 31
0.0
  0
LINE
  5
3C5
330
4B3
100
AcDbEntity
  8
0
  6
Continuous
 62
     0
100
AcDbLine
 10
0.0
 20
0.0
 30
0.0
 11
-2.5
 21
0.0
 31
0.0
  0
LINE
  5
3C6
330
4B3
100
AcDbEntity
  8
0
  6
Continuous
 62
     0
100
AcDbLine
 10
0.0
 20
0.0
 30
0.0
 11
0.0
 21
-2.5
 31
0.0
  0
LINE
  5
3C7
330
4B3
100
AcDbEntity
  8
0
  6
Continuous
 62
     0
100
AcDbLine
 10
0.0
 20
0.0
 30
0.0
 11
2.5
 21
0.0
 31
0.0
  0
LINE
  5
3C8
330
4B3
100
AcDbEntity
  8
0
  6
Continuous
 62
     0
100
AcDbLine
 10
0.0
 20
5.0
 30
0.0
 11
0.0
 21
7.5
 31
0.0
  0
LINE
  5
3C9
330
4B3
100
AcDbEntity
  8
0
  6
Continuous
 62
     0
100
AcDbLine
 10
-5.0
 20
0.0
 30
0.0
 11
-7.5
 21
0.0
 31
0.0
  0
LINE
  5
3CA
330
4B3
100
AcDbEntity
  8
0
  6
Continuous
 62
     0
100
AcDbLine
 10
0.0
 20
-5.0
 30
0.0
 11
0.0
 21
-7.5
 31
0.0
  0
LINE
  5
3CB
330
4B3
100
AcDbEntity
  8
0
  6
Continuous
 62
     0
100
AcDbLine
 10
5.0
 20
0.0
 30
0.0
 11
7.5
 21
0.0
 31
0.0
  0
ENDBLK
  5
3C3
330
4B3
100
AcDbEntity
  8
0
100
AcDbBlockEnd
  0
BLOCK
  5
4B4
330
4B5
100
AcDbEntity
  8
0
100
AcDbBlockBegin
  2
SW_CENTERMARKSYMBOL_12
 70
     0
 10
0.0
 20
0.0
 30
0.0
  3
SW_CENTERMARKSYMBOL_12
  1

  0
LINE
  5
3D0
330
4B5
100
AcDbEntity
  8
0
  6
Continuous
 62
     0
100
AcDbLine
 10
0.0
 20
0.0
 30
0.0
 11
0.0
 21
2.5
 31
0.0
  0
LINE
  5
3D1
330
4B5
100
AcDbEntity
  8
0
  6
Continuous
 62
     0
100
AcDbLine
 10
0.0
 20
0.0
 30
0.0
 11
-2.5
 21
0.0
 31
0.0
  0
LINE
  5
3D2
330
4B5
100
AcDbEntity
  8
0
  6
Continuous
 62
     0
100
AcDbLine
 10
0.0
 20
0.0
 30
0.0
 11
0.0
 21
-2.5
 31
0.0
  0
LINE
  5
3D3
330
4B5
100
AcDbEntity
  8
0
  6
Continuous
 62
     0
100
AcDbLine
 10
0.0
 20
0.0
 30
0.0
 11
2.5
 21
0.0
 31
0.0
  0
LINE
  5
3D4
330
4B5
100
AcDbEntity
  8
0
  6
Continuous
 62
     0
100
AcDbLine
 10
0.0
 20
5.0
 30
0.0
 11
0.0
 21
7.5
 31
0.0
  0
LINE
  5
3D5
330
4B5
100
AcDbEntity
  8
0
  6
Continuous
 62
     0
100
AcDbLine
 10
-5.0
 20
0.0
 30
0.0
 11
-7.5
 21
0.0
 31
0.0
  0
LINE
  5
3D6
330
4B5
100
AcDbEntity
  8
0
  6
Continuous
 62
     0
100
AcDbLine
 10
0.0
 20
-5.0
 30
0.0
 11
0.0
 21
-7.5
 31
0.0
  0
LINE
  5
3D7
330
4B5
100
AcDbEntity
  8
0
  6
Continuous
 62
     0
100
AcDbLine
 10
5.0
 20
0.0
 30
0.0
 11
7.5
 21
0.0
 31
0.0
  0
ENDBLK
  5
3CF
330
4B5
100
AcDbEntity
  8
0
100
AcDbBlockEnd
  0
BLOCK
  5
4B6
330
4B7
100
AcDbEntity
  8
0
100
AcDbBlockBegin
  2
_D_31
 70
     0
 10
0.0
 20
0.0
 30
0.0
  3
_D_31
  1

  0
SOLID
  5
414
330
4B7
100
AcDbEntity
  8
0
  6
Continuous
 62
     7
100
AcDbTrace
 10
189.0635120881
 20
61.0610420728
 30
0.0
 11
189.4481274727
 21
63.5610420728
 31
0.0
 12
188.6788967034
 22
63.5610420728
 32
0.0
 13
188.6788967034
 23
63.5610420728
 33
0.0
  0
SOLID
  5
415
330
4B7
100
AcDbEntity
  8
0
  6
Continuous
 62
     7
100
AcDbTrace
 10
189.0635120881
 20
45.5610420728
 30
0.0
 11
188.6788967034
 21
43.0610420728
 31
0.0
 12
189.4481274727
 22
43.0610420728
 32
0.0
 13
189.4481274727
 23
43.0610420728
 33
0.0
  0
LINE
  5
416
330
4B7
100
AcDbEntity
  8
0
  6
Continuous
 62
     7
100
AcDbLine
 10
166.0847689631
 20
61.0610420728
 30
0.0
 11
190.0635120881
 21
61.0610420728
 31
0.0
  0
LINE
  5
417
330
4B7
100
AcDbEntity
  8
0
  6
Continuous
 62
     7
100
AcDbLine
 10
166.0847689631
 20
45.5610420728
 30
0.0
 11
190.0635120881
 21
45.5610420728
 31
0.0
  0
LINE
  5
418
330
4B7
100
AcDbEntity
  8
0
  6
Continuous
 62
     7
100
AcDbLine
 10
189.0635120881
 20
61.0610420728
 30
0.0
 11
189.0635120881
 21
65.8687343805
 31
0.0
  0
LINE
  5
419
330
4B7
100
AcDbEntity
  8
0
  6
Continuous
 62
     7
100
AcDbLine
 10
189.0635120881
 20
61.0610420728
 30
0.0
 11
189.0635120881
 21
45.5610420728
 31
0.0
  0
LINE
  5
41A
330
4B7
100
AcDbEntity
  8
0
  6
Continuous
 62
     7
100
AcDbLine
 10
189.0635120881
 20
45.5610420728
 30
0.0
 11
189.0635120881
 21
40.7533497651
 31
0.0
  0
TEXT
  5
41B
330
4B7
100
AcDbEntity
  8
0
  6
Continuous
 62
     7
100
AcDbText
 10
-3031.1058371672
 20
49.9690282667
 30
27.3044294622
 40
2.5
  1
15.5
 50
90.0
 41
0.7
 11
-3033.6058371672
 21
49.9690282667
 31
27.3044294622
100
AcDbText
 73
     3
  0
ENDBLK
  5
413
330
4B7
100
AcDbEntity
  8
0
100
AcDbBlockEnd
  0
BLOCK
  5
4B8
330
4B9
100
AcDbEntity
  8
0
100
AcDbBlockBegin
  2
_D_32
 70
     0
 10
0.0
 20
0.0
 30
0.0
  3
_D_32
  1

  0
SOLID
  5
420
330
4B9
100
AcDbEntity
  8
0
  6
Continuous
 62
     7
100
AcDbTrace
 10
90.659032219
 20
64.3110420728
 30
0.0
 11
91.0436476036
 21
66.8110420728
 31
0.0
 12
90.2744168344
 22
66.8110420728
 32
0.0
 13
90.2744168344
 23
66.8110420728
 33
0.0
  0
SOLID
  5
421
330
4B9
100
AcDbEntity
  8
0
  6
Continuous
 62
     7
100
AcDbTrace
 10
90.659032219
 20
61.0610420728
 30
0.0
 11
90.2744168344
 21
58.5610420728
 31
0.0
 12
91.0436476036
 22
58.5610420728
 32
0.0
 13
91.0436476036
 23
58.5610420728
 33
0.0
  0
LINE
  5
422
330
4B9
100
AcDbEntity
  8
0
  6
Continuous
 62
     7
100
AcDbLine
 10
80.0847689631
 20
64.3110420728
 30
0.0
 11
91.659032219
 21
64.3110420728
 31
0.0
  0
LINE
  5
423
330
4B9
100
AcDbEntity
  8
0
  6
Continuous
 62
     7
100
AcDbLine
 10
90.659032219
 20
64.3110420728
 30
0.0
 11
90.659032219
 21
82.4837605062
 31
0.0
  0
LINE
  5
424
330
4B9
100
AcDbEntity
  8
0
  6
Continuous
 62
     7
100
AcDbLine
 10
90.659032219
 20
64.3110420728
 30
0.0
 11
90.659032219
 21
61.0610420728
 31
0.0
  0
LINE
  5
425
330
4B9
100
AcDbEntity
  8
0
  6
Continuous
 62
     7
100
AcDbLine
 10
90.659032219
 20
61.0610420728
 30
0.0
 11
90.659032219
 21
56.2533497651
 31
0.0
  0
TEXT
  5
426
330
4B9
100
AcDbEntity
  8
0
  6
Continuous
 62
     7
100
AcDbText
 10
-3129.5103170363
 20
75.799732894
 30
27.3044294622
 40
2.5
  1
3.25
 50
90.0
 41
0.7
 11
-3132.0103170363
 21
75.799732894
 31
27.3044294622
100
AcDbText
 73
     3
  0
ENDBLK
  5
41F
330
4B9
100
AcDbEntity
  8
0
100
AcDbBlockEnd
  0
ENDSEC
  0
SECTION
  2
ENTITIES
  0
LINE
  5
64
330
442
100
AcDbEntity
  8
0
  6
Continuous
 62
     7
100
AcDbLine
 10
66.0847689631
 20
311.2453748209
 30
0.0
 11
66.0847689631
 21
279.2453748209
 31
0.0
  0
LINE
  5
65
330
442
100
AcDbEntity
  8
0
  6
Continuous
 62
     7
100
AcDbLine
 10
81.5847689631
 20
167.8490836192
 30
0.0
 11
80.0847689631
 21
167.8490836192
 31
0.0
  0
LINE
  5
66
330
442
100
AcDbEntity
  8
0
  6
Continuous
 62
     7
100
AcDbLine
 10
92.0847689631
 20
165.9453748209
 30
0.0
 11
81.5847689631
 21
165.9453748209
 31
0.0
  0
LINE
  5
67
330
442
100
AcDbEntity
  8
0
  6
Continuous
 62
     7
100
AcDbLine
 10
92.0847689631
 20
167.4453748209
 30
0.0
 11
92.0847689631
 21
165.9453748209
 31
0.0
  0
LINE
  5
68
330
442
100
AcDbEntity
  8
0
  6
Continuous
 62
     7
100
AcDbLine
 10
92.0847689631
 20
167.4453748209
 30
0.0
 11
98.0847689631
 21
167.4453748209
 31
0.0
  0
LINE
  5
69
330
442
100
AcDbEntity
  8
0
  6
Continuous
 62
     7
100
AcDbLine
 10
98.0847689631
 20
167.4453748209
 30
0.0
 11
98.0847689631
 21
165.9453748209
 31
0.0
  0
LINE
  5
6A
330
442
100
AcDbEntity
  8
0
  6
Continuous
 62
     7
100
AcDbLine
 10
110.6847689631
 20
165.9453748209
 30
0.0
 11
98.0847689631
 21
165.9453748209
 31
0.0
  0
LINE
  5
6B
330
442
100
AcDbEntity
  8
0
  6
Continuous
 62
     7
100
AcDbLine
 10
110.6847689631
 20
165.1953748209
 30
0.0
 11
110.6847689631
 21
165.9453748209
 31
0.0
  0
LINE
  5
6C
330
442
100
AcDbEntity
  8
0
  6
Continuous
 62
     7
100
AcDbLine
 10
110.6847689631
 20
165.1953748209
 30
0.0
 11
80.0847689631
 21
165.1953748209
 31
0.0
  0
LINE
  5
6D
330
442
100
AcDbEntity
  8
0
  6
Continuous
 62
     7
100
AcDbLine
 10
81.5847689631
 20
165.9453748209
 30
0.0
 11
81.5847689631
 21
167.8490836192
 31
0.0
  0
LINE
  5
6E
330
442
100
AcDbEntity
  8
0
  6
Continuous
 62
     7
100
AcDbLine
 10
112.6847689631
 20
165.9453748209
 30
0.0
 11
112.6847689631
 21
165.1953748209
 31
0.0
  0
LINE
  5
6F
330
442
100
AcDbEntity
  8
0
  6
Continuous
 62
     7
100
AcDbLine
 10
112.6847689631
 20
165.1953748209
 30
0.0
 11
110.6847689631
 21
165.1953748209
 31
0.0
  0
LINE
  5
70
330
442
100
AcDbEntity
  8
0
  6
Continuous
 62
     7
100
AcDbLine
 10
110.6847689631
 20
165.9453748209
 30
0.0
 11
112.4168197707
 21
165.9453748209
 31
0.0
  0
LINE
  5
71
330
442
100
AcDbEntity
  8
0
  6
Continuous
 62
     7
100
AcDbLine
 10
80.0847689631
 20
326.6953748209
 30
0.0
 11
110.6847689631
 21
326.6953748209
 31
0.0
  0
LINE
  5
72
330
442
100
AcDbEntity
  8
0
  6
Continuous
 62
     7
100
AcDbLine
 10
110.6847689631
 20
325.9453748209
 30
0.0
 11
110.6847689631
 21
326.6953748209
 31
0.0
  0
LINE
  5
73
330
442
100
AcDbEntity
  8
0
  6
Continuous
 62
     7
100
AcDbLine
 10
98.0847689631
 20
325.9453748209
 30
0.0
 11
110.6847689631
 21
325.9453748209
 31
0.0
  0
LINE
  5
74
330
442
100
AcDbEntity
  8
0
  6
Continuous
 62
     7
100
AcDbLine
 10
98.0847689631
 20
324.4453748209
 30
0.0
 11
98.0847689631
 21
325.9453748209
 31
0.0
  0
LINE
  5
75
330
442
100
AcDbEntity
  8
0
  6
Continuous
 62
     7
100
AcDbLine
 10
98.0847689631
 20
324.4453748209
 30
0.0
 11
92.0847689631
 21
324.4453748209
 31
0.0
  0
LINE
  5
76
330
442
100
AcDbEntity
  8
0
  6
Continuous
 62
     7
100
AcDbLine
 10
92.0847689631
 20
324.4453748209
 30
0.0
 11
92.0847689631
 21
325.9453748209
 31
0.0
  0
LINE
  5
77
330
442
100
AcDbEntity
  8
0
  6
Continuous
 62
     7
100
AcDbLine
 10
81.5847689631
 20
325.9453748209
 30
0.0
 11
92.0847689631
 21
325.9453748209
 31
0.0
  0
LINE
  5
78
330
442
100
AcDbEntity
  8
0
  6
Continuous
 62
     7
100
AcDbLine
 10
80.0847689631
 20
324.0416660227
 30
0.0
 11
81.5847689631
 21
324.0416660227
 31
0.0
  0
LINE
  5
79
330
442
100
AcDbEntity
  8
0
  6
Continuous
 62
     7
100
AcDbLine
 10
81.5847689631
 20
325.9453748209
 30
0.0
 11
81.5847689631
 21
324.0416660227
 31
0.0
  0
LINE
  5
7A
330
442
100
AcDbEntity
  8
0
  6
Continuous
 62
     7
100
AcDbLine
 10
112.6847689631
 20
326.6953748209
 30
0.0
 11
112.6847689631
 21
325.9453748209
 31
0.0
  0
LINE
  5
7B
330
442
100
AcDbEntity
  8
0
  6
Continuous
 62
     7
100
AcDbLine
 10
110.6847689631
 20
326.6953748209
 30
0.0
 11
112.6847689631
 21
326.6953748209
 31
0.0
  0
LINE
  5
7C
330
442
100
AcDbEntity
  8
0
  6
Continuous
 62
     7
100
AcDbLine
 10
112.4168197707
 20
325.9453748209
 30
0.0
 11
110.6847689631
 21
325.9453748209
 31
0.0
  0
LINE
  5
7D
330
442
100
AcDbEntity
  8
0
  6
Continuous
 62
     7
100
AcDbLine
 10
77.0847689631
 20
125.9453748209
 30
0.0
 11
80.0847689631
 21
125.9453748209
 31
0.0
  0
LINE
  5
7E
330
442
100
AcDbEntity
  8
0
  6
Continuous
 62
     7
100
AcDbLine
 10
77.0847689631
 20
373.9453748209
 30
0.0
 11
80.0847689631
 21
373.9453748209
 31
0.0
  0
LINE
  5
7F
330
442
100
AcDbEntity
  8
0
  6
Continuous
 62
     7
100
AcDbLine
 10
77.0847689631
 20
125.9453748209
 30
0.0
 11
77.0847689631
 21
373.9453748209
 31
0.0
  0
LINE
  5
80
330
442
100
AcDbEntity
  8
0
  6
Continuous
 62
     7
100
AcDbLine
 10
80.0847689631
 20
125.9453748209
 30
0.0
 11
80.0847689631
 21
373.9453748209
 31
0.0
  0
LINE
  5
81
330
442
100
AcDbEntity
  8
0
  6
Continuous
 62
     7
100
AcDbLine
 10
166.7918757443
 20
182.6524816021
 30
0.0
 11
150.3776621819
 21
166.2382680398
 31
0.0
  0
LINE
  5
82
330
442
100
AcDbEntity
  8
0
  6
Continuous
 62
     7
100
AcDbLine
 10
150.3776621819
 20
166.2382680398
 30
0.0
 11
149.6705554007
 21
166.9453748209
 31
0.0
  0
LINE
  5
83
330
442
100
AcDbEntity
  8
0
  6
Continuous
 62
     7
100
AcDbLine
 10
149.6705554007
 20
166.9453748209
 30
0.0
 11
166.0847689631
 21
183.3595883833
 31
0.0
  0
LINE
  5
84
330
442
100
AcDbEntity
  8
0
  6
Continuous
 62
     7
100
AcDbLine
 10
166.7918757443
 20
182.6524816021
 30
0.0
 11
166.0847689631
 21
183.3595883833
 31
0.0
  0
LINE
  5
85
330
442
100
AcDbEntity
  8
0
  6
Continuous
 62
     7
100
AcDbLine
 10
167.0847689631
 20
183.3595883833
 30
0.0
 11
166.0847689631
 21
183.3595883833
 31
0.0
  0
ARC
  5
86
330
442
100
AcDbEntity
  8
0
  6
Continuous
 62
     7
100
AcDbCircle
 10
166.0847689631
 20
183.3595883833
 30
0.0
 40
1.000000000000008
100
AcDbArc
 50
315.0
 51
0.0
  0
ARC
  5
87
330
442
100
AcDbEntity
  8
0
  6
Continuous
 62
     7
100
AcDbCircle
 10
149.6705554007
 20
166.9453748209
 30
0.0
 40
1.000000000000008
100
AcDbArc
 50
270.0
 51
315.0
  0
LINE
  5
88
330
442
100
AcDbEntity
  8
0
  6
Continuous
 62
     7
100
AcDbLine
 10
149.6705554007
 20
166.9453748209
 30
0.0
 11
149.6705554007
 21
165.9453748209
 31
0.0
  0
LINE
  5
89
330
442
100
AcDbEntity
  8
0
  6
Continuous
 62
     7
100
AcDbLine
 10
112.4168197707
 20
325.9453748209
 30
0.0
 11
149.6705554007
 21
325.9453748209
 31
0.0
  0
LINE
  5
8A
330
442
100
AcDbEntity
  8
0
  6
Continuous
 62
     7
100
AcDbLine
 10
149.6705554007
 20
325.9453748209
 30
0.0
 11
149.6705554007
 21
324.9453748209
 31
0.0
  0
LINE
  5
8B
330
442
100
AcDbEntity
  8
0
  6
Continuous
 62
     7
100
AcDbLine
 10
149.6705554007
 20
324.9453748209
 30
0.0
 11
80.0847689631
 21
324.9453748209
 31
0.0
  0
LINE
  5
8C
330
442
100
AcDbEntity
  8
0
  6
Continuous
 62
     7
100
AcDbLine
 10
150.3776621819
 20
325.6524816021
 30
0.0
 11
149.6705554007
 21
324.9453748209
 31
0.0
  0
ARC
  5
8D
330
442
100
AcDbEntity
  8
0
  6
Continuous
 62
     7
100
AcDbCircle
 10
149.6705554007
 20
324.9453748209
 30
0.0
 40
1.0
100
AcDbArc
 50
45.0
 51
90.0
  0
LINE
  5
8E
330
442
100
AcDbEntity
  8
0
  6
Continuous
 62
     7
100
AcDbLine
 10
166.0847689631
 20
308.5311612586
 30
0.0
 11
149.6705554007
 21
324.9453748209
 31
0.0
  0
LINE
  5
8F
330
442
100
AcDbEntity
  8
0
  6
Continuous
 62
     7
100
AcDbLine
 10
166.0847689631
 20
183.3595883833
 30
0.0
 11
166.0847689631
 21
308.5311612586
 31
0.0
  0
LINE
  5
90
330
442
100
AcDbEntity
  8
0
  6
Continuous
 62
     7
100
AcDbLine
 10
80.0847689631
 20
166.9453748209
 30
0.0
 11
149.6705554007
 21
166.9453748209
 31
0.0
  0
ARC
  5
91
330
442
100
AcDbEntity
  8
0
  6
Continuous
 62
     7
100
AcDbCircle
 10
137.0847689631
 20
175.9453748209
 30
0.0
 40
5.099999999999994
100
AcDbArc
 50
180.0
 51
0.0
  0
LINE
  5
92
330
442
100
AcDbEntity
  8
0
  6
Continuous
 62
     7
100
AcDbLine
 10
142.1847689631
 20
186.0863687859
 30
0.0
 11
142.1847689631
 21
175.9453748209
 31
0.0
  0
ARC
  5
93
330
442
100
AcDbEntity
  8
0
  6
Continuous
 62
     7
100
AcDbCircle
 10
137.0847689631
 20
195.9453748209
 30
0.0
 40
11.1
100
AcDbArc
 50
297.3522329091
 51
242.6477670909
  0
CIRCLE
  5
94
330
442
100
AcDbEntity
  8
0
  6
Continuous
 62
     7
100
AcDbCircle
 10
137.0847689631
 20
252.4453748209
 30
0.0
 40
3.75
  0
CIRCLE
  5
95
330
442
100
AcDbEntity
  8
0
  6
Continuous
 62
     7
100
AcDbCircle
 10
118.0847689631
 20
273.9453748209
 30
0.0
 40
3.250000000000014
  0
CIRCLE
  5
96
330
442
100
AcDbEntity
  8
0
  6
Continuous
 62
     7
100
AcDbCircle
 10
156.0847689631
 20
273.9453748209
 30
0.0
 40
3.249999999999972
  0
CIRCLE
  5
97
330
442
100
AcDbEntity
  8
0
  6
Continuous
 62
     7
100
AcDbCircle
 10
118.0847689631
 20
188.4453748209
 30
0.0
 40
3.249999999999986
  0
CIRCLE
  5
98
330
442
100
AcDbEntity
  8
0
  6
Continuous
 62
     7
100
AcDbCircle
 10
156.0847689631
 20
188.4453748209
 30
0.0
 40
3.249999999999972
  0
CIRCLE
  5
99
330
442
100
AcDbEntity
  8
0
  6
Continuous
 62
     7
100
AcDbCircle
 10
127.0847689631
 20
182.9453748209
 30
0.0
 40
2.599999999999994
  0
CIRCLE
  5
9A
330
442
100
AcDbEntity
  8
0
  6
Continuous
 62
     7
100
AcDbCircle
 10
137.0847689631
 20
273.9453748209
 30
0.0
 40
8.650000000000034
  0
CIRCLE
  5
9B
330
442
100
AcDbEntity
  8
0
  6
Continuous
 62
     7
100
AcDbCircle
 10
147.0847689631
 20
182.9453748209
 30
0.0
 40
2.599999999999994
  0
LINE
  5
9C
330
442
100
AcDbEntity
  8
0
  6
Continuous
 62
     7
100
AcDbLine
 10
131.9847689631
 20
175.9453748209
 30
0.0
 11
131.9847689631
 21
186.0863687859
 31
0.0
  0
LINE
  5
9D
330
442
100
AcDbEntity
  8
0
  6
Continuous
 62
     7
100
AcDbLine
 10
167.0847689631
 20
308.5311612586
 30
0.0
 11
167.0847689631
 21
183.3595883833
 31
0.0
  0
LINE
  5
9E
330
442
100
AcDbEntity
  8
0
  6
Continuous
 62
     7
100
AcDbLine
 10
167.0847689631
 20
308.5311612586
 30
0.0
 11
166.0847689631
 21
308.5311612586
 31
0.0
  0
LINE
  5
9F
330
442
100
AcDbEntity
  8
0
  6
Continuous
 62
     7
100
AcDbLine
 10
166.7918757443
 20
309.2382680398
 30
0.0
 11
166.0847689631
 21
308.5311612586
 31
0.0
  0
ARC
  5
A0
330
442
100
AcDbEntity
  8
0
  6
Continuous
 62
     7
100
AcDbCircle
 10
166.0847689631
 20
308.5311612586
 30
0.0
 40
1.0
100
AcDbArc
 50
0.0
 51
45.0
  0
LINE
  5
A1
330
442
100
AcDbEntity
  8
0
  6
Continuous
 62
     7
100
AcDbLine
 10
150.3776621819
 20
325.6524816021
 30
0.0
 11
166.7918757443
 21
309.2382680398
 31
0.0
  0
CIRCLE
  5
A2
330
442
100
AcDbEntity
  8
0
  6
Continuous
 62
     7
100
AcDbCircle
 10
137.0847689631
 20
273.9453748209
 30
0.0
 40
8.500000000000028
  0
CIRCLE
  5
A3
330
442
100
AcDbEntity
  8
0
  6
Continuous
 62
     7
100
AcDbCircle
 10
137.0847689631
 20
273.9453748209
 30
0.0
 40
7.500000000000028
  0
LINE
  5
A4
330
442
100
AcDbEntity
  8
0
  6
Continuous
 62
     7
100
AcDbLine
 10
149.6705554007
 20
165.9453748209
 30
0.0
 11
112.4168197707
 21
165.9453748209
 31
0.0
  0
LINE
  5
A5
330
442
100
AcDbEntity
  8
0
  6
Continuous
 62
     7
100
AcDbLine
 10
76.7302145472
 20
297.3453748209
 30
0.0
 11
73.8707689631
 21
297.3453748209
 31
0.0
  0
LINE
  5
A6
330
442
100
AcDbEntity
  8
0
  6
Continuous
 62
     7
100
AcDbLine
 10
73.8707689631
 20
307.263645389
 30
0.0
 11
73.8707689631
 21
297.3453748209
 31
0.0
  0
LINE
  5
A7
330
442
100
AcDbEntity
  8
0
  6
Continuous
 62
     7
100
AcDbLine
 10
73.8707689631
 20
293.1453748209
 30
0.0
 11
73.8707689631
 21
283.2271042529
 31
0.0
  0
LINE
  5
A8
330
442
100
AcDbEntity
  8
0
  6
Continuous
 62
     7
100
AcDbLine
 10
76.7302145472
 20
293.1453748209
 30
0.0
 11
73.8707689631
 21
293.1453748209
 31
0.0
  0
LINE
  5
A9
330
442
100
AcDbEntity
  8
0
  6
Continuous
 62
     7
100
AcDbLine
 10
76.7302145472
 20
297.3453748209
 30
0.0
 11
76.7302145472
 21
293.1453748209
 31
0.0
  0
LINE
  5
AA
330
442
100
AcDbEntity
  8
0
  6
Continuous
 62
     7
100
AcDbLine
 10
77.0847689631
 20
283.2271042529
 30
0.0
 11
73.8707689631
 21
283.2271042529
 31
0.0
  0
LINE
  5
AB
330
442
100
AcDbEntity
  8
0
  6
Continuous
 62
     7
100
AcDbLine
 10
77.0847689631
 20
307.263645389
 30
0.0
 11
73.8707689631
 21
307.263645389
 31
0.0
  0
LINE
  5
AC
330
442
100
AcDbEntity
  8
0
  6
Continuous
 62
     7
100
AcDbLine
 10
141.4249799495
 20
278.5996812777
 30
0.0
 11
141.7390754199
 21
269.6051638345
 31
0.0
  0
LINE
  5
AD
330
442
100
AcDbEntity
  8
0
  6
Continuous
 62
     7
100
AcDbLine
 10
132.7445579767
 20
269.2910683642
 30
0.0
 11
132.4304625064
 21
278.2855858074
 31
0.0
  0
LINE
  5
AE
330
442
100
AcDbEntity
  8
0
  6
Continuous
 62
     7
100
AcDbLine
 10
141.7390754199
 20
269.6051638345
 30
0.0
 11
132.7445579767
 21
269.2910683642
 31
0.0
  0
LINE
  5
AF
330
442
100
AcDbEntity
  8
0
  6
Continuous
 62
     7
100
AcDbLine
 10
132.4304625064
 20
278.2855858074
 30
0.0
 11
141.4249799495
 21
278.5996812777
 31
0.0
  0
LINE
  5
B0
330
442
100
AcDbEntity
  8
0
  6
Continuous
 62
     7
100
AcDbLine
 10
71.4375672967
 20
293.1453748209
 30
0.0
 11
71.4375672967
 21
288.4953748209
 31
0.0
  0
LINE
  5
B1
330
442
100
AcDbEntity
  8
0
  6
Continuous
 62
     7
100
AcDbLine
 10
68.0956239715
 20
297.3453748209
 30
0.0
 11
68.0956239715
 21
293.1453748209
 31
0.0
  0
LINE
  5
B2
330
442
100
AcDbEntity
  8
0
  6
Continuous
 62
     7
100
AcDbLine
 10
71.4375672967
 20
301.9953748209
 30
0.0
 11
71.4375672967
 21
297.3453748209
 31
0.0
  0
LINE
  5
B3
330
442
100
AcDbEntity
  8
0
  6
Continuous
 62
     7
100
AcDbLine
 10
57.3847689631
 20
205.2453748209
 30
0.0
 11
57.3847689631
 21
204.9453748209
 31
0.0
  0
ARC
  5
B4
330
442
100
AcDbEntity
  8
0
  6
Continuous
 62
     7
100
AcDbCircle
 10
57.3847689631
 20
205.2453748209
 30
0.0
 40
0.3000000000000114
100
AcDbArc
 50
180.0
 51
270.0
  0
LINE
  5
B5
330
442
100
AcDbEntity
  8
0
  6
Continuous
 62
     7
100
AcDbLine
 10
57.3847689631
 20
205.2453748209
 30
0.0
 11
57.0847689631
 21
205.2453748209
 31
0.0
  0
LINE
  5
B6
330
442
100
AcDbEntity
  8
0
  6
Continuous
 62
     7
100
AcDbLine
 10
57.3847689631
 20
234.6453748209
 30
0.0
 11
57.3847689631
 21
205.2453748209
 31
0.0
  0
LINE
  5
B7
330
442
100
AcDbEntity
  8
0
  6
Continuous
 62
     7
100
AcDbLine
 10
57.0847689631
 20
205.2453748209
 30
0.0
 11
57.0847689631
 21
234.6453748209
 31
0.0
  0
LINE
  5
B8
330
442
100
AcDbEntity
  8
0
  6
Continuous
 62
     7
100
AcDbLine
 10
57.0847689631
 20
234.6453748209
 30
0.0
 11
57.3847689631
 21
234.6453748209
 31
0.0
  0
LINE
  5
B9
330
442
100
AcDbEntity
  8
0
  6
Continuous
 62
     7
100
AcDbLine
 10
77.0847689631
 20
204.9453748209
 30
0.0
 11
57.3847689631
 21
204.9453748209
 31
0.0
  0
LINE
  5
BA
330
442
100
AcDbEntity
  8
0
  6
Continuous
 62
     7
100
AcDbLine
 10
57.3847689631
 20
234.9453748209
 30
0.0
 11
77.0847689631
 21
234.9453748209
 31
0.0
  0
LINE
  5
BB
330
442
100
AcDbEntity
  8
0
  6
Continuous
 62
     7
100
AcDbLine
 10
57.3847689631
 20
234.9453748209
 30
0.0
 11
57.3847689631
 21
234.6453748209
 31
0.0
  0
ARC
  5
BC
330
442
100
AcDbEntity
  8
0
  6
Continuous
 62
     7
100
AcDbCircle
 10
57.3847689631
 20
234.6453748209
 30
0.0
 40
0.3000000000000114
100
AcDbArc
 50
90.0
 51
180.0
  0
LINE
  5
BD
330
442
100
AcDbEntity
  8
0
  6
Continuous
 62
     7
100
AcDbLine
 10
73.4307689631
 20
307.263645389
 30
0.0
 11
73.4307689631
 21
297.3453748209
 31
0.0
  0
LINE
  5
BE
330
442
100
AcDbEntity
  8
0
  6
Continuous
 62
     7
100
AcDbLine
 10
73.4361279469
 20
297.3453748209
 30
0.0
 11
73.4307689631
 21
297.3453748209
 31
0.0
  0
LINE
  5
BF
330
442
100
AcDbEntity
  8
0
  6
Continuous
 62
     7
100
AcDbLine
 10
73.8707689631
 20
297.3453748209
 30
0.0
 11
73.4361279469
 21
297.3453748209
 31
0.0
  0
LINE
  5
C0
330
442
100
AcDbEntity
  8
0
  6
Continuous
 62
     7
100
AcDbLine
 10
73.8707689631
 20
307.263645389
 30
0.0
 11
73.4307689631
 21
307.263645389
 31
0.0
  0
LINE
  5
C1
330
442
100
AcDbEntity
  8
0
  6
Continuous
 62
     7
100
AcDbLine
 10
73.4307689631
 20
293.1453748209
 30
0.0
 11
73.4307689631
 21
283.2271042529
 31
0.0
  0
LINE
  5
C2
330
442
100
AcDbEntity
  8
0
  6
Continuous
 62
     7
100
AcDbLine
 10
73.8707689631
 20
293.1453748209
 30
0.0
 11
73.4361279469
 21
293.1453748209
 31
0.0
  0
LINE
  5
C3
330
442
100
AcDbEntity
  8
0
  6
Continuous
 62
     7
100
AcDbLine
 10
73.4361279469
 20
293.1453748209
 30
0.0
 11
73.4307689631
 21
293.1453748209
 31
0.0
  0
LINE
  5
C4
330
442
100
AcDbEntity
  8
0
  6
Continuous
 62
     7
100
AcDbLine
 10
73.8707689631
 20
283.2271042529
 30
0.0
 11
73.4307689631
 21
283.2271042529
 31
0.0
  0
LINE
  5
C5
330
442
100
AcDbEntity
  8
0
  6
Continuous
 62
     7
100
AcDbLine
 10
68.3281485095
 20
283.2271042529
 30
0.0
 11
66.9881485095
 21
279.2453748209
 31
0.0
  0
LINE
  5
C6
330
442
100
AcDbEntity
  8
0
  6
Continuous
 62
     7
100
AcDbLine
 10
66.9881485095
 20
279.2453748209
 30
0.0
 11
66.2257594689
 21
279.2453748209
 31
0.0
  0
LINE
  5
C7
330
442
100
AcDbEntity
  8
0
  6
Continuous
 62
     7
100
AcDbLine
 10
66.2257594689
 20
311.2453748209
 30
0.0
 11
66.2257594689
 21
279.2453748209
 31
0.0
  0
LINE
  5
C8
330
442
100
AcDbEntity
  8
0
  6
Continuous
 62
     7
100
AcDbLine
 10
66.9881485095
 20
311.2453748209
 30
0.0
 11
66.2257594689
 21
311.2453748209
 31
0.0
  0
LINE
  5
C9
330
442
100
AcDbEntity
  8
0
  6
Continuous
 62
     7
100
AcDbLine
 10
68.3281485095
 20
307.263645389
 30
0.0
 11
66.9881485095
 21
311.2453748209
 31
0.0
  0
LINE
  5
CA
330
442
100
AcDbEntity
  8
0
  6
Continuous
 62
     7
100
AcDbLine
 10
72.9932022153
 20
301.9953748209
 30
0.0
 11
72.9932022153
 21
297.3453748209
 31
0.0
  0
LINE
  5
CB
330
442
100
AcDbEntity
  8
0
  6
Continuous
 62
     7
100
AcDbLine
 10
72.9932022153
 20
301.9953748209
 30
0.0
 11
70.0233537343
 21
301.9953748209
 31
0.0
  0
LINE
  5
CC
330
442
100
AcDbEntity
  8
0
  6
Continuous
 62
     7
100
AcDbLine
 10
70.0233537343
 20
301.9953748209
 30
0.0
 11
70.0233537343
 21
297.3453748209
 31
0.0
  0
LINE
  5
CD
330
442
100
AcDbEntity
  8
0
  6
Continuous
 62
     7
100
AcDbLine
 10
70.0233537343
 20
297.3453748209
 30
0.0
 11
66.6814104091
 21
297.3453748209
 31
0.0
  0
LINE
  5
CE
330
442
100
AcDbEntity
  8
0
  6
Continuous
 62
     7
100
AcDbLine
 10
66.6814104091
 20
297.3453748209
 30
0.0
 11
66.6814104091
 21
293.1453748209
 31
0.0
  0
LINE
  5
CF
330
442
100
AcDbEntity
  8
0
  6
Continuous
 62
     7
100
AcDbLine
 10
70.0233537343
 20
293.1453748209
 30
0.0
 11
66.6814104091
 21
293.1453748209
 31
0.0
  0
LINE
  5
D0
330
442
100
AcDbEntity
  8
0
  6
Continuous
 62
     7
100
AcDbLine
 10
70.0233537343
 20
293.1453748209
 30
0.0
 11
70.0233537343
 21
288.4953748209
 31
0.0
  0
LINE
  5
D1
330
442
100
AcDbEntity
  8
0
  6
Continuous
 62
     7
100
AcDbLine
 10
72.9932022153
 20
288.4953748209
 30
0.0
 11
70.0233537343
 21
288.4953748209
 31
0.0
  0
LINE
  5
D2
330
442
100
AcDbEntity
  8
0
  6
Continuous
 62
     7
100
AcDbLine
 10
72.9932022153
 20
293.1453748209
 30
0.0
 11
72.9932022153
 21
288.4953748209
 31
0.0
  0
LINE
  5
D3
330
442
100
AcDbEntity
  8
0
  6
Continuous
 62
     7
100
AcDbLine
 10
73.4307689631
 20
293.1453748209
 30
0.0
 11
72.9932022153
 21
293.1453748209
 31
0.0
  0
LINE
  5
D4
330
442
100
AcDbEntity
  8
0
  6
Continuous
 62
     7
100
AcDbLine
 10
73.4307689631
 20
297.3453748209
 30
0.0
 11
72.9932022153
 21
297.3453748209
 31
0.0
  0
LINE
  5
D5
330
442
100
AcDbEntity
  8
0
  6
Continuous
 62
     7
100
AcDbLine
 10
73.4307689631
 20
283.2271042529
 30
0.0
 11
68.3281485095
 21
283.2271042529
 31
0.0
  0
LINE
  5
D6
330
442
100
AcDbEntity
  8
0
  6
Continuous
 62
     7
100
AcDbLine
 10
73.4307689631
 20
307.263645389
 30
0.0
 11
68.3281485095
 21
307.263645389
 31
0.0
  0
LINE
  5
D7
330
442
100
AcDbEntity
  8
0
  6
Continuous
 62
     7
100
AcDbLine
 10
71.4375672967
 20
293.1453748209
 30
0.0
 11
70.0233537343
 21
293.1453748209
 31
0.0
  0
LINE
  5
D8
330
442
100
AcDbEntity
  8
0
  6
Continuous
 62
     7
100
AcDbLine
 10
71.4375672967
 20
297.3453748209
 30
0.0
 11
70.0233537343
 21
297.3453748209
 31
0.0
  0
LINE
  5
D9
330
442
100
AcDbEntity
  8
0
  6
Continuous
 62
     7
100
AcDbLine
 10
66.9881485095
 20
279.2453748209
 30
0.0
 11
77.0847689631
 21
279.2453748209
 31
0.0
  0
LINE
  5
DA
330
442
100
AcDbEntity
  8
0
  6
Continuous
 62
     7
100
AcDbLine
 10
66.9881485095
 20
311.2453748209
 30
0.0
 11
77.0847689631
 21
311.2453748209
 31
0.0
  0
LINE
  5
DB
330
442
100
AcDbEntity
  8
0
  6
Continuous
 62
     7
100
AcDbLine
 10
66.2257594689
 20
311.2453748209
 30
0.0
 11
66.0847689631
 21
311.2453748209
 31
0.0
  0
LINE
  5
DC
330
442
100
AcDbEntity
  8
0
  6
Continuous
 62
     7
100
AcDbLine
 10
66.2257594689
 20
279.2453748209
 30
0.0
 11
66.0847689631
 21
279.2453748209
 31
0.0
  0
LINE
  5
DD
330
442
100
AcDbEntity
  8
0
  6
Continuous
 62
     7
100
AcDbLine
 10
57.3847689631
 20
205.2453748209
 30
0.0
 11
77.0847689631
 21
205.2453748209
 31
0.0
  0
LINE
  5
DE
330
442
100
AcDbEntity
  8
0
  6
Continuous
 62
     7
100
AcDbLine
 10
77.0847689631
 20
234.6453748209
 30
0.0
 11
57.3847689631
 21
234.6453748209
 31
0.0
  0
LINE
  5
DF
330
442
100
AcDbEntity
  8
0
  6
Continuous
 62
     7
100
AcDbLine
 10
142.1847689631
 20
176.0872988333
 30
0.0
 11
142.1847689631
 21
177.837103179
 31
0.0
  0
LINE
  5
E0
330
442
100
AcDbEntity
  8
0
  6
Continuous
 62
     7
100
AcDbLine
 10
131.9847689631
 20
186.0863687859
 30
0.0
 11
131.9847689631
 21
189.02078097
 31
0.0
  0
LINE
  5
E1
330
442
100
AcDbEntity
  8
0
  6
Continuous
 62
     7
100
AcDbLine
 10
142.1847689631
 20
186.0863687859
 30
0.0
 11
142.1847689631
 21
189.02078097
 31
0.0
  0
ARC
  5
E2
330
442
100
AcDbEntity
  8
0
  6
CENTERX2
 62
     7
100
AcDbCircle
 10
137.0847689631
 20
195.9453748209
 30
0.0
 40
8.600000000000012
100
AcDbArc
 50
306.3718424099
 51
233.6281575900999
  0
CIRCLE
  5
E3
330
442
100
AcDbEntity
  8
0
  6
CENTERX2
 62
     7
100
AcDbCircle
 10
147.0847689631
 20
181.4453748209
 30
0.0
 40
2.60000000000003
  0
CIRCLE
  5
E4
330
442
100
AcDbEntity
  8
0
  6
Continuous
 62
     7
100
AcDbCircle
 10
127.110643153
 20
181.4453748209
 30
0.0
 40
2.599999999999989
  0
INSERT
  5
230
330
442
100
AcDbEntity
  8
0
  6
Continuous
 62
     7
100
AcDbBlockReference
  2
SW_CENTERMARKSYMBOL_0
 10
137.0847689631
 20
273.9453748209
 30
0.0
  0
INSERT
  5
23C
330
442
100
AcDbEntity
  8
0
  6
Continuous
 62
     7
100
AcDbBlockReference
  2
SW_CENTERMARKSYMBOL_1
 10
156.0847689631
 20
273.9453748209
 30
0.0
  0
INSERT
  5
248
330
442
100
AcDbEntity
  8
0
  6
Continuous
 62
     7
100
AcDbBlockReference
  2
SW_CENTERMARKSYMBOL_2
 10
118.0847689631
 20
273.9453748209
 30
0.0
  0
INSERT
  5
254
330
442
100
AcDbEntity
  8
0
  6
Continuous
 62
     7
100
AcDbBlockReference
  2
SW_CENTERMARKSYMBOL_3
 10
137.0847689631
 20
252.4453748209
 30
0.0
  0
INSERT
  5
260
330
442
100
AcDbEntity
  8
0
  6
Continuous
 62
     7
100
AcDbBlockReference
  2
SW_CENTERMARKSYMBOL_4
 10
156.0847689631
 20
188.4453748209
 30
0.0
  0
INSERT
  5
26C
330
442
100
AcDbEntity
  8
0
  6
Continuous
 62
     7
100
AcDbBlockReference
  2
SW_CENTERMARKSYMBOL_5
 10
118.0847689631
 20
188.4453748209
 30
0.0
  0
INSERT
  5
278
330
442
100
AcDbEntity
  8
0
  6
Continuous
 62
     7
100
AcDbBlockReference
  2
SW_CENTERMARKSYMBOL_6
 10
137.0847689631
 20
195.9453748209
 30
0.0
  0
INSERT
  5
284
330
442
100
AcDbEntity
  8
0
  6
Continuous
 62
     7
100
AcDbBlockReference
  2
SW_CENTERMARKSYMBOL_7
 10
147.0847689631
 20
182.9453748209
 30
0.0
  0
INSERT
  5
290
330
442
100
AcDbEntity
  8
0
  6
Continuous
 62
     7
100
AcDbBlockReference
  2
SW_CENTERMARKSYMBOL_8
 10
127.0847689631
 20
182.9453748209
 30
0.0
  0
INSERT
  5
29C
330
442
100
AcDbEntity
  8
0
  6
Continuous
 62
     7
100
AcDbBlockReference
  2
SW_CENTERMARKSYMBOL_9
 10
127.110643153
 20
181.4453748209
 30
0.0
  0
INSERT
  5
2A8
330
442
100
AcDbEntity
  8
0
  6
Continuous
 62
     7
100
AcDbBlockReference
  2
SW_CENTERMARKSYMBOL_10
 10
147.0847689631
 20
181.4453748209
 30
0.0
  0
LINE
  5
2A9
330
442
100
AcDbEntity
  8
0
  6
CENTERX2
 62
     7
100
AcDbLine
 10
64.2257594689
 20
295.2453748209
 30
0.0
 11
82.0847689631
 21
295.2453748209
 31
0.0
  0
LINE
  5
2AA
330
442
100
AcDbEntity
  8
0
  6
CENTERX2
 62
     7
100
AcDbLine
 10
81.7847689631
 20
219.9453748209
 30
0.0
 11
55.3847689631
 21
219.9453748209
 31
0.0
  0
LINE
  5
2AB
330
442
100
AcDbEntity
  8
0
  6
Continuous
 62
     7
100
AcDbLine
 10
261.098908591
 20
125.9453748209
 30
0.0
 11
261.098908591
 21
373.9453748209
 31
0.0
  0
LINE
  5
2AC
330
442
100
AcDbEntity
  8
0
  6
Continuous
 62
     7
100
AcDbLine
 10
239.098908591
 20
125.9453748209
 30
0.0
 11
261.098908591
 21
125.9453748209
 31
0.0
  0
LINE
  5
2AD
330
442
100
AcDbEntity
  8
0
  6
Continuous
 62
     7
100
AcDbLine
 10
252.3134002768
 20
281.304625756
 30
0.0
 11
252.9702135795
 21
279.3498242599
 31
0.0
  0
ARC
  5
2AE
330
442
100
AcDbEntity
  8
0
  6
Continuous
 62
     7
100
AcDbCircle
 10
253.2545902492
 20
279.4453748209
 30
0.0
 40
0.3000000000000114
100
AcDbArc
 50
198.5723485104
 51
270.0
  0
LINE
  5
2AF
330
442
100
AcDbEntity
  8
0
  6
Continuous
 62
     7
100
AcDbLine
 10
253.2545902492
 20
279.1453748209
 30
0.0
 11
255.898908591
 21
279.1453748209
 31
0.0
  0
ARC
  5
2B0
330
442
100
AcDbEntity
  8
0
  6
Continuous
 62
     7
100
AcDbCircle
 10
255.898908591
 20
279.4453748209
 30
0.0
 40
0.3000000000000114
100
AcDbArc
 50
270.0
 51
0.0
  0
LINE
  5
2B1
330
442
100
AcDbEntity
  8
0
  6
Continuous
 62
     7
100
AcDbLine
 10
256.198908591
 20
279.4453748209
 30
0.0
 11
256.198908591
 21
310.8453748209
 31
0.0
  0
ARC
  5
2B2
330
442
100
AcDbEntity
  8
0
  6
Continuous
 62
     7
100
AcDbCircle
 10
255.898908591
 20
310.8453748209
 30
0.0
 40
0.3000000000000114
100
AcDbArc
 50
0.0
 51
90.0
  0
LINE
  5
2B3
330
442
100
AcDbEntity
  8
0
  6
Continuous
 62
     7
100
AcDbLine
 10
255.898908591
 20
311.1453748209
 30
0.0
 11
253.2545902492
 21
311.1453748209
 31
0.0
  0
ARC
  5
2B4
330
442
100
AcDbEntity
  8
0
  6
Continuous
 62
     7
100
AcDbCircle
 10
253.2545902492
 20
310.8453748209
 30
0.0
 40
0.3000000000000114
100
AcDbArc
 50
90.0
 51
161.4276514896
  0
LINE
  5
2B5
330
442
100
AcDbEntity
  8
0
  6
Continuous
 62
     7
100
AcDbLine
 10
252.9702135795
 20
310.940925382
 30
0.0
 11
252.3134002768
 21
308.9861238859
 31
0.0
  0
ARC
  5
2B6
330
442
100
AcDbEntity
  8
0
  6
Continuous
 62
     7
100
AcDbCircle
 10
251.8394391606
 20
309.1453748209
 30
0.0
 40
0.5000000000000347
100
AcDbArc
 50
270.0
 51
341.4276514896
  0
LINE
  5
2B7
330
442
100
AcDbEntity
  8
0
  6
Continuous
 62
     7
100
AcDbLine
 10
251.8394391606
 20
308.6453748209
 30
0.0
 11
248.3583780214
 21
308.6453748209
 31
0.0
  0
ARC
  5
2B8
330
442
100
AcDbEntity
  8
0
  6
Continuous
 62
     7
100
AcDbCircle
 10
248.3583780214
 20
309.1453748209
 30
0.0
 40
0.5
100
AcDbArc
 50
198.5723485104
 51
270.0
  0
LINE
  5
2B9
330
442
100
AcDbEntity
  8
0
  6
Continuous
 62
     7
100
AcDbLine
 10
247.8844169051
 20
308.9861238859
 30
0.0
 11
247.2276036025
 21
310.940925382
 31
0.0
  0
ARC
  5
2BA
330
442
100
AcDbEntity
  8
0
  6
Continuous
 62
     7
100
AcDbCircle
 10
246.9432269327
 20
310.8453748209
 30
0.0
 40
0.3000000000000114
100
AcDbArc
 50
18.5723485104
 51
90.0
  0
LINE
  5
2BB
330
442
100
AcDbEntity
  8
0
  6
Continuous
 62
     7
100
AcDbLine
 10
246.9432269327
 20
311.1453748209
 30
0.0
 11
246.7925623091
 21
311.1453748209
 31
0.0
  0
ARC
  5
2BC
330
442
100
AcDbEntity
  8
0
  6
Continuous
 62
     7
100
AcDbCircle
 10
244.298908591
 20
310.8453748209
 30
0.0
 40
0.3000000000000398
100
AcDbArc
 50
131.8103148958
 51
180.0
  0
LINE
  5
2BD
330
442
100
AcDbEntity
  8
0
  6
Continuous
 62
     7
100
AcDbLine
 10
243.998908591
 20
310.8453748209
 30
0.0
 11
243.998908591
 21
279.4453748209
 31
0.0
  0
ARC
  5
2BE
330
442
100
AcDbEntity
  8
0
  6
Continuous
 62
     7
100
AcDbCircle
 10
244.298908591
 20
279.4453748209
 30
0.0
 40
0.3000000000000398
100
AcDbArc
 50
180.0
 51
270.0
  0
LINE
  5
2BF
330
442
100
AcDbEntity
  8
0
  6
Continuous
 62
     7
100
AcDbLine
 10
244.298908591
 20
279.1453748209
 30
0.0
 11
246.9432269327
 21
279.1453748209
 31
0.0
  0
ARC
  5
2C0
330
442
100
AcDbEntity
  8
0
  6
Continuous
 62
     7
100
AcDbCircle
 10
246.9432269327
 20
279.4453748209
 30
0.0
 40
0.3000000000000114
100
AcDbArc
 50
270.0
 51
341.4276514896
  0
LINE
  5
2C1
330
442
100
AcDbEntity
  8
0
  6
Continuous
 62
     7
100
AcDbLine
 10
247.2276036025
 20
279.3498242599
 30
0.0
 11
247.8844169051
 21
281.304625756
 31
0.0
  0
ARC
  5
2C2
330
442
100
AcDbEntity
  8
0
  6
Continuous
 62
     7
100
AcDbCircle
 10
248.3583780214
 20
281.1453748209
 30
0.0
 40
0.5
100
AcDbArc
 50
90.0
 51
161.4276514896
  0
LINE
  5
2C3
330
442
100
AcDbEntity
  8
0
  6
Continuous
 62
     7
100
AcDbLine
 10
248.3583780214
 20
281.6453748209
 30
0.0
 11
251.8394391606
 21
281.6453748209
 31
0.0
  0
ARC
  5
2C4
330
442
100
AcDbEntity
  8
0
  6
Continuous
 62
     7
100
AcDbCircle
 10
251.8394391606
 20
281.1453748209
 30
0.0
 40
0.5000000000000347
100
AcDbArc
 50
18.5723485104
 51
90.0
  0
LINE
  5
2C5
330
442
100
AcDbEntity
  8
0
  6
Continuous
 62
     7
100
AcDbLine
 10
246.048908591
 20
234.6953748209
 30
0.0
 11
246.048908591
 21
205.1953748209
 31
0.0
  0
ARC
  5
2C6
330
442
100
AcDbEntity
  8
0
  6
Continuous
 62
     7
100
AcDbCircle
 10
246.348908591
 20
205.1953748209
 30
0.0
 40
0.2999999999999829
100
AcDbArc
 50
180.0
 51
270.0
  0
LINE
  5
2C7
330
442
100
AcDbEntity
  8
0
  6
Continuous
 62
     7
100
AcDbLine
 10
246.348908591
 20
204.8953748209
 30
0.0
 11
253.848908591
 21
204.8953748209
 31
0.0
  0
ARC
  5
2C8
330
442
100
AcDbEntity
  8
0
  6
Continuous
 62
     7
100
AcDbCircle
 10
253.848908591
 20
205.1953748209
 30
0.0
 40
0.2999999999999829
100
AcDbArc
 50
270.0
 51
0.0
  0
LINE
  5
2C9
330
442
100
AcDbEntity
  8
0
  6
Continuous
 62
     7
100
AcDbLine
 10
254.148908591
 20
205.1953748209
 30
0.0
 11
254.148908591
 21
234.6953748209
 31
0.0
  0
ARC
  5
2CA
330
442
100
AcDbEntity
  8
0
  6
Continuous
 62
     7
100
AcDbCircle
 10
253.848908591
 20
234.6953748209
 30
0.0
 40
0.3000000000000114
100
AcDbArc
 50
0.0
 51
90.0
  0
LINE
  5
2CB
330
442
100
AcDbEntity
  8
0
  6
Continuous
 62
     7
100
AcDbLine
 10
253.848908591
 20
234.9953748209
 30
0.0
 11
246.348908591
 21
234.9953748209
 31
0.0
  0
ARC
  5
2CC
330
442
100
AcDbEntity
  8
0
  6
Continuous
 62
     7
100
AcDbCircle
 10
246.348908591
 20
234.6953748209
 30
0.0
 40
0.3000000000000114
100
AcDbArc
 50
90.0
 51
180.0
  0
CIRCLE
  5
2CD
330
442
100
AcDbEntity
  8
0
  6
Continuous
 62
     7
100
AcDbCircle
 10
250.098908591
 20
193.9453748209
 30
0.0
 40
3.999999999999943
  0
CIRCLE
  5
2CE
330
442
100
AcDbEntity
  8
0
  6
Continuous
 62
     7
100
AcDbCircle
 10
250.098908591
 20
245.9453748209
 30
0.0
 40
4.0
  0
CIRCLE
  5
2CF
330
442
100
AcDbEntity
  8
0
  6
Continuous
 62
     7
100
AcDbCircle
 10
250.098908591
 20
322.1453748209
 30
0.0
 40
4.0
  0
CIRCLE
  5
2D0
330
442
100
AcDbEntity
  8
0
  6
Continuous
 62
     7
100
AcDbCircle
 10
250.098908591
 20
145.9453748209
 30
0.0
 40
5.0
  0
CIRCLE
  5
2D1
330
442
100
AcDbEntity
  8
0
  6
Continuous
 62
     7
100
AcDbCircle
 10
250.098908591
 20
177.4453748209
 30
0.0
 40
4.999999999999943
  0
CIRCLE
  5
2D2
330
442
100
AcDbEntity
  8
0
  6
Continuous
 62
     7
100
AcDbCircle
 10
250.098908591
 20
353.9453748209
 30
0.0
 40
5.0
  0
LINE
  5
2D3
330
442
100
AcDbEntity
  8
0
  6
Continuous
 62
     7
100
AcDbLine
 10
239.098908591
 20
373.9453748209
 30
0.0
 11
239.098908591
 21
125.9453748209
 31
0.0
  0
LINE
  5
2D4
330
442
100
AcDbEntity
  8
0
  6
Continuous
 62
     7
100
AcDbLine
 10
261.098908591
 20
373.9453748209
 30
0.0
 11
239.098908591
 21
373.9453748209
 31
0.0
  0
CIRCLE
  5
2D5
330
442
100
AcDbEntity
  8
0
  6
Continuous
 62
     7
100
AcDbCircle
 10
250.098908591
 20
353.9453748209
 30
0.0
 40
2.750000000000028
  0
CIRCLE
  5
2D6
330
442
100
AcDbEntity
  8
0
  6
Continuous
 62
     7
100
AcDbCircle
 10
250.098908591
 20
177.4453748209
 30
0.0
 40
2.749999999999972
  0
CIRCLE
  5
2D7
330
442
100
AcDbEntity
  8
0
  6
Continuous
 62
     7
100
AcDbCircle
 10
250.098908591
 20
145.9453748209
 30
0.0
 40
2.750000000000028
  0
CIRCLE
  5
2D8
330
442
100
AcDbEntity
  8
0
  6
Continuous
 62
     7
100
AcDbCircle
 10
250.098908591
 20
322.1453748209
 30
0.0
 40
3.749999999999972
  0
LINE
  5
2D9
330
442
100
AcDbEntity
  8
0
  6
Continuous
 62
     7
100
AcDbLine
 10
250.548908591
 20
324.1453748209
 30
0.0
 11
249.648908591
 21
324.1453748209
 31
0.0
  0
LINE
  5
2DA
330
442
100
AcDbEntity
  8
0
  6
Continuous
 62
     7
100
AcDbLine
 10
249.648908591
 20
322.8653748209
 30
0.0
 11
249.648908591
 21
324.1453748209
 31
0.0
  0
LINE
  5
2DB
330
442
100
AcDbEntity
  8
0
  6
Continuous
 62
     7
100
AcDbLine
 10
249.378908591
 20
322.5953748209
 30
0.0
 11
249.648908591
 21
322.8653748209
 31
0.0
  0
LINE
  5
2DC
330
442
100
AcDbEntity
  8
0
  6
Continuous
 62
     7
100
AcDbLine
 10
249.378908591
 20
322.5953748209
 30
0.0
 11
248.098908591
 21
322.5953748209
 31
0.0
  0
LINE
  5
2DD
330
442
100
AcDbEntity
  8
0
  6
Continuous
 62
     7
100
AcDbLine
 10
248.098908591
 20
322.5953748209
 30
0.0
 11
248.098908591
 21
321.6953748209
 31
0.0
  0
LINE
  5
2DE
330
442
100
AcDbEntity
  8
0
  6
Continuous
 62
     7
100
AcDbLine
 10
249.378908591
 20
321.6953748209
 30
0.0
 11
248.098908591
 21
321.6953748209
 31
0.0
  0
LINE
  5
2DF
330
442
100
AcDbEntity
  8
0
  6
Continuous
 62
     7
100
AcDbLine
 10
249.648908591
 20
321.4253748209
 30
0.0
 11
249.378908591
 21
321.6953748209
 31
0.0
  0
LINE
  5
2E0
330
442
100
AcDbEntity
  8
0
  6
Continuous
 62
     7
100
AcDbLine
 10
249.648908591
 20
320.1453748209
 30
0.0
 11
249.648908591
 21
321.4253748209
 31
0.0
  0
LINE
  5
2E1
330
442
100
AcDbEntity
  8
0
  6
Continuous
 62
     7
100
AcDbLine
 10
250.548908591
 20
320.1453748209
 30
0.0
 11
249.648908591
 21
320.1453748209
 31
0.0
  0
LINE
  5
2E2
330
442
100
AcDbEntity
  8
0
  6
Continuous
 62
     7
100
AcDbLine
 10
250.548908591
 20
320.1453748209
 30
0.0
 11
250.548908591
 21
321.4253748209
 31
0.0
  0
LINE
  5
2E3
330
442
100
AcDbEntity
  8
0
  6
Continuous
 62
     7
100
AcDbLine
 10
250.818908591
 20
321.6953748209
 30
0.0
 11
250.548908591
 21
321.4253748209
 31
0.0
  0
LINE
  5
2E4
330
442
100
AcDbEntity
  8
0
  6
Continuous
 62
     7
100
AcDbLine
 10
252.098908591
 20
321.6953748209
 30
0.0
 11
250.818908591
 21
321.6953748209
 31
0.0
  0
LINE
  5
2E5
330
442
100
AcDbEntity
  8
0
  6
Continuous
 62
     7
100
AcDbLine
 10
252.098908591
 20
322.5953748209
 30
0.0
 11
252.098908591
 21
321.6953748209
 31
0.0
  0
LINE
  5
2E6
330
442
100
AcDbEntity
  8
0
  6
Continuous
 62
     7
100
AcDbLine
 10
252.098908591
 20
322.5953748209
 30
0.0
 11
250.818908591
 21
322.5953748209
 31
0.0
  0
LINE
  5
2E7
330
442
100
AcDbEntity
  8
0
  6
Continuous
 62
     7
100
AcDbLine
 10
250.548908591
 20
322.8653748209
 30
0.0
 11
250.818908591
 21
322.5953748209
 31
0.0
  0
LINE
  5
2E8
330
442
100
AcDbEntity
  8
0
  6
Continuous
 62
     7
100
AcDbLine
 10
250.548908591
 20
322.8653748209
 30
0.0
 11
250.548908591
 21
324.1453748209
 31
0.0
  0
LINE
  5
2E9
330
442
100
AcDbEntity
  8
0
  6
Continuous
 62
     7
100
AcDbLine
 10
249.648908591
 20
321.6953748209
 30
0.0
 11
249.513908591
 21
321.5603748209
 31
0.0
  0
LINE
  5
2EA
330
442
100
AcDbEntity
  8
0
  6
Continuous
 62
     7
100
AcDbLine
 10
249.648908591
 20
322.5953748209
 30
0.0
 11
249.513908591
 21
322.7303748209
 31
0.0
  0
LINE
  5
2EB
330
442
100
AcDbEntity
  8
0
  6
Continuous
 62
     7
100
AcDbLine
 10
249.648908591
 20
321.6953748209
 30
0.0
 11
249.648908591
 21
322.5953748209
 31
0.0
  0
LINE
  5
2EC
330
442
100
AcDbEntity
  8
0
  6
Continuous
 62
     7
100
AcDbLine
 10
250.548908591
 20
322.5953748209
 30
0.0
 11
250.683908591
 21
322.7303748209
 31
0.0
  0
LINE
  5
2ED
330
442
100
AcDbEntity
  8
0
  6
Continuous
 62
     7
100
AcDbLine
 10
249.648908591
 20
322.5953748209
 30
0.0
 11
250.548908591
 21
322.5953748209
 31
0.0
  0
LINE
  5
2EE
330
442
100
AcDbEntity
  8
0
  6
Continuous
 62
     7
100
AcDbLine
 10
250.548908591
 20
321.6953748209
 30
0.0
 11
250.683908591
 21
321.5603748209
 31
0.0
  0
LINE
  5
2EF
330
442
100
AcDbEntity
  8
0
  6
Continuous
 62
     7
100
AcDbLine
 10
250.548908591
 20
321.6953748209
 30
0.0
 11
250.548908591
 21
322.5953748209
 31
0.0
  0
LINE
  5
2F0
330
442
100
AcDbEntity
  8
0
  6
Continuous
 62
     7
100
AcDbLine
 10
249.648908591
 20
321.6953748209
 30
0.0
 11
250.548908591
 21
321.6953748209
 31
0.0
  0
LINE
  5
2F1
330
442
100
AcDbEntity
  8
0
  6
Continuous
 62
     7
100
AcDbLine
 10
249.8164218511
 20
322.4278615608
 30
0.0
 11
249.648908591
 21
322.5953748209
 31
0.0
  0
LINE
  5
2F2
330
442
100
AcDbEntity
  8
0
  6
Continuous
 62
     7
100
AcDbLine
 10
249.8164218511
 20
322.4278615608
 30
0.0
 11
249.648908591
 21
322.4278615608
 31
0.0
  0
LINE
  5
2F3
330
442
100
AcDbEntity
  8
0
  6
Continuous
 62
     7
100
AcDbLine
 10
249.8164218511
 20
322.5953748209
 30
0.0
 11
249.8164218511
 21
322.4278615608
 31
0.0
  0
LINE
  5
2F4
330
442
100
AcDbEntity
  8
0
  6
Continuous
 62
     7
100
AcDbLine
 10
250.548908591
 20
322.5953748209
 30
0.0
 11
250.3813953309
 21
322.4278615608
 31
0.0
  0
LINE
  5
2F5
330
442
100
AcDbEntity
  8
0
  6
Continuous
 62
     7
100
AcDbLine
 10
250.3813953309
 20
322.5953748209
 30
0.0
 11
250.3813953309
 21
322.4278615608
 31
0.0
  0
LINE
  5
2F6
330
442
100
AcDbEntity
  8
0
  6
Continuous
 62
     7
100
AcDbLine
 10
250.548908591
 20
322.4278615608
 30
0.0
 11
250.3813953309
 21
322.4278615608
 31
0.0
  0
LINE
  5
2F7
330
442
100
AcDbEntity
  8
0
  6
Continuous
 62
     7
100
AcDbLine
 10
250.3813953309
 20
321.8628880811
 30
0.0
 11
250.548908591
 21
321.6953748209
 31
0.0
  0
LINE
  5
2F8
330
442
100
AcDbEntity
  8
0
  6
Continuous
 62
     7
100
AcDbLine
 10
250.3813953309
 20
321.8628880811
 30
0.0
 11
250.3813953309
 21
321.6953748209
 31
0.0
  0
LINE
  5
2F9
330
442
100
AcDbEntity
  8
0
  6
Continuous
 62
     7
100
AcDbLine
 10
249.648908591
 20
321.6953748209
 30
0.0
 11
249.8164218511
 21
321.8628880811
 31
0.0
  0
LINE
  5
2FA
330
442
100
AcDbEntity
  8
0
  6
Continuous
 62
     7
100
AcDbLine
 10
249.8164218511
 20
321.8628880811
 30
0.0
 11
249.8164218511
 21
321.6953748209
 31
0.0
  0
LINE
  5
2FB
330
442
100
AcDbEntity
  8
0
  6
Continuous
 62
     7
100
AcDbLine
 10
250.548908591
 20
321.8628880811
 30
0.0
 11
250.3813953309
 21
321.8628880811
 31
0.0
  0
LINE
  5
2FC
330
442
100
AcDbEntity
  8
0
  6
Continuous
 62
     7
100
AcDbLine
 10
249.8164218511
 20
321.8628880811
 30
0.0
 11
249.648908591
 21
321.8628880811
 31
0.0
  0
LINE
  5
2FD
330
442
100
AcDbEntity
  8
0
  6
Continuous
 62
     7
100
AcDbLine
 10
250.098908591
 20
322.1453748209
 30
0.0
 11
250.3813953309
 21
321.8628880811
 31
0.0
  0
LINE
  5
2FE
330
442
100
AcDbEntity
  8
0
  6
Continuous
 62
     7
100
AcDbLine
 10
250.3813953309
 20
322.4278615608
 30
0.0
 11
250.098908591
 21
322.1453748209
 31
0.0
  0
LINE
  5
2FF
330
442
100
AcDbEntity
  8
0
  6
Continuous
 62
     7
100
AcDbLine
 10
249.8164218511
 20
321.8628880811
 30
0.0
 11
250.098908591
 21
322.1453748209
 31
0.0
  0
LINE
  5
300
330
442
100
AcDbEntity
  8
0
  6
Continuous
 62
     7
100
AcDbLine
 10
250.098908591
 20
322.1453748209
 30
0.0
 11
249.8164218511
 21
322.4278615608
 31
0.0
  0
LINE
  5
301
330
442
100
AcDbEntity
  8
0
  6
Continuous
 62
     7
100
AcDbLine
 10
248.9309195762
 20
244.2606488309
 30
0.0
 11
249.7650759909
 21
243.9227389676
 31
0.0
  0
LINE
  5
302
330
442
100
AcDbEntity
  8
0
  6
Continuous
 62
     7
100
AcDbLine
 10
250.2456589077
 20
245.1090947575
 30
0.0
 11
249.7650759909
 21
243.9227389676
 31
0.0
  0
LINE
  5
303
330
442
100
AcDbEntity
  8
0
  6
Continuous
 62
     7
100
AcDbLine
 10
250.5972787911
 20
245.2579687229
 30
0.0
 11
250.2456589077
 21
245.1090947575
 31
0.0
  0
LINE
  5
304
330
442
100
AcDbEntity
  8
0
  6
Continuous
 62
     7
100
AcDbLine
 10
250.5972787911
 20
245.2579687229
 30
0.0
 11
251.783634581
 21
244.7773858062
 31
0.0
  0
LINE
  5
305
330
442
100
AcDbEntity
  8
0
  6
Continuous
 62
     7
100
AcDbLine
 10
251.783634581
 20
244.7773858062
 30
0.0
 11
252.1215444443
 21
245.6115422209
 31
0.0
  0
LINE
  5
306
330
442
100
AcDbEntity
  8
0
  6
Continuous
 62
     7
100
AcDbLine
 10
250.9351886544
 20
246.0921251377
 30
0.0
 11
252.1215444443
 21
245.6115422209
 31
0.0
  0
LINE
  5
307
330
442
100
AcDbEntity
  8
0
  6
Continuous
 62
     7
100
AcDbLine
 10
250.786314689
 20
246.4437450211
 30
0.0
 11
250.9351886544
 21
246.0921251377
 31
0.0
  0
LINE
  5
308
330
442
100
AcDbEntity
  8
0
  6
Continuous
 62
     7
100
AcDbLine
 10
251.2668976057
 20
247.6301008109
 30
0.0
 11
250.786314689
 21
246.4437450211
 31
0.0
  0
LINE
  5
309
330
442
100
AcDbEntity
  8
0
  6
Continuous
 62
     7
100
AcDbLine
 10
250.432741191
 20
247.9680106743
 30
0.0
 11
251.2668976057
 21
247.6301008109
 31
0.0
  0
LINE
  5
30A
330
442
100
AcDbEntity
  8
0
  6
Continuous
 62
     7
100
AcDbLine
 10
250.432741191
 20
247.9680106743
 30
0.0
 11
249.9521582742
 21
246.7816548844
 31
0.0
  0
LINE
  5
30B
330
442
100
AcDbEntity
  8
0
  6
Continuous
 62
     7
100
AcDbLine
 10
249.6005383908
 20
246.632780919
 30
0.0
 11
249.9521582742
 21
246.7816548844
 31
0.0
  0
LINE
  5
30C
330
442
100
AcDbEntity
  8
0
  6
Continuous
 62
     7
100
AcDbLine
 10
248.414182601
 20
247.1133638357
 30
0.0
 11
249.6005383908
 21
246.632780919
 31
0.0
  0
LINE
  5
30D
330
442
100
AcDbEntity
  8
0
  6
Continuous
 62
     7
100
AcDbLine
 10
248.0762727376
 20
246.279207421
 30
0.0
 11
248.414182601
 21
247.1133638357
 31
0.0
  0
LINE
  5
30E
330
442
100
AcDbEntity
  8
0
  6
Continuous
 62
     7
100
AcDbLine
 10
248.0762727376
 20
246.279207421
 30
0.0
 11
249.2626285275
 21
245.7986245042
 31
0.0
  0
LINE
  5
30F
330
442
100
AcDbEntity
  8
0
  6
Continuous
 62
     7
100
AcDbLine
 10
249.4115024929
 20
245.4470046208
 30
0.0
 11
249.2626285275
 21
245.7986245042
 31
0.0
  0
LINE
  5
310
330
442
100
AcDbEntity
  8
0
  6
Continuous
 62
     7
100
AcDbLine
 10
249.4115024929
 20
245.4470046208
 30
0.0
 11
248.9309195762
 21
244.2606488309
 31
0.0
  0
CIRCLE
  5
311
330
442
100
AcDbEntity
  8
0
  6
Continuous
 62
     7
100
AcDbCircle
 10
250.098908591
 20
245.9453748209
 30
0.0
 40
3.749999999999976
  0
LINE
  5
312
330
442
100
AcDbEntity
  8
0
  6
Continuous
 62
     7
100
AcDbLine
 10
249.8507853153
 20
246.53140796
 30
0.0
 11
249.7763483325
 21
246.7072179017
 31
0.0
  0
LINE
  5
313
330
442
100
AcDbEntity
  8
0
  6
Continuous
 62
     7
100
AcDbLine
 10
250.68494173
 20
246.1934980967
 30
0.0
 11
250.8607516717
 21
246.2679350794
 31
0.0
  0
LINE
  5
314
330
442
100
AcDbEntity
  8
0
  6
Continuous
 62
     7
100
AcDbLine
 10
250.68494173
 20
246.1934980967
 30
0.0
 11
249.8507853153
 21
246.53140796
 31
0.0
  0
LINE
  5
315
330
442
100
AcDbEntity
  8
0
  6
Continuous
 62
     7
100
AcDbLine
 10
249.5128754519
 20
245.6972515452
 30
0.0
 11
249.3370655102
 21
245.6228145625
 31
0.0
  0
LINE
  5
316
330
442
100
AcDbEntity
  8
0
  6
Continuous
 62
     7
100
AcDbLine
 10
249.8507853153
 20
246.53140796
 30
0.0
 11
249.5128754519
 21
245.6972515452
 31
0.0
  0
LINE
  5
317
330
442
100
AcDbEntity
  8
0
  6
Continuous
 62
     7
100
AcDbLine
 10
250.3470318667
 20
245.3593416819
 30
0.0
 11
250.4214688494
 21
245.1835317402
 31
0.0
  0
LINE
  5
318
330
442
100
AcDbEntity
  8
0
  6
Continuous
 62
     7
100
AcDbLine
 10
250.68494173
 20
246.1934980967
 30
0.0
 11
250.3470318667
 21
245.3593416819
 31
0.0
  0
LINE
  5
319
330
442
100
AcDbEntity
  8
0
  6
Continuous
 62
     7
100
AcDbLine
 10
250.3470318667
 20
245.3593416819
 30
0.0
 11
249.5128754519
 21
245.6972515452
 31
0.0
  0
LINE
  5
31A
330
442
100
AcDbEntity
  8
0
  6
Continuous
 62
     7
100
AcDbLine
 10
249.9431496237
 20
246.3132561341
 30
0.0
 11
249.8507853153
 21
246.53140796
 31
0.0
  0
LINE
  5
31B
330
442
100
AcDbEntity
  8
0
  6
Continuous
 62
     7
100
AcDbLine
 10
249.7878915566
 20
246.3761498928
 30
0.0
 11
249.9431496237
 21
246.3132561341
 31
0.0
  0
LINE
  5
31C
330
442
100
AcDbEntity
  8
0
  6
Continuous
 62
     7
100
AcDbLine
 10
249.9431496237
 20
246.3132561341
 30
0.0
 11
250.0060433824
 21
246.4685142013
 31
0.0
  0
LINE
  5
31D
330
442
100
AcDbEntity
  8
0
  6
Continuous
 62
     7
100
AcDbLine
 10
249.5128754519
 20
245.6972515452
 30
0.0
 11
249.7310272778
 21
245.7896158537
 31
0.0
  0
LINE
  5
31E
330
442
100
AcDbEntity
  8
0
  6
Continuous
 62
     7
100
AcDbLine
 10
249.6681335191
 20
245.6343577865
 30
0.0
 11
249.7310272778
 21
245.7896158537
 31
0.0
  0
LINE
  5
31F
330
442
100
AcDbEntity
  8
0
  6
Continuous
 62
     7
100
AcDbLine
 10
250.68494173
 20
246.1934980967
 30
0.0
 11
250.4667899041
 21
246.1011337882
 31
0.0
  0
LINE
  5
320
330
442
100
AcDbEntity
  8
0
  6
Continuous
 62
     7
100
AcDbLine
 10
250.4667899041
 20
246.1011337882
 30
0.0
 11
250.5296836628
 21
246.2563918554
 31
0.0
  0
LINE
  5
321
330
442
100
AcDbEntity
  8
0
  6
Continuous
 62
     7
100
AcDbLine
 10
250.2546675582
 20
245.5774935078
 30
0.0
 11
250.3470318667
 21
245.3593416819
 31
0.0
  0
LINE
  5
322
330
442
100
AcDbEntity
  8
0
  6
Continuous
 62
     7
100
AcDbLine
 10
250.2546675582
 20
245.5774935078
 30
0.0
 11
250.4099256254
 21
245.5145997491
 31
0.0
  0
LINE
  5
323
330
442
100
AcDbEntity
  8
0
  6
Continuous
 62
     7
100
AcDbLine
 10
250.4667899041
 20
246.1011337882
 30
0.0
 11
250.6220479713
 21
246.0382400295
 31
0.0
  0
LINE
  5
324
330
442
100
AcDbEntity
  8
0
  6
Continuous
 62
     7
100
AcDbLine
 10
249.5757692106
 20
245.8525096124
 30
0.0
 11
249.7310272778
 21
245.7896158537
 31
0.0
  0
LINE
  5
325
330
442
100
AcDbEntity
  8
0
  6
Continuous
 62
     7
100
AcDbLine
 10
250.1917737995
 20
245.4222354406
 30
0.0
 11
250.2546675582
 21
245.5774935078
 31
0.0
  0
LINE
  5
326
330
442
100
AcDbEntity
  8
0
  6
Continuous
 62
     7
100
AcDbLine
 10
250.098908591
 20
245.9453748209
 30
0.0
 11
249.9431496237
 21
246.3132561341
 31
0.0
  0
LINE
  5
327
330
442
100
AcDbEntity
  8
0
  6
Continuous
 62
     7
100
AcDbLine
 10
250.4667899041
 20
246.1011337882
 30
0.0
 11
250.098908591
 21
245.9453748209
 31
0.0
  0
LINE
  5
328
330
442
100
AcDbEntity
  8
0
  6
Continuous
 62
     7
100
AcDbLine
 10
249.7310272778
 20
245.7896158537
 30
0.0
 11
250.098908591
 21
245.9453748209
 31
0.0
  0
LINE
  5
329
330
442
100
AcDbEntity
  8
0
  6
Continuous
 62
     7
100
AcDbLine
 10
250.098908591
 20
245.9453748209
 30
0.0
 11
250.2546675582
 21
245.5774935078
 31
0.0
  0
CIRCLE
  5
32A
330
442
100
AcDbEntity
  8
0
  6
Continuous
 62
     7
100
AcDbCircle
 10
250.098908591
 20
193.9453748209
 30
0.0
 40
3.750000000000028
  0
LINE
  5
32B
330
442
100
AcDbEntity
  8
0
  6
Continuous
 62
     7
100
AcDbLine
 10
250.548908591
 20
195.9453748209
 30
0.0
 11
249.648908591
 21
195.9453748209
 31
0.0
  0
LINE
  5
32C
330
442
100
AcDbEntity
  8
0
  6
Continuous
 62
     7
100
AcDbLine
 10
249.648908591
 20
194.6653748209
 30
0.0
 11
249.648908591
 21
195.9453748209
 31
0.0
  0
LINE
  5
32D
330
442
100
AcDbEntity
  8
0
  6
Continuous
 62
     7
100
AcDbLine
 10
249.378908591
 20
194.3953748209
 30
0.0
 11
249.648908591
 21
194.6653748209
 31
0.0
  0
LINE
  5
32E
330
442
100
AcDbEntity
  8
0
  6
Continuous
 62
     7
100
AcDbLine
 10
249.378908591
 20
194.3953748209
 30
0.0
 11
248.098908591
 21
194.3953748209
 31
0.0
  0
LINE
  5
32F
330
442
100
AcDbEntity
  8
0
  6
Continuous
 62
     7
100
AcDbLine
 10
248.098908591
 20
194.3953748209
 30
0.0
 11
248.098908591
 21
193.4953748209
 31
0.0
  0
LINE
  5
330
330
442
100
AcDbEntity
  8
0
  6
Continuous
 62
     7
100
AcDbLine
 10
249.378908591
 20
193.4953748209
 30
0.0
 11
248.098908591
 21
193.4953748209
 31
0.0
  0
LINE
  5
331
330
442
100
AcDbEntity
  8
0
  6
Continuous
 62
     7
100
AcDbLine
 10
249.648908591
 20
193.2253748209
 30
0.0
 11
249.378908591
 21
193.4953748209
 31
0.0
  0
LINE
  5
332
330
442
100
AcDbEntity
  8
0
  6
Continuous
 62
     7
100
AcDbLine
 10
249.648908591
 20
191.9453748209
 30
0.0
 11
249.648908591
 21
193.2253748209
 31
0.0
  0
LINE
  5
333
330
442
100
AcDbEntity
  8
0
  6
Continuous
 62
     7
100
AcDbLine
 10
250.548908591
 20
191.9453748209
 30
0.0
 11
249.648908591
 21
191.9453748209
 31
0.0
  0
LINE
  5
334
330
442
100
AcDbEntity
  8
0
  6
Continuous
 62
     7
100
AcDbLine
 10
250.548908591
 20
191.9453748209
 30
0.0
 11
250.548908591
 21
193.2253748209
 31
0.0
  0
LINE
  5
335
330
442
100
AcDbEntity
  8
0
  6
Continuous
 62
     7
100
AcDbLine
 10
250.818908591
 20
193.4953748209
 30
0.0
 11
250.548908591
 21
193.2253748209
 31
0.0
  0
LINE
  5
336
330
442
100
AcDbEntity
  8
0
  6
Continuous
 62
     7
100
AcDbLine
 10
252.098908591
 20
193.4953748209
 30
0.0
 11
250.818908591
 21
193.4953748209
 31
0.0
  0
LINE
  5
337
330
442
100
AcDbEntity
  8
0
  6
Continuous
 62
     7
100
AcDbLine
 10
252.098908591
 20
194.3953748209
 30
0.0
 11
252.098908591
 21
193.4953748209
 31
0.0
  0
LINE
  5
338
330
442
100
AcDbEntity
  8
0
  6
Continuous
 62
     7
100
AcDbLine
 10
252.098908591
 20
194.3953748209
 30
0.0
 11
250.818908591
 21
194.3953748209
 31
0.0
  0
LINE
  5
339
330
442
100
AcDbEntity
  8
0
  6
Continuous
 62
     7
100
AcDbLine
 10
250.548908591
 20
194.6653748209
 30
0.0
 11
250.818908591
 21
194.3953748209
 31
0.0
  0
LINE
  5
33A
330
442
100
AcDbEntity
  8
0
  6
Continuous
 62
     7
100
AcDbLine
 10
250.548908591
 20
194.6653748209
 30
0.0
 11
250.548908591
 21
195.9453748209
 31
0.0
  0
LINE
  5
33B
330
442
100
AcDbEntity
  8
0
  6
Continuous
 62
     7
100
AcDbLine
 10
250.548908591
 20
194.3953748209
 30
0.0
 11
250.683908591
 21
194.5303748209
 31
0.0
  0
LINE
  5
33C
330
442
100
AcDbEntity
  8
0
  6
Continuous
 62
     7
100
AcDbLine
 10
249.648908591
 20
194.3953748209
 30
0.0
 11
250.548908591
 21
194.3953748209
 31
0.0
  0
LINE
  5
33D
330
442
100
AcDbEntity
  8
0
  6
Continuous
 62
     7
100
AcDbLine
 10
249.648908591
 20
194.3953748209
 30
0.0
 11
249.513908591
 21
194.5303748209
 31
0.0
  0
LINE
  5
33E
330
442
100
AcDbEntity
  8
0
  6
Continuous
 62
     7
100
AcDbLine
 10
249.648908591
 20
193.4953748209
 30
0.0
 11
249.513908591
 21
193.3603748209
 31
0.0
  0
LINE
  5
33F
330
442
100
AcDbEntity
  8
0
  6
Continuous
 62
     7
100
AcDbLine
 10
249.648908591
 20
193.4953748209
 30
0.0
 11
249.648908591
 21
194.3953748209
 31
0.0
  0
LINE
  5
340
330
442
100
AcDbEntity
  8
0
  6
Continuous
 62
     7
100
AcDbLine
 10
250.548908591
 20
193.4953748209
 30
0.0
 11
250.683908591
 21
193.3603748209
 31
0.0
  0
LINE
  5
341
330
442
100
AcDbEntity
  8
0
  6
Continuous
 62
     7
100
AcDbLine
 10
250.548908591
 20
193.4953748209
 30
0.0
 11
250.548908591
 21
194.3953748209
 31
0.0
  0
LINE
  5
342
330
442
100
AcDbEntity
  8
0
  6
Continuous
 62
     7
100
AcDbLine
 10
249.648908591
 20
193.4953748209
 30
0.0
 11
250.548908591
 21
193.4953748209
 31
0.0
  0
LINE
  5
343
330
442
100
AcDbEntity
  8
0
  6
Continuous
 62
     7
100
AcDbLine
 10
249.648908591
 20
193.4953748209
 30
0.0
 11
249.8164218511
 21
193.6628880811
 31
0.0
  0
LINE
  5
344
330
442
100
AcDbEntity
  8
0
  6
Continuous
 62
     7
100
AcDbLine
 10
249.8164218511
 20
193.6628880811
 30
0.0
 11
249.8164218511
 21
193.4953748209
 31
0.0
  0
LINE
  5
345
330
442
100
AcDbEntity
  8
0
  6
Continuous
 62
     7
100
AcDbLine
 10
250.3813953309
 20
193.6628880811
 30
0.0
 11
250.548908591
 21
193.4953748209
 31
0.0
  0
LINE
  5
346
330
442
100
AcDbEntity
  8
0
  6
Continuous
 62
     7
100
AcDbLine
 10
250.548908591
 20
193.6628880811
 30
0.0
 11
250.3813953309
 21
193.6628880811
 31
0.0
  0
LINE
  5
347
330
442
100
AcDbEntity
  8
0
  6
Continuous
 62
     7
100
AcDbLine
 10
249.8164218511
 20
193.6628880811
 30
0.0
 11
249.648908591
 21
193.6628880811
 31
0.0
  0
LINE
  5
348
330
442
100
AcDbEntity
  8
0
  6
Continuous
 62
     7
100
AcDbLine
 10
249.8164218511
 20
194.2278615608
 30
0.0
 11
249.648908591
 21
194.3953748209
 31
0.0
  0
LINE
  5
349
330
442
100
AcDbEntity
  8
0
  6
Continuous
 62
     7
100
AcDbLine
 10
249.8164218511
 20
194.3953748209
 30
0.0
 11
249.8164218511
 21
194.2278615608
 31
0.0
  0
LINE
  5
34A
330
442
100
AcDbEntity
  8
0
  6
Continuous
 62
     7
100
AcDbLine
 10
250.548908591
 20
194.3953748209
 30
0.0
 11
250.3813953309
 21
194.2278615608
 31
0.0
  0
LINE
  5
34B
330
442
100
AcDbEntity
  8
0
  6
Continuous
 62
     7
100
AcDbLine
 10
250.3813953309
 20
194.3953748209
 30
0.0
 11
250.3813953309
 21
194.2278615608
 31
0.0
  0
LINE
  5
34C
330
442
100
AcDbEntity
  8
0
  6
Continuous
 62
     7
100
AcDbLine
 10
250.548908591
 20
194.2278615608
 30
0.0
 11
250.3813953309
 21
194.2278615608
 31
0.0
  0
LINE
  5
34D
330
442
100
AcDbEntity
  8
0
  6
Continuous
 62
     7
100
AcDbLine
 10
250.3813953309
 20
193.6628880811
 30
0.0
 11
250.3813953309
 21
193.4953748209
 31
0.0
  0
LINE
  5
34E
330
442
100
AcDbEntity
  8
0
  6
Continuous
 62
     7
100
AcDbLine
 10
249.8164218511
 20
194.2278615608
 30
0.0
 11
249.648908591
 21
194.2278615608
 31
0.0
  0
LINE
  5
34F
330
442
100
AcDbEntity
  8
0
  6
Continuous
 62
     7
100
AcDbLine
 10
250.098908591
 20
193.9453748209
 30
0.0
 11
250.3813953309
 21
193.6628880811
 31
0.0
  0
LINE
  5
350
330
442
100
AcDbEntity
  8
0
  6
Continuous
 62
     7
100
AcDbLine
 10
250.3813953309
 20
194.2278615608
 30
0.0
 11
250.098908591
 21
193.9453748209
 31
0.0
  0
LINE
  5
351
330
442
100
AcDbEntity
  8
0
  6
Continuous
 62
     7
100
AcDbLine
 10
249.8164218511
 20
193.6628880811
 30
0.0
 11
250.098908591
 21
193.9453748209
 31
0.0
  0
LINE
  5
352
330
442
100
AcDbEntity
  8
0
  6
Continuous
 62
     7
100
AcDbLine
 10
250.098908591
 20
193.9453748209
 30
0.0
 11
249.8164218511
 21
194.2278615608
 31
0.0
  0
LINE
  5
353
330
442
100
AcDbEntity
  8
0
  6
Continuous
 62
     7
100
AcDbLine
 10
253.798908591
 20
234.6453748209
 30
0.0
 11
246.398908591
 21
234.6453748209
 31
0.0
  0
LINE
  5
354
330
442
100
AcDbEntity
  8
0
  6
Continuous
 62
     7
100
AcDbLine
 10
253.798908591
 20
205.2453748209
 30
0.0
 11
253.798908591
 21
234.6453748209
 31
0.0
  0
LINE
  5
355
330
442
100
AcDbEntity
  8
0
  6
Continuous
 62
     7
100
AcDbLine
 10
246.398908591
 20
205.2453748209
 30
0.0
 11
253.798908591
 21
205.2453748209
 31
0.0
  0
LINE
  5
356
330
442
100
AcDbEntity
  8
0
  6
Continuous
 62
     7
100
AcDbLine
 10
246.398908591
 20
234.6453748209
 30
0.0
 11
246.398908591
 21
205.2453748209
 31
0.0
  0
LINE
  5
357
330
442
100
AcDbEntity
  8
0
  6
Continuous
 62
     7
100
AcDbLine
 10
246.098908591
 20
205.2453748209
 30
0.0
 11
246.098908591
 21
234.6453748209
 31
0.0
  0
LINE
  5
358
330
442
100
AcDbEntity
  8
0
  6
Continuous
 62
     7
100
AcDbLine
 10
246.098908591
 20
234.6453748209
 30
0.0
 11
246.398908591
 21
234.6453748209
 31
0.0
  0
LINE
  5
359
330
442
100
AcDbEntity
  8
0
  6
Continuous
 62
     7
100
AcDbLine
 10
246.398908591
 20
205.2453748209
 30
0.0
 11
246.098908591
 21
205.2453748209
 31
0.0
  0
LINE
  5
35A
330
442
100
AcDbEntity
  8
0
  6
Continuous
 62
     7
100
AcDbLine
 10
246.398908591
 20
234.9453748209
 30
0.0
 11
246.398908591
 21
234.6453748209
 31
0.0
  0
ARC
  5
35B
330
442
100
AcDbEntity
  8
0
  6
Continuous
 62
     7
100
AcDbCircle
 10
246.398908591
 20
234.6453748209
 30
0.0
 40
0.2999999999999829
100
AcDbArc
 50
90.0
 51
180.0
  0
LINE
  5
35C
330
442
100
AcDbEntity
  8
0
  6
Continuous
 62
     7
100
AcDbLine
 10
246.398908591
 20
234.9453748209
 30
0.0
 11
253.798908591
 21
234.9453748209
 31
0.0
  0
LINE
  5
35D
330
442
100
AcDbEntity
  8
0
  6
Continuous
 62
     7
100
AcDbLine
 10
253.798908591
 20
234.9453748209
 30
0.0
 11
253.798908591
 21
234.6453748209
 31
0.0
  0
ARC
  5
35E
330
442
100
AcDbEntity
  8
0
  6
Continuous
 62
     7
100
AcDbCircle
 10
253.798908591
 20
234.6453748209
 30
0.0
 40
0.2999999999999829
100
AcDbArc
 50
0.0
 51
90.0
  0
LINE
  5
35F
330
442
100
AcDbEntity
  8
0
  6
Continuous
 62
     7
100
AcDbLine
 10
253.798908591
 20
234.6453748209
 30
0.0
 11
254.098908591
 21
234.6453748209
 31
0.0
  0
LINE
  5
360
330
442
100
AcDbEntity
  8
0
  6
Continuous
 62
     7
100
AcDbLine
 10
254.098908591
 20
234.6453748209
 30
0.0
 11
254.098908591
 21
205.2453748209
 31
0.0
  0
LINE
  5
361
330
442
100
AcDbEntity
  8
0
  6
Continuous
 62
     7
100
AcDbLine
 10
254.098908591
 20
205.2453748209
 30
0.0
 11
253.798908591
 21
205.2453748209
 31
0.0
  0
ARC
  5
362
330
442
100
AcDbEntity
  8
0
  6
Continuous
 62
     7
100
AcDbCircle
 10
246.398908591
 20
205.2453748209
 30
0.0
 40
0.3000000000000114
100
AcDbArc
 50
180.0
 51
270.0
  0
LINE
  5
363
330
442
100
AcDbEntity
  8
0
  6
Continuous
 62
     7
100
AcDbLine
 10
246.398908591
 20
205.2453748209
 30
0.0
 11
246.398908591
 21
204.9453748209
 31
0.0
  0
LINE
  5
364
330
442
100
AcDbEntity
  8
0
  6
Continuous
 62
     7
100
AcDbLine
 10
253.798908591
 20
205.2453748209
 30
0.0
 11
253.798908591
 21
204.9453748209
 31
0.0
  0
LINE
  5
365
330
442
100
AcDbEntity
  8
0
  6
Continuous
 62
     7
100
AcDbLine
 10
253.798908591
 20
204.9453748209
 30
0.0
 11
246.398908591
 21
204.9453748209
 31
0.0
  0
ARC
  5
366
330
442
100
AcDbEntity
  8
0
  6
Continuous
 62
     7
100
AcDbCircle
 10
253.798908591
 20
205.2453748209
 30
0.0
 40
0.3000000000000114
100
AcDbArc
 50
270.0
 51
0.0
  0
LINE
  5
367
330
442
100
AcDbEntity
  8
0
  6
Continuous
 62
     7
100
AcDbLine
 10
245.9965195504
 20
311.2453748209
 30
0.0
 11
245.9965195504
 21
279.2453748209
 31
0.0
  0
LINE
  5
368
330
442
100
AcDbEntity
  8
0
  6
Continuous
 62
     7
100
AcDbLine
 10
245.9965195504
 20
279.2453748209
 30
0.0
 11
245.1621376236
 21
279.2453748209
 31
0.0
  0
LINE
  5
369
330
442
100
AcDbEntity
  8
0
  6
Continuous
 62
     7
100
AcDbLine
 10
245.1621376236
 20
311.2453748209
 30
0.0
 11
245.1621376236
 21
279.2453748209
 31
0.0
  0
LINE
  5
36A
330
442
100
AcDbEntity
  8
0
  6
Continuous
 62
     7
100
AcDbLine
 10
245.9965195504
 20
311.2453748209
 30
0.0
 11
245.1621376236
 21
311.2453748209
 31
0.0
  0
LINE
  5
36B
330
442
100
AcDbEntity
  8
0
  6
Continuous
 62
     7
100
AcDbLine
 10
253.2015290446
 20
283.2271042529
 30
0.0
 11
248.098908591
 21
283.2271042529
 31
0.0
  0
LINE
  5
36C
330
442
100
AcDbEntity
  8
0
  6
Continuous
 62
     7
100
AcDbLine
 10
248.098908591
 20
283.2271042529
 30
0.0
 11
246.758908591
 21
279.2453748209
 31
0.0
  0
LINE
  5
36D
330
442
100
AcDbEntity
  8
0
  6
Continuous
 62
     7
100
AcDbLine
 10
248.098908591
 20
307.263645389
 30
0.0
 11
246.758908591
 21
311.2453748209
 31
0.0
  0
LINE
  5
36E
330
442
100
AcDbEntity
  8
0
  6
Continuous
 62
     7
100
AcDbLine
 10
253.2015290446
 20
307.263645389
 30
0.0
 11
248.098908591
 21
307.263645389
 31
0.0
  0
LINE
  5
36F
330
442
100
AcDbEntity
  8
0
  6
Continuous
 62
     7
100
AcDbLine
 10
253.2015290446
 20
307.263645389
 30
0.0
 11
253.2015290446
 21
297.3453748209
 31
0.0
  0
LINE
  5
370
330
442
100
AcDbEntity
  8
0
  6
Continuous
 62
     7
100
AcDbLine
 10
253.2015290446
 20
297.3453748209
 30
0.0
 11
252.7639622968
 21
297.3453748209
 31
0.0
  0
LINE
  5
371
330
442
100
AcDbEntity
  8
0
  6
Continuous
 62
     7
100
AcDbLine
 10
252.7639622968
 20
301.9953748209
 30
0.0
 11
252.7639622968
 21
297.3453748209
 31
0.0
  0
LINE
  5
372
330
442
100
AcDbEntity
  8
0
  6
Continuous
 62
     7
100
AcDbLine
 10
252.7639622968
 20
301.9953748209
 30
0.0
 11
249.7941138158
 21
301.9953748209
 31
0.0
  0
LINE
  5
373
330
442
100
AcDbEntity
  8
0
  6
Continuous
 62
     7
100
AcDbLine
 10
249.7941138158
 20
301.9953748209
 30
0.0
 11
249.7941138158
 21
297.3453748209
 31
0.0
  0
LINE
  5
374
330
442
100
AcDbEntity
  8
0
  6
Continuous
 62
     7
100
AcDbLine
 10
249.7941138158
 20
297.3453748209
 30
0.0
 11
246.4521704906
 21
297.3453748209
 31
0.0
  0
LINE
  5
375
330
442
100
AcDbEntity
  8
0
  6
Continuous
 62
     7
100
AcDbLine
 10
246.4521704906
 20
297.3453748209
 30
0.0
 11
246.4521704906
 21
293.1453748209
 31
0.0
  0
LINE
  5
376
330
442
100
AcDbEntity
  8
0
  6
Continuous
 62
     7
100
AcDbLine
 10
249.7941138158
 20
293.1453748209
 30
0.0
 11
246.4521704906
 21
293.1453748209
 31
0.0
  0
LINE
  5
377
330
442
100
AcDbEntity
  8
0
  6
Continuous
 62
     7
100
AcDbLine
 10
249.7941138158
 20
293.1453748209
 30
0.0
 11
249.7941138158
 21
288.4953748209
 31
0.0
  0
LINE
  5
378
330
442
100
AcDbEntity
  8
0
  6
Continuous
 62
     7
100
AcDbLine
 10
252.7639622968
 20
288.4953748209
 30
0.0
 11
249.7941138158
 21
288.4953748209
 31
0.0
  0
LINE
  5
379
330
442
100
AcDbEntity
  8
0
  6
Continuous
 62
     7
100
AcDbLine
 10
252.7639622968
 20
293.1453748209
 30
0.0
 11
252.7639622968
 21
288.4953748209
 31
0.0
  0
LINE
  5
37A
330
442
100
AcDbEntity
  8
0
  6
Continuous
 62
     7
100
AcDbLine
 10
253.2015290446
 20
293.1453748209
 30
0.0
 11
252.7639622968
 21
293.1453748209
 31
0.0
  0
LINE
  5
37B
330
442
100
AcDbEntity
  8
0
  6
Continuous
 62
     7
100
AcDbLine
 10
253.2015290446
 20
293.1453748209
 30
0.0
 11
253.2015290446
 21
283.2271042529
 31
0.0
  0
LINE
  5
37C
330
442
100
AcDbEntity
  8
0
  6
Continuous
 62
     7
100
AcDbLine
 10
246.758908591
 20
279.2453748209
 30
0.0
 11
245.9965195504
 21
279.2453748209
 31
0.0
  0
LINE
  5
37D
330
442
100
AcDbEntity
  8
0
  6
Continuous
 62
     7
100
AcDbLine
 10
246.758908591
 20
311.2453748209
 30
0.0
 11
245.9965195504
 21
311.2453748209
 31
0.0
  0
LINE
  5
37E
330
442
100
AcDbEntity
  8
0
  6
Continuous
 62
     7
100
AcDbLine
 10
244.098908591
 20
279.2453748209
 30
0.0
 11
244.098908591
 21
311.2453748209
 31
0.0
  0
LINE
  5
37F
330
442
100
AcDbEntity
  8
0
  6
Continuous
 62
     7
100
AcDbLine
 10
244.098908591
 20
279.2453748209
 30
0.0
 11
245.1621376236
 21
279.2453748209
 31
0.0
  0
LINE
  5
380
330
442
100
AcDbEntity
  8
0
  6
Continuous
 62
     7
100
AcDbLine
 10
244.098908591
 20
311.2453748209
 30
0.0
 11
245.1621376236
 21
311.2453748209
 31
0.0
  0
LINE
  5
381
330
442
100
AcDbEntity
  8
0
  6
Continuous
 62
     7
100
AcDbLine
 10
251.3497487344
 20
293.1453748209
 30
0.0
 11
251.3497487344
 21
288.4953748209
 31
0.0
  0
LINE
  5
382
330
442
100
AcDbEntity
  8
0
  6
Continuous
 62
     7
100
AcDbLine
 10
251.3497487344
 20
301.9953748209
 30
0.0
 11
251.3497487344
 21
297.3453748209
 31
0.0
  0
LINE
  5
383
330
442
100
AcDbEntity
  8
0
  6
Continuous
 62
     7
100
AcDbLine
 10
254.5838984742
 20
297.3453748209
 30
0.0
 11
254.5838984742
 21
293.1453748209
 31
0.0
  0
LINE
  5
384
330
442
100
AcDbEntity
  8
0
  6
Continuous
 62
     7
100
AcDbLine
 10
251.3497487344
 20
297.3453748209
 30
0.0
 11
252.7639622968
 21
297.3453748209
 31
0.0
  0
LINE
  5
385
330
442
100
AcDbEntity
  8
0
  6
Continuous
 62
     7
100
AcDbLine
 10
251.3497487344
 20
293.1453748209
 30
0.0
 11
252.7639622968
 21
293.1453748209
 31
0.0
  0
LINE
  5
386
330
442
100
AcDbEntity
  8
0
  6
Continuous
 62
     7
100
AcDbLine
 10
253.5665290446
 20
307.263645389
 30
0.0
 11
253.5665290446
 21
297.3453748209
 31
0.0
  0
LINE
  5
387
330
442
100
AcDbEntity
  8
0
  6
Continuous
 62
     7
100
AcDbLine
 10
253.2068880283
 20
297.3453748209
 30
0.0
 11
253.2015290446
 21
297.3453748209
 31
0.0
  0
LINE
  5
388
330
442
100
AcDbEntity
  8
0
  6
Continuous
 62
     7
100
AcDbLine
 10
253.5665290446
 20
297.3453748209
 30
0.0
 11
253.2068880283
 21
297.3453748209
 31
0.0
  0
LINE
  5
389
330
442
100
AcDbEntity
  8
0
  6
Continuous
 62
     7
100
AcDbLine
 10
253.5665290446
 20
307.263645389
 30
0.0
 11
253.2015290446
 21
307.263645389
 31
0.0
  0
LINE
  5
38A
330
442
100
AcDbEntity
  8
0
  6
Continuous
 62
     7
100
AcDbLine
 10
253.5665290446
 20
293.1453748209
 30
0.0
 11
253.5665290446
 21
283.2271042529
 31
0.0
  0
LINE
  5
38B
330
442
100
AcDbEntity
  8
0
  6
Continuous
 62
     7
100
AcDbLine
 10
253.5665290446
 20
293.1453748209
 30
0.0
 11
253.2068880283
 21
293.1453748209
 31
0.0
  0
LINE
  5
38C
330
442
100
AcDbEntity
  8
0
  6
Continuous
 62
     7
100
AcDbLine
 10
253.2068880283
 20
293.1453748209
 30
0.0
 11
253.2015290446
 21
293.1453748209
 31
0.0
  0
LINE
  5
38D
330
442
100
AcDbEntity
  8
0
  6
Continuous
 62
     7
100
AcDbLine
 10
253.5665290446
 20
283.2271042529
 30
0.0
 11
253.2015290446
 21
283.2271042529
 31
0.0
  0
LINE
  5
38E
330
442
100
AcDbEntity
  8
0
  6
Continuous
 62
     7
100
AcDbLine
 10
256.064908591
 20
307.263645389
 30
0.0
 11
256.064908591
 21
283.2271042529
 31
0.0
  0
LINE
  5
38F
330
442
100
AcDbEntity
  8
0
  6
Continuous
 62
     7
100
AcDbLine
 10
255.4952494445
 20
297.3453748209
 30
0.0
 11
255.4952494445
 21
293.1453748209
 31
0.0
  0
LINE
  5
390
330
442
100
AcDbEntity
  8
0
  6
Continuous
 62
     7
100
AcDbLine
 10
255.4952494445
 20
293.1453748209
 30
0.0
 11
253.5665290446
 21
293.1453748209
 31
0.0
  0
LINE
  5
391
330
442
100
AcDbEntity
  8
0
  6
Continuous
 62
     7
100
AcDbLine
 10
255.4952494445
 20
297.3453748209
 30
0.0
 11
253.5665290446
 21
297.3453748209
 31
0.0
  0
LINE
  5
392
330
442
100
AcDbEntity
  8
0
  6
Continuous
 62
     7
100
AcDbLine
 10
256.064908591
 20
283.2271042529
 30
0.0
 11
253.5665290446
 21
283.2271042529
 31
0.0
  0
LINE
  5
393
330
442
100
AcDbEntity
  8
0
  6
Continuous
 62
     7
100
AcDbLine
 10
256.064908591
 20
307.263645389
 30
0.0
 11
253.5665290446
 21
307.263645389
 31
0.0
  0
LINE
  5
394
330
442
100
AcDbEntity
  8
0
  6
Continuous
 62
     7
100
AcDbLine
 10
256.098908591
 20
307.263645389
 30
0.0
 11
256.098908591
 21
283.2271042529
 31
0.0
  0
LINE
  5
395
330
442
100
AcDbEntity
  8
0
  6
Continuous
 62
     7
100
AcDbLine
 10
256.098908591
 20
283.2271042529
 30
0.0
 11
256.064908591
 21
283.2271042529
 31
0.0
  0
LINE
  5
396
330
442
100
AcDbEntity
  8
0
  6
Continuous
 62
     7
100
AcDbLine
 10
256.098908591
 20
307.263645389
 30
0.0
 11
256.064908591
 21
307.263645389
 31
0.0
  0
LINE
  5
397
330
442
100
AcDbEntity
  8
0
  6
Continuous
 62
     7
100
AcDbLine
 10
246.098908591
 20
205.2453748209
 30
0.0
 11
246.048908591
 21
205.2453748209
 31
0.0
  0
LINE
  5
398
330
442
100
AcDbEntity
  8
0
  6
Continuous
 62
     7
100
AcDbLine
 10
246.048908591
 20
234.6453748209
 30
0.0
 11
246.098908591
 21
234.6453748209
 31
0.0
  0
LINE
  5
399
330
442
100
AcDbEntity
  8
0
  6
Continuous
 62
     7
100
AcDbLine
 10
253.798908591
 20
234.9953748209
 30
0.0
 11
253.798908591
 21
234.9453748209
 31
0.0
  0
LINE
  5
39A
330
442
100
AcDbEntity
  8
0
  6
Continuous
 62
     7
100
AcDbLine
 10
246.398908591
 20
234.9953748209
 30
0.0
 11
246.398908591
 21
234.9453748209
 31
0.0
  0
LINE
  5
39B
330
442
100
AcDbEntity
  8
0
  6
Continuous
 62
     7
100
AcDbLine
 10
254.148908591
 20
234.6453748209
 30
0.0
 11
254.098908591
 21
234.6453748209
 31
0.0
  0
LINE
  5
39C
330
442
100
AcDbEntity
  8
0
  6
Continuous
 62
     7
100
AcDbLine
 10
254.098908591
 20
205.2453748209
 30
0.0
 11
254.148908591
 21
205.2453748209
 31
0.0
  0
LINE
  5
39D
330
442
100
AcDbEntity
  8
0
  6
Continuous
 62
     7
100
AcDbLine
 10
253.798908591
 20
204.9453748209
 30
0.0
 11
253.798908591
 21
204.8953748209
 31
0.0
  0
LINE
  5
39E
330
442
100
AcDbEntity
  8
0
  6
Continuous
 62
     7
100
AcDbLine
 10
246.398908591
 20
204.9453748209
 30
0.0
 11
246.398908591
 21
204.8953748209
 31
0.0
  0
INSERT
  5
3CC
330
442
100
AcDbEntity
  8
0
  6
Continuous
 62
     7
100
AcDbBlockReference
  2
SW_CENTERMARKSYMBOL_11
 10
250.098908591
 20
353.9453748209
 30
0.0
  0
INSERT
  5
3D8
330
442
100
AcDbEntity
  8
0
  6
Continuous
 62
     7
100
AcDbBlockReference
  2
SW_CENTERMARKSYMBOL_12
 10
250.098908591
 20
145.9453748209
 30
0.0
  0
ARC
  5
3D9
330
442
100
AcDbEntity
  8
0
  6
Continuous
 62
     7
100
AcDbCircle
 10
110.6847689631
 20
47.5610420728
 30
0.0
 40
2.000000000000028
100
AcDbArc
 50
270.0
 51
0.0
  0
LINE
  5
3DA
330
442
100
AcDbEntity
  8
0
  6
Continuous
 62
     7
100
AcDbLine
 10
80.0847689631
 20
45.5610420728
 30
0.0
 11
110.6847689631
 21
45.5610420728
 31
0.0
  0
LINE
  5
3DB
330
442
100
AcDbEntity
  8
0
  6
Continuous
 62
     7
100
AcDbLine
 10
110.6847689631
 20
61.0610420728
 30
0.0
 11
80.0847689631
 21
61.0610420728
 31
0.0
  0
ARC
  5
3DC
330
442
100
AcDbEntity
  8
0
  6
Continuous
 62
     7
100
AcDbCircle
 10
110.6847689631
 20
59.0610420728
 30
0.0
 40
2.000000000000021
100
AcDbArc
 50
0.0
 51
90.0
  0
LINE
  5
3DD
330
442
100
AcDbEntity
  8
0
  6
Continuous
 62
     7
100
AcDbLine
 10
112.6847689631
 20
47.5610420728
 30
0.0
 11
112.6847689631
 21
59.0610420728
 31
0.0
  0
LINE
  5
3DE
330
442
100
AcDbEntity
  8
0
  6
Continuous
 62
     7
100
AcDbLine
 10
77.0847689631
 20
42.3110420728
 30
0.0
 11
80.0847689631
 21
42.3110420728
 31
0.0
  0
LINE
  5
3DF
330
442
100
AcDbEntity
  8
0
  6
Continuous
 62
     7
100
AcDbLine
 10
77.0847689631
 20
42.3110420728
 30
0.0
 11
77.0847689631
 21
64.3110420728
 31
0.0
  0
LINE
  5
3E0
330
442
100
AcDbEntity
  8
0
  6
Continuous
 62
     7
100
AcDbLine
 10
77.0847689631
 20
64.3110420728
 30
0.0
 11
80.0847689631
 21
64.3110420728
 31
0.0
  0
LINE
  5
3E1
330
442
100
AcDbEntity
  8
0
  6
Continuous
 62
     7
100
AcDbLine
 10
80.0847689631
 20
42.3110420728
 30
0.0
 11
80.0847689631
 21
64.3110420728
 31
0.0
  0
ARC
  5
3E2
330
442
100
AcDbEntity
  8
0
  6
Continuous
 62
     7
100
AcDbCircle
 10
149.4937787054
 20
60.1860420728
 30
0.0
 40
0.892678553567814
100
AcDbArc
 50
351.9505330245
 51
78.578246341
  0
LINE
  5
3E3
330
442
100
AcDbEntity
  8
0
  6
Continuous
 62
     7
100
AcDbLine
 10
149.6705554007
 20
60.0610420728
 30
0.0
 11
150.3776621819
 21
60.0610420728
 31
0.0
  0
LINE
  5
3E4
330
442
100
AcDbEntity
  8
0
  6
Continuous
 62
     7
100
AcDbLine
 10
149.6705554007
 20
61.0610420728
 30
0.0
 11
149.6705554007
 21
60.0610420728
 31
0.0
  0
LINE
  5
3E5
330
442
100
AcDbEntity
  8
0
  6
Continuous
 62
     7
100
AcDbLine
 10
150.3776621819
 20
60.0610420728
 30
0.0
 11
150.3776621819
 21
46.5610420728
 31
0.0
  0
LINE
  5
3E6
330
442
100
AcDbEntity
  8
0
  6
Continuous
 62
     7
100
AcDbLine
 10
150.3776621819
 20
46.5610420728
 30
0.0
 11
149.6705554007
 21
46.5610420728
 31
0.0
  0
LINE
  5
3E7
330
442
100
AcDbEntity
  8
0
  6
Continuous
 62
     7
100
AcDbLine
 10
149.6705554007
 20
46.5610420728
 30
0.0
 11
149.6705554007
 21
60.0610420728
 31
0.0
  0
LINE
  5
3E8
330
442
100
AcDbEntity
  8
0
  6
Continuous
 62
     7
100
AcDbLine
 10
110.6847689631
 20
61.0610420728
 30
0.0
 11
149.6705554007
 21
61.0610420728
 31
0.0
  0
ARC
  5
3E9
330
442
100
AcDbEntity
  8
0
  6
Continuous
 62
     7
100
AcDbCircle
 10
149.4937787054
 20
46.4360420728
 30
0.0
 40
0.892678553567814
100
AcDbArc
 50
281.421753659
 51
8.0494669755
  0
LINE
  5
3EA
330
442
100
AcDbEntity
  8
0
  6
Continuous
 62
     7
100
AcDbLine
 10
149.6705554007
 20
46.5610420728
 30
0.0
 11
149.6705554007
 21
45.5610420728
 31
0.0
  0
LINE
  5
3EB
330
442
100
AcDbEntity
  8
0
  6
Continuous
 62
     7
100
AcDbLine
 10
149.6705554007
 20
45.5610420728
 30
0.0
 11
110.6847689631
 21
45.5610420728
 31
0.0
  0
LINE
  5
3EC
330
442
100
AcDbEntity
  8
0
  6
Continuous
 62
     7
100
AcDbLine
 10
149.6705554007
 20
61.0610420728
 30
0.0
 11
166.0847689631
 21
61.0610420728
 31
0.0
  0
ARC
  5
3ED
330
442
100
AcDbEntity
  8
0
  6
Continuous
 62
     7
100
AcDbCircle
 10
165.9079922678
 20
60.1860420728
 30
0.0
 40
0.892678553567813
100
AcDbArc
 50
351.9505330245
 51
78.578246341
  0
LINE
  5
3EE
330
442
100
AcDbEntity
  8
0
  6
Continuous
 62
     7
100
AcDbLine
 10
166.7918757443
 20
60.0610420728
 30
0.0
 11
150.3776621819
 21
60.0610420728
 31
0.0
  0
LINE
  5
3EF
330
442
100
AcDbEntity
  8
0
  6
Continuous
 62
     7
100
AcDbLine
 10
166.7918757443
 20
46.5610420728
 30
0.0
 11
166.7918757443
 21
60.0610420728
 31
0.0
  0
LINE
  5
3F0
330
442
100
AcDbEntity
  8
0
  6
Continuous
 62
     7
100
AcDbLine
 10
150.3776621819
 20
46.5610420728
 30
0.0
 11
166.7918757443
 21
46.5610420728
 31
0.0
  0
ARC
  5
3F1
330
442
100
AcDbEntity
  8
0
  6
Continuous
 62
     7
100
AcDbCircle
 10
165.9079922678
 20
46.4360420728
 30
0.0
 40
0.8926785535678161
100
AcDbArc
 50
281.421753659
 51
8.0494669755
  0
LINE
  5
3F2
330
442
100
AcDbEntity
  8
0
  6
Continuous
 62
     7
100
AcDbLine
 10
166.0847689631
 20
45.5610420728
 30
0.0
 11
149.6705554007
 21
45.5610420728
 31
0.0
  0
LINE
  5
3F3
330
442
100
AcDbEntity
  8
0
  6
Continuous
 62
     7
100
AcDbLine
 10
66.9881485095
 20
56.6510420728
 30
0.0
 11
66.2257594689
 21
57.4134311134
 31
0.0
  0
ARC
  5
3F4
330
442
100
AcDbEntity
  8
0
  6
Continuous
 62
     7
100
AcDbCircle
 10
66.5847689631
 20
57.7614428705
 30
0.0
 40
0.5000000000000085
100
AcDbArc
 50
103.4087835357
 51
224.1088342795
  0
LINE
  5
3F5
330
442
100
AcDbEntity
  8
0
  6
Continuous
 62
     7
100
AcDbLine
 10
76.5847689631
 20
59.3110420728
 30
0.0
 11
66.4688204487
 21
58.2478130402
 31
0.0
  0
LINE
  5
3F6
330
442
100
AcDbEntity
  8
0
  6
Continuous
 62
     7
100
AcDbLine
 10
66.9881485095
 20
56.6510420728
 30
0.0
 11
77.0847689631
 21
56.6510420728
 31
0.0
  0
LINE
  5
3F7
330
442
100
AcDbEntity
  8
0
  6
Continuous
 62
     7
100
AcDbLine
 10
76.5847689631
 20
59.3110420728
 30
0.0
 11
77.0847689631
 21
59.3110420728
 31
0.0
  0
LINE
  5
3F8
330
442
100
AcDbEntity
  8
0
  6
Continuous
 62
     7
100
AcDbLine
 10
68.3281485095
 20
55.3110420728
 30
0.0
 11
66.9881485095
 21
56.6510420728
 31
0.0
  0
LINE
  5
3F9
330
442
100
AcDbEntity
  8
0
  6
Continuous
 62
     7
100
AcDbLine
 10
68.3281485095
 20
55.3110420728
 30
0.0
 11
77.0847689631
 21
55.3110420728
 31
0.0
  0
ARC
  5
3FA
330
442
100
AcDbEntity
  8
0
  6
Continuous
 62
     7
100
AcDbCircle
 10
166.0847689631
 20
60.0610420728
 30
0.0
 40
1.0
100
AcDbArc
 50
0.0
 51
90.0
  0
LINE
  5
3FB
330
442
100
AcDbEntity
  8
0
  6
Continuous
 62
     7
100
AcDbLine
 10
166.7918757443
 20
60.0610420728
 30
0.0
 11
167.0847689631
 21
60.0610420728
 31
0.0
  0
LINE
  5
3FC
330
442
100
AcDbEntity
  8
0
  6
Continuous
 62
     7
100
AcDbLine
 10
167.0847689631
 20
60.0610420728
 30
0.0
 11
167.0847689631
 21
46.5610420728
 31
0.0
  0
LINE
  5
3FD
330
442
100
AcDbEntity
  8
0
  6
Continuous
 62
     7
100
AcDbLine
 10
167.0847689631
 20
46.5610420728
 30
0.0
 11
166.7918757443
 21
46.5610420728
 31
0.0
  0
ARC
  5
3FE
330
442
100
AcDbEntity
  8
0
  6
Continuous
 62
     7
100
AcDbCircle
 10
166.0847689631
 20
46.5610420728
 30
0.0
 40
1.0
100
AcDbArc
 50
270.0
 51
0.0
  0
LINE
  5
3FF
330
442
100
AcDbEntity
  8
0
  6
Continuous
 62
     7
100
AcDbLine
 10
77.0847689631
 20
47.6755512461
 30
0.0
 11
73.8707689631
 21
49.8434216192
 31
0.0
  0
ARC
  5
400
330
442
100
AcDbEntity
  8
0
  6
Continuous
 62
     7
100
AcDbCircle
 10
75.5574415213
 20
52.32437621
 30
0.0
 40
3.000000000000004
100
AcDbArc
 50
224.855256431
 51
235.7902449846
  0
LINE
  5
401
330
442
100
AcDbEntity
  8
0
  6
Continuous
 62
     7
100
AcDbLine
 10
73.4307689631
 20
50.2084216192
 30
0.0
 11
68.3281485095
 21
55.3110420728
 31
0.0
  0
LINE
  5
402
330
442
100
AcDbEntity
  8
0
  6
Continuous
 62
     7
100
AcDbLine
 10
57.3847689631
 20
57.0110420728
 30
0.0
 11
57.3847689631
 21
49.6110420728
 31
0.0
  0
LINE
  5
403
330
442
100
AcDbEntity
  8
0
  6
Continuous
 62
     7
100
AcDbLine
 10
57.3847689631
 20
57.3110420728
 30
0.0
 11
66.3281485095
 21
57.3110420728
 31
0.0
  0
LINE
  5
404
330
442
100
AcDbEntity
  8
0
  6
Continuous
 62
     7
100
AcDbLine
 10
57.3847689631
 20
57.3110420728
 30
0.0
 11
57.3847689631
 21
57.0110420728
 31
0.0
  0
LINE
  5
405
330
442
100
AcDbEntity
  8
0
  6
Continuous
 62
     7
100
AcDbLine
 10
74.660054099
 20
49.3110420728
 30
0.0
 11
57.3847689631
 21
49.3110420728
 31
0.0
  0
LINE
  5
406
330
442
100
AcDbEntity
  8
0
  6
Continuous
 62
     7
100
AcDbLine
 10
57.3847689631
 20
49.6110420728
 30
0.0
 11
57.3847689631
 21
49.3110420728
 31
0.0
  0
LINE
  5
407
330
442
100
AcDbEntity
  8
0
  6
Continuous
 62
     7
100
AcDbLine
 10
57.3847689631
 20
49.6110420728
 30
0.0
 11
57.0847689631
 21
49.6110420728
 31
0.0
  0
LINE
  5
408
330
442
100
AcDbEntity
  8
0
  6
Continuous
 62
     7
100
AcDbLine
 10
57.0847689631
 20
49.6110420728
 30
0.0
 11
57.0847689631
 21
57.0110420728
 31
0.0
  0
LINE
  5
409
330
442
100
AcDbEntity
  8
0
  6
Continuous
 62
     7
100
AcDbLine
 10
57.3847689631
 20
57.0110420728
 30
0.0
 11
57.0847689631
 21
57.0110420728
 31
0.0
  0
ARC
  5
40A
330
442
100
AcDbEntity
  8
0
  6
Continuous
 62
     7
100
AcDbCircle
 10
57.3847689631
 20
57.0110420728
 30
0.0
 40
0.3000000000000114
100
AcDbArc
 50
90.0
 51
180.0
  0
ARC
  5
40B
330
442
100
AcDbEntity
  8
0
  6
Continuous
 62
     7
100
AcDbCircle
 10
57.3847689631
 20
49.6110420728
 30
0.0
 40
0.3000000000000114
100
AcDbArc
 50
180.0
 51
270.0
  0
LINE
  5
40C
330
442
100
AcDbEntity
  8
0
  6
Continuous
 62
     7
100
AcDbLine
 10
149.6705554007
 20
60.0610420728
 30
0.0
 11
112.4168197707
 21
60.0610420728
 31
0.0
  0
LINE
  5
40D
330
442
100
AcDbEntity
  8
0
  6
Continuous
 62
     7
100
AcDbLine
 10
112.4168197707
 20
46.5610420728
 30
0.0
 11
149.6705554007
 21
46.5610420728
 31
0.0
  0
LINE
  5
40E
330
442
100
AcDbEntity
  8
0
  6
Continuous
 62
     7
100
AcDbLine
 10
66.6281485095
 20
57.0110420728
 30
0.0
 11
57.3847689631
 21
57.0110420728
 31
0.0
  0
LINE
  5
40F
330
442
100
AcDbEntity
  8
0
  6
Continuous
 62
     7
100
AcDbLine
 10
57.3847689631
 20
49.6110420728
 30
0.0
 11
74.2152858085
 21
49.6110420728
 31
0.0
  0
LINE
  5
427
330
442
100
AcDbEntity
  8
0
  6
CENTERX2
 62
     7
100
AcDbLine
 10
53.1125893023
 20
53.3110420728
 30
0.0
 11
171.0526114298
 21
53.3110420728
 31
0.0
  0
ENDSEC
  0
SECTION
  2
OBJECTS
  0
DICTIONARY
  5
432
330
0
100
AcDbDictionary
281
     1
  3
ACAD_DETAILVIEWSTYLE
350
505
  3
ACAD_GROUP
350
433
  3
ACAD_LAYOUT
350
43F
  3
ACAD_MATERIAL
350
44D
  3
ACAD_MLEADERSTYLE
350
4F7
  3
ACAD_MLINESTYLE
350
43C
  3
ACAD_PLOTSETTINGS
350
43E
  3
ACAD_PLOTSTYLENAME
350
434
  3
ACAD_SCALELIST
350
4BA
  3
ACAD_SECTIONVIEWSTYLE
350
506
  3
ACAD_TABLESTYLE
350
4F5
  3
ACAD_VISUALSTYLE
350
4DC
  3
ACDB_RECOMPOSE_DATA
350
501
  3
AcDbVariableDictionary
350
4FD
  3
APPDATA
350
4F9
  0
DICTIONARY
  5
4FB
330
442
100
AcDbDictionary
280
     1
281
     1
  3
DIM_BOUNDING_BOXES_V1
360
4FC
  0
DICTIONARY
  5
505
102
{ACAD_REACTORS
330
432
102
}
330
432
100
AcDbDictionary
281
     1
  0
DICTIONARY
  5
433
102
{ACAD_REACTORS
330
432
102
}
330
432
100
AcDbDictionary
281
     1
  0
DICTIONARY
  5
43F
102
{ACAD_REACTORS
330
432
102
}
330
432
100
AcDbDictionary
281
     1
  3
Blatt1
350
441
  3
Model
350
443
  0
DICTIONARY
  5
44D
102
{ACAD_REACTORS
330
432
102
}
330
432
100
AcDbDictionary
281
     1
  3
ByBlock
350
44F
  3
ByLayer
350
44E
  3
Global
350
450
  0
DICTIONARY
  5
4F7
102
{ACAD_REACTORS
330
432
102
}
330
432
100
AcDbDictionary
281
     1
  3
Standard
350
4F8
  0
DICTIONARY
  5
43C
102
{ACAD_REACTORS
330
432
102
}
330
432
100
AcDbDictionary
281
     1
  3
Standard
350
43D
  0
DICTIONARY
  5
43E
102
{ACAD_REACTORS
330
432
102
}
330
432
100
AcDbDictionary
281
     1
  0
ACDBDICTIONARYWDFLT
  5
434
102
{ACAD_REACTORS
330
432
102
}
330
432
100
AcDbDictionary
281
     1
  3
Normal
350
435
100
AcDbDictionaryWithDefault
340
435
  0
DICTIONARY
  5
4BA
102
{ACAD_REACTORS
330
432
102
}
330
432
100
AcDbDictionary
281
     1
  3
A0
350
4BB
  3
A1
350
4BC
  3
A2
350
4BD
  3
A3
350
4BE
  3
A4
350
4BF
  3
A5
350
4C0
  3
A6
350
4C1
  3
A7
350
4C2
  3
A8
350
4C3
  3
A9
350
4C4
  3
B0
350
4C5
  3
B1
350
4C6
  3
B2
350
4C7
  3
B3
350
4C8
  3
B4
350
4C9
  3
B5
350
4CA
  3
B6
350
4CB
  3
B7
350
4CC
  3
B8
350
4CD
  3
B9
350
4CE
  3
C0
350
4CF
  3
C1
350
4D0
  3
C2
350
4D1
  3
C3
350
4D2
  3
C4
350
4D3
  3
C5
350
4D4
  3
C6
350
4D5
  3
C7
350
4D6
  3
C8
350
4D7
  3
C9
350
4D8
  3
D0
350
4D9
  3
D1
350
4DA
  3
D2
350
4DB
  0
DICTIONARY
  5
506
102
{ACAD_REACTORS
330
432
102
}
330
432
100
AcDbDictionary
281
     1
  0
DICTIONARY
  5
4F5
102
{ACAD_REACTORS
330
432
102
}
330
432
100
AcDbDictionary
281
     1
  3
Standard
350
4F6
  0
DICTIONARY
  5
4DC
102
{ACAD_REACTORS
330
432
102
}
330
432
100
AcDbDictionary
281
     1
  3
2dWireframe
350
4E1
  3
Basic
350
4E4
  3
Brighten
350
4E8
  3
ColorChange
350
4EC
  3
Conceptual
350
4E6
  3
Dim
350
4E7
  3
EdgeColorOff
350
4EF
  3
Facepattern
350
4EB
  3
Flat
350
4DD
  3
FlatWithEdges
350
4DE
  3
Gouraud
350
4DF
  3
GouraudWithEdges
350
4E0
  3
Hidden
350
4E3
  3
JitterOff
350
4ED
  3
Linepattern
350
4EA
  3
OverhangOff
350
4EE
  3
Realistic
350
4E5
  3
Shaded
350
4F4
  3
Shaded with edges
350
4F3
  3
Shades of Gray
350
4F0
  3
Sketchy
350
4F1
  3
Thicken
350
4E9
  3
Wireframe
350
4E2
  3
X-Ray
350
4F2
  0
XRECORD
  5
501
102
{ACAD_REACTORS
330
432
102
}
330
432
100
AcDbXrecord
280
     1
 90
        1
330
4F6
  0
DICTIONARY
  5
4FD
102
{ACAD_REACTORS
330
432
102
}
330
432
100
AcDbDictionary
281
     1
  3
CANNOSCALE
350
4FE
  3
CMLEADERSTYLE
350
503
  3
CTABLESTYLE
350
502
  3
MSLTSCALE
350
504
  0
DICTIONARY
  5
4F9
102
{ACAD_REACTORS
330
432
102
}
330
432
100
AcDbDictionary
281
     1
  0
DICTIONARY
  5
4FC
102
{ACAD_REACTORS
330
4FB
102
}
330
4FB
100
AcDbDictionary
281
     1
  0
LAYOUT
  5
441
102
{ACAD_REACTORS
330
43F
102
}
330
43F
100
AcDbPlotSettings
  1

  2
none_device
  4

  6

 40
0.0
 41
0.0
 42
0.0
 43
0.0
 44
0.0
 45
0.0
 46
0.0
 47
0.0
 48
0.0
 49
0.0
140
0.0
141
0.0
142
1.0
143
1.0
 70
   688
 72
     0
 73
     0
 74
     5
  7

 75
    16
 76
     0
 77
     2
 78
   300
147
1.0
148
0.0
149
0.0
100
AcDbLayout
  1
Blatt1
 70
     1
 71
     1
 10
0.0
 20
0.0
 11
0.0
 21
0.0
 12
0.0
 22
0.0
 32
0.0
 14
1.000000000000000E+20
 24
1.000000000000000E+20
 34
1.000000000000000E+20
 15
-1.000000000000000E+20
 25
-1.000000000000000E+20
 35
-1.000000000000000E+20
146
0.0
 13
0.0
 23
0.0
 33
0.0
 16
1.0
 26
0.0
 36
0.0
 17
0.0
 27
1.0
 37
0.0
 76
     0
330
440
  0
LAYOUT
  5
443
102
{ACAD_REACTORS
330
43F
102
}
330
43F
100
AcDbPlotSettings
  1

  2
none_device
  4
Letter_(8.50_x_11.00_Inches)
  6

 40
6.35
 41
6.35
 42
6.35
 43
6.35
 44
215.9
 45
279.4
 46
0.0
 47
0.0
 48
0.0
 49
0.0
140
0.0
141
0.0
142
1.0
143
1.0
 70
  1712
 72
     0
 73
     0
 74
     0
  7

 75
     0
 76
     0
 77
     2
 78
   300
147
1.0
148
0.0
149
0.0
100
AcDbLayout
  1
Model
 70
     1
 71
     0
 10
0.0
 20
0.0
 11
12.0
 21
9.0
 12
0.0
 22
0.0
 32
0.0
 14
53.11258930229999
 24
42.31104207280001
 34
0.0
 15
261.098908591
 25
373.9453748208999
 35
0.0
146
0.0
 13
0.0
 23
0.0
 33
0.0
 16
1.0
 26
0.0
 36
0.0
 17
0.0
 27
1.0
 37
0.0
 76
     0
330
442
331
445
  0
MATERIAL
  5
44F
102
{ACAD_REACTORS
330
44D
102
}
330
44D
100
AcDbMaterial
  1
ByBlock
 72
     1
 94
      127
  0
MATERIAL
  5
44E
102
{ACAD_REACTORS
330
44D
102
}
330
44D
100
AcDbMaterial
  1
ByLayer
 72
     1
 94
      127
  0
MATERIAL
  5
450
102
{ACAD_REACTORS
330
44D
102
}
330
44D
100
AcDbMaterial
  1
Global
 72
     1
 94
      127
  0
MLEADERSTYLE
  5
4F8
102
{ACAD_REACTORS
330
4F7
102
}
330
4F7
100
AcDbMLeaderStyle
179
     2
170
     2
171
     1
172
     0
 90
        2
 40
0.0
 41
0.0
173
     1
 91
-1056964608
340
439
 92
       -2
290
     1
 42
0.09
291
     1
 43
0.36
  3
Standard
341
0
 44
0.18
300

342
437
174
     1
178
     1
175
     1
176
     0
 93
-1056964608
 45
0.18
292
     0
297
     0
 46
0.18
343
0
 94
-1056964608
 47
1.0
 49
1.0
140
1.0
293
     1
141
0.0
294
     1
177
     0
142
1.0
295
     0
296
     0
143
0.125
271
     0
272
     9
273
     9
298
     0
  0
MLINESTYLE
  5
43D
102
{ACAD_REACTORS
330
43C
102
}
330
43C
100
AcDbMlineStyle
  2
Standard
 70
     0
  3

 62
   256
 51
90.0
 52
90.0
 71
     2
 49
0.5
 62
   256
  6
BYLAYER
 49
-0.5
 62
   256
  6
BYLAYER
  0
ACDBPLACEHOLDER
  5
435
102
{ACAD_REACTORS
330
434
102
}
330
434
  0
SCALE
  5
4BB
102
{ACAD_REACTORS
330
4BA
102
}
330
4BA
100
AcDbScale
 70
     0
300
1:1
140
1.0
141
1.0
290
     1
  0
SCALE
  5
4BC
102
{ACAD_REACTORS
330
4BA
102
}
330
4BA
100
AcDbScale
 70
     0
300
1:2
140
1.0
141
2.0
290
     0
  0
SCALE
  5
4BD
102
{ACAD_REACTORS
330
4BA
102
}
330
4BA
100
AcDbScale
 70
     0
300
1:4
140
1.0
141
4.0
290
     0
  0
SCALE
  5
4BE
102
{ACAD_REACTORS
330
4BA
102
}
330
4BA
100
AcDbScale
 70
     0
300
1:5
140
1.0
141
5.0
290
     0
  0
SCALE
  5
4BF
102
{ACAD_REACTORS
330
4BA
102
}
330
4BA
100
AcDbScale
 70
     0
300
1:8
140
1.0
141
8.0
290
     0
  0
SCALE
  5
4C0
102
{ACAD_REACTORS
330
4BA
102
}
330
4BA
100
AcDbScale
 70
     0
300
1:10
140
1.0
141
10.0
290
     0
  0
SCALE
  5
4C1
102
{ACAD_REACTORS
330
4BA
102
}
330
4BA
100
AcDbScale
 70
     0
300
1:16
140
1.0
141
16.0
290
     0
  0
SCALE
  5
4C2
102
{ACAD_REACTORS
330
4BA
102
}
330
4BA
100
AcDbScale
 70
     0
300
1:20
140
1.0
141
20.0
290
     0
  0
SCALE
  5
4C3
102
{ACAD_REACTORS
330
4BA
102
}
330
4BA
100
AcDbScale
 70
     0
300
1:30
140
1.0
141
30.0
290
     0
  0
SCALE
  5
4C4
102
{ACAD_REACTORS
330
4BA
102
}
330
4BA
100
AcDbScale
 70
     0
300
1:40
140
1.0
141
40.0
290
     0
  0
SCALE
  5
4C5
102
{ACAD_REACTORS
330
4BA
102
}
330
4BA
100
AcDbScale
 70
     0
300
1:50
140
1.0
141
50.0
290
     0
  0
SCALE
  5
4C6
102
{ACAD_REACTORS
330
4BA
102
}
330
4BA
100
AcDbScale
 70
     0
300
1:100
140
1.0
141
100.0
290
     0
  0
SCALE
  5
4C7
102
{ACAD_REACTORS
330
4BA
102
}
330
4BA
100
AcDbScale
 70
     0
300
2:1
140
2.0
141
1.0
290
     0
  0
SCALE
  5
4C8
102
{ACAD_REACTORS
330
4BA
102
}
330
4BA
100
AcDbScale
 70
     0
300
4:1
140
4.0
141
1.0
290
     0
  0
SCALE
  5
4C9
102
{ACAD_REACTORS
330
4BA
102
}
330
4BA
100
AcDbScale
 70
     0
300
8:1
140
8.0
141
1.0
290
     0
  0
SCALE
  5
4CA
102
{ACAD_REACTORS
330
4BA
102
}
330
4BA
100
AcDbScale
 70
     0
300
10:1
140
10.0
141
1.0
290
     0
  0
SCALE
  5
4CB
102
{ACAD_REACTORS
330
4BA
102
}
330
4BA
100
AcDbScale
 70
     0
300
100:1
140
100.0
141
1.0
290
     0
  0
SCALE
  5
4CC
102
{ACAD_REACTORS
330
4BA
102
}
330
4BA
100
AcDbScale
 70
     0
300
1/128" = 1'-0"
140
0.0078125
141
12.0
290
     0
  0
SCALE
  5
4CD
102
{ACAD_REACTORS
330
4BA
102
}
330
4BA
100
AcDbScale
 70
     0
300
1/64" = 1'-0"
140
0.015625
141
12.0
290
     0
  0
SCALE
  5
4CE
102
{ACAD_REACTORS
330
4BA
102
}
330
4BA
100
AcDbScale
 70
     0
300
1/32" = 1'-0"
140
0.03125
141
12.0
290
     0
  0
SCALE
  5
4CF
102
{ACAD_REACTORS
330
4BA
102
}
330
4BA
100
AcDbScale
 70
     0
300
1/16" = 1'-0"
140
0.0625
141
12.0
290
     0
  0
SCALE
  5
4D0
102
{ACAD_REACTORS
330
4BA
102
}
330
4BA
100
AcDbScale
 70
     0
300
3/32" = 1'-0"
140
0.09375
141
12.0
290
     0
  0
SCALE
  5
4D1
102
{ACAD_REACTORS
330
4BA
102
}
330
4BA
100
AcDbScale
 70
     0
300
1/8" = 1'-0"
140
0.125
141
12.0
290
     0
  0
SCALE
  5
4D2
102
{ACAD_REACTORS
330
4BA
102
}
330
4BA
100
AcDbScale
 70
     0
300
3/16" = 1'-0"
140
0.1875
141
12.0
290
     0
  0
SCALE
  5
4D3
102
{ACAD_REACTORS
330
4BA
102
}
330
4BA
100
AcDbScale
 70
     0
300
1/4" = 1'-0"
140
0.25
141
12.0
290
     0
  0
SCALE
  5
4D4
102
{ACAD_REACTORS
330
4BA
102
}
330
4BA
100
AcDbScale
 70
     0
300
3/8" = 1'-0"
140
0.375
141
12.0
290
     0
  0
SCALE
  5
4D5
102
{ACAD_REACTORS
330
4BA
102
}
330
4BA
100
AcDbScale
 70
     0
300
1/2" = 1'-0"
140
0.5
141
12.0
290
     0
  0
SCALE
  5
4D6
102
{ACAD_REACTORS
330
4BA
102
}
330
4BA
100
AcDbScale
 70
     0
300
3/4" = 1'-0"
140
0.75
141
12.0
290
     0
  0
SCALE
  5
4D7
102
{ACAD_REACTORS
330
4BA
102
}
330
4BA
100
AcDbScale
 70
     0
300
1" = 1'-0"
140
1.0
141
12.0
290
     0
  0
SCALE
  5
4D8
102
{ACAD_REACTORS
330
4BA
102
}
330
4BA
100
AcDbScale
 70
     0
300
1-1/2" = 1'-0"
140
1.5
141
12.0
290
     0
  0
SCALE
  5
4D9
102
{ACAD_REACTORS
330
4BA
102
}
330
4BA
100
AcDbScale
 70
     0
300
3" = 1'-0"
140
3.0
141
12.0
290
     0
  0
SCALE
  5
4DA
102
{ACAD_REACTORS
330
4BA
102
}
330
4BA
100
AcDbScale
 70
     0
300
6" = 1'-0"
140
6.0
141
12.0
290
     0
  0
SCALE
  5
4DB
102
{ACAD_REACTORS
330
4BA
102
}
330
4BA
100
AcDbScale
 70
     0
300
1'-0" = 1'-0"
140
12.0
141
12.0
290
     0
  0
TABLESTYLE
  5
4F6
102
{ACAD_REACTORS
330
4F5
102
}
102
{ACAD_XDICTIONARY
360
4FF
102
}
330
4F5
100
AcDbTableStyle
  3
Standard
 70
     0
 71
     0
 40
0.06
 41
0.06
280
     0
281
     0
  7
STANDARD
140
0.18
170
     2
 62
     0
 63
   257
283
     0
 90
        4
 91
        0
  1

274
    -2
284
     1
 64
     0
275
    -2
285
     1
 65
     0
276
    -2
286
     1
 66
     0
277
    -2
287
     1
 67
     0
278
    -2
288
     1
 68
     0
279
    -2
289
     1
 69
     0
  7
STANDARD
140
0.25
170
     5
 62
     0
 63
   257
283
     0
 90
        4
 91
        0
  1

274
    -2
284
     1
 64
     0
275
    -2
285
     1
 65
     0
276
    -2
286
     1
 66
     0
277
    -2
287
     1
 67
     0
278
    -2
288
     1
 68
     0
279
    -2
289
     1
 69
     0
  7
STANDARD
140
0.18
170
     5
 62
     0
 63
   257
283
     0
 90
        4
 91
        0
  1

274
    -2
284
     1
 64
     0
275
    -2
285
     1
 65
     0
276
    -2
286
     1
 66
     0
277
    -2
287
     1
 67
     0
278
    -2
288
     1
 68
     0
279
    -2
289
     1
 69
     0
  0
VISUALSTYLE
  5
4E1
102
{ACAD_REACTORS
330
4DC
102
}
330
4DC
100
AcDbVisualStyle
  2
2dWireframe
 70
     4
177
     3
291
     0
 70
    58
 90
        0
176
     1
 90
        2
176
     1
 90
        0
176
     1
 90
        0
176
     1
 40
0.6
176
     1
 40
30.0
176
     1
 62
     7
420
 16777215
176
     1
 90
        1
176
     1
 90
        4
176
     1
 62
     7
176
     1
 62
   257
176
     1
 90
        1
176
     1
 90
        1
176
     1
 40
1.0
176
     1
 90
        0
176
     1
 62
   257
176
     1
 40
1.0
176
     1
 90
        1
176
     1
 90
        6
176
     1
 90
        2
176
     1
 62
     7
176
     1
 90
        5
176
     1
 90
        0
176
     1
 90
        0
176
     1
290
     0
176
     1
 90
        1
176
     1
 40
0.0
176
     1
 90
        0
176
     1
290
     1
176
     1
290
     1
176
     1
290
     0
176
     1
290
     0
176
     1
290
     0
176
     1
290
     0
176
     1
290
     0
176
     1
290
     0
176
     1
290
     0
176
     1
 90
       50
176
     1
 40
0.0
176
     1
 40
1.0
176
     1
 90
        0
176
     1
 62
    18
420
        0
176
     1
 90
       50
176
     1
 90
        3
176
     1
 62
     5
420
      255
176
     1
290
     0
176
     1
 90
       50
176
     1
 90
       50
176
     1
 90
       50
176
     1
290
     0
176
     1
 90
       50
176
     1
 62
   256
176
     0
 40
1.0
176
     0
 90
        2
176
     1
  1
strokes_ogs.tif
176
     1
290
     0
176
     1
 40
1.0
176
     1
 40
1.0
176
     1
  0
VISUALSTYLE
  5
4E4
102
{ACAD_REACTORS
330
4DC
102
}
330
4DC
100
AcDbVisualStyle
  2
Basic
 70
     7
177
     3
291
     1
 70
    58
 90
        1
176
     1
 90
        0
176
     1
 90
        1
176
     1
 90
        0
176
     1
 40
0.6
176
     1
 40
30.0
176
     1
 62
     7
420
 16777215
176
     1
 90
        0
176
     1
 90
        4
176
     1
 62
     7
176
     1
 62
   257
176
     1
 90
        1
176
     1
 90
        1
176
     1
 40
1.0
176
     1
 90
        8
176
     1
 62
     7
176
     1
 40
1.0
176
     1
 90
        1
176
     1
 90
        6
176
     1
 90
        2
176
     1
 62
     7
176
     1
 90
        5
176
     1
 90
        0
176
     1
 90
        0
176
     1
290
     0
176
     1
 90
        1
176
     1
 40
0.0
176
     1
 90
        0
176
     1
290
     0
176
     1
290
     1
176
     1
290
     1
176
     1
290
     0
176
     1
290
     0
176
     1
290
     0
176
     1
290
     0
176
     1
290
     0
176
     1
290
     0
176
     1
 90
       50
176
     1
 40
0.0
176
     1
 40
1.0
176
     1
 90
        0
176
     1
 62
    18
420
        0
176
     1
 90
       50
176
     1
 90
        3
176
     1
 62
     5
420
      255
176
     1
290
     0
176
     1
 90
       50
176
     1
 90
       50
176
     1
 90
       50
176
     1
290
     0
176
     1
 90
       50
176
     1
 62
   256
176
     0
 40
1.0
176
     0
 90
        2
176
     1
  1
strokes_ogs.tif
176
     1
290
     0
176
     1
 40
1.0
176
     1
 40
1.0
176
     1
  0
VISUALSTYLE
  5
4E8
102
{ACAD_REACTORS
330
4DC
102
}
330
4DC
100
AcDbVisualStyle
  2
Brighten
 70
    12
177
     3
291
     1
 70
    58
 90
        2
176
     1
 90
        2
176
     1
 90
        0
176
     1
 90
        0
176
     1
 40
0.6
176
     1
 40
30.0
176
     1
 62
     7
420
 16777215
176
     1
 90
        1
176
     1
 90
        4
176
     1
 62
     7
176
     1
 62
   257
176
     1
 90
        1
176
     1
 90
        1
176
     1
 40
1.0
176
     1
 90
        8
176
     1
 62
     7
176
     1
 40
1.0
176
     1
 90
        1
176
     1
 90
        6
176
     1
 90
        2
176
     1
 62
     7
176
     1
 90
        5
176
     1
 90
        0
176
     1
 90
        0
176
     1
290
     0
176
     1
 90
        1
176
     1
 40
50.0
176
     1
 90
        0
176
     1
290
     0
176
     1
290
     1
176
     1
290
     1
176
     1
290
     0
176
     1
290
     0
176
     1
290
     0
176
     1
290
     0
176
     1
290
     0
176
     1
290
     0
176
     1
 90
       50
176
     1
 40
0.0
176
     1
 40
1.0
176
     1
 90
        0
176
     1
 62
    18
420
        0
176
     1
 90
       50
176
     1
 90
        3
176
     1
 62
     5
420
      255
176
     1
290
     0
176
     1
 90
       50
176
     1
 90
       50
176
     1
 90
       50
176
     1
290
     0
176
     1
 90
       50
176
     1
 62
   256
176
     0
 40
1.0
176
     0
 90
        2
176
     1
  1
strokes_ogs.tif
176
     1
290
     0
176
     1
 40
1.0
176
     1
 40
1.0
176
     1
  0
VISUALSTYLE
  5
4EC
102
{ACAD_REACTORS
330
4DC
102
}
330
4DC
100
AcDbVisualStyle
  2
ColorChange
 70
    16
177
     3
291
     1
 70
    58
 90
        2
176
     1
 90
        2
176
     1
 90
        3
176
     1
 90
        0
176
     1
 40
0.6
176
     1
 40
30.0
176
     1
 62
     8
420
  8421504
176
     1
 90
        1
176
     1
 90
        4
176
     1
 62
     7
176
     1
 62
   257
176
     1
 90
        1
176
     1
 90
        1
176
     1
 40
1.0
176
     1
 90
        8
176
     1
 62
     8
420
  8421504
176
     1
 40
1.0
176
     1
 90
        1
176
     1
 90
        6
176
     1
 90
        2
176
     1
 62
     7
176
     1
 90
        5
176
     1
 90
        0
176
     1
 90
        0
176
     1
290
     0
176
     1
 90
        1
176
     1
 40
0.0
176
     1
 90
        0
176
     1
290
     0
176
     1
290
     1
176
     1
290
     1
176
     1
290
     0
176
     1
290
     0
176
     1
290
     0
176
     1
290
     0
176
     1
290
     0
176
     1
290
     0
176
     1
 90
       50
176
     1
 40
0.0
176
     1
 40
1.0
176
     1
 90
        0
176
     1
 62
    18
420
        0
176
     1
 90
       50
176
     1
 90
        3
176
     1
 62
     5
420
      255
176
     1
290
     0
176
     1
 90
       50
176
     1
 90
       50
176
     1
 90
       50
176
     1
290
     0
176
     1
 90
       50
176
     1
 62
   256
176
     0
 40
1.0
176
     0
 90
        2
176
     1
  1
strokes_ogs.tif
176
     1
290
     0
176
     1
 40
1.0
176
     1
 40
1.0
176
     1
  0
VISUALSTYLE
  5
4E6
102
{ACAD_REACTORS
330
4DC
102
}
330
4DC
100
AcDbVisualStyle
  2
Conceptual
 70
     9
177
     3
291
     0
 70
    58
 90
        3
176
     1
 90
        2
176
     1
 90
        0
176
     1
 90
        0
176
     1
 40
0.6
176
     1
 40
30.0
176
     1
 62
     7
420
 16777215
176
     1
 90
        2
176
     1
 90
        2
176
     1
 62
     7
176
     1
 62
   257
176
     1
 90
        1
176
     1
 90
        1
176
     1
 40
179.0
176
     1
 90
        8
176
     1
 62
     7
176
     1
 40
1.0
176
     1
 90
        1
176
     1
 90
        6
176
     1
 90
        2
176
     1
 62
     7
176
     1
 90
        3
176
     1
 90
        0
176
     1
 90
        0
176
     1
290
     0
176
     1
 90
        1
176
     1
 40
0.0
176
     1
 90
        0
176
     1
290
     0
176
     1
290
     1
176
     1
290
     1
176
     1
290
     0
176
     1
290
     0
176
     1
290
     0
176
     1
290
     0
176
     1
290
     0
176
     1
290
     0
176
     1
 90
       50
176
     1
 40
0.0
176
     1
 40
1.0
176
     1
 90
        0
176
     1
 62
    18
420
        0
176
     1
 90
       50
176
     1
 90
        3
176
     1
 62
     5
420
      255
176
     1
290
     0
176
     1
 90
       50
176
     1
 90
       50
176
     1
 90
       50
176
     1
290
     0
176
     1
 90
       50
176
     1
 62
   256
176
     0
 40
1.0
176
     0
 90
        2
176
     1
  1
strokes_ogs.tif
176
     1
290
     0
176
     1
 40
1.0
176
     1
 40
1.0
176
     1
  0
VISUALSTYLE
  5
4E7
102
{ACAD_REACTORS
330
4DC
102
}
330
4DC
100
AcDbVisualStyle
  2
Dim
 70
    11
177
     3
291
     1
 70
    58
 90
        2
176
     1
 90
        2
176
     1
 90
        0
176
     1
 90
        0
176
     1
 40
0.6
176
     1
 40
30.0
176
     1
 62
     7
420
 16777215
176
     1
 90
        1
176
     1
 90
        4
176
     1
 62
     7
176
     1
 62
   257
176
     1
 90
        1
176
     1
 90
        1
176
     1
 40
1.0
176
     1
 90
        8
176
     1
 62
     7
176
     1
 40
1.0
176
     1
 90
        1
176
     1
 90
        6
176
     1
 90
        2
176
     1
 62
     7
176
     1
 90
        5
176
     1
 90
        0
176
     1
 90
        0
176
     1
290
     0
176
     1
 90
        1
176
     1
 40
-50.0
176
     1
 90
        0
176
     1
290
     0
176
     1
290
     1
176
     1
290
     1
176
     1
290
     0
176
     1
290
     0
176
     1
290
     0
176
     1
290
     0
176
     1
290
     0
176
     1
290
     0
176
     1
 90
       50
176
     1
 40
0.0
176
     1
 40
1.0
176
     1
 90
        0
176
     1
 62
    18
420
        0
176
     1
 90
       50
176
     1
 90
        3
176
     1
 62
     5
420
      255
176
     1
290
     0
176
     1
 90
       50
176
     1
 90
       50
176
     1
 90
       50
176
     1
290
     0
176
     1
 90
       50
176
     1
 62
   256
176
     0
 40
1.0
176
     0
 90
        2
176
     1
  1
strokes_ogs.tif
176
     1
290
     0
176
     1
 40
1.0
176
     1
 40
1.0
176
     1
  0
VISUALSTYLE
  5
4EF
102
{ACAD_REACTORS
330
4DC
102
}
330
4DC
100
AcDbVisualStyle
  2
EdgeColorOff
 70
    22
177
     3
291
     1
 70
    58
 90
        2
176
     0
 90
        2
176
     0
 90
        0
176
     0
 90
        0
176
     0
 40
0.6
176
     0
 40
30.0
176
     0
 62
     7
420
 16777215
176
     0
 90
        1
176
     0
 90
        4
176
     0
 62
     7
176
     0
 62
   257
176
     0
 90
        1
176
     0
 90
        1
176
     0
 40
1.0
176
     0
 90
        8
176
     2
 62
     7
176
     0
 40
1.0
176
     0
 90
        1
176
     0
 90
        6
176
     0
 90
        2
176
     0
 62
     7
176
     0
 90
        5
176
     0
 90
        0
176
     0
 90
        0
176
     0
290
     0
176
     0
 90
        1
176
     0
 40
0.0
176
     0
 90
        0
176
     0
290
     0
176
     0
290
     1
176
     0
290
     1
176
     0
290
     0
176
     0
290
     0
176
     0
290
     0
176
     0
290
     0
176
     0
290
     0
176
     0
290
     0
176
     0
 90
       50
176
     0
 40
0.0
176
     0
 40
1.0
176
     0
 90
        0
176
     0
 62
    18
420
        0
176
     0
 90
       50
176
     0
 90
        3
176
     0
 62
     5
420
      255
176
     0
290
     0
176
     0
 90
       50
176
     0
 90
       50
176
     0
 90
       50
176
     0
290
     0
176
     0
 90
       50
176
     0
 62
   256
176
     0
 40
1.0
176
     0
 90
        2
176
     0
  1
strokes_ogs.tif
176
     0
290
     0
176
     0
 40
1.0
176
     0
 40
1.0
176
     0
  0
VISUALSTYLE
  5
4EB
102
{ACAD_REACTORS
330
4DC
102
}
330
4DC
100
AcDbVisualStyle
  2
Facepattern
 70
    15
177
     3
291
     1
 70
    58
 90
        2
176
     1
 90
        2
176
     1
 90
        0
176
     1
 90
        0
176
     1
 40
0.6
176
     1
 40
30.0
176
     1
 62
     7
420
 16777215
176
     1
 90
        1
176
     1
 90
        4
176
     1
 62
     7
176
     1
 62
   257
176
     1
 90
        1
176
     1
 90
        1
176
     1
 40
1.0
176
     1
 90
        8
176
     1
 62
     7
176
     1
 40
1.0
176
     1
 90
        1
176
     1
 90
        6
176
     1
 90
        2
176
     1
 62
     7
176
     1
 90
        5
176
     1
 90
        0
176
     1
 90
        0
176
     1
290
     0
176
     1
 90
        1
176
     1
 40
0.0
176
     1
 90
        0
176
     1
290
     0
176
     1
290
     1
176
     1
290
     1
176
     1
290
     0
176
     1
290
     0
176
     1
290
     0
176
     1
290
     0
176
     1
290
     0
176
     1
290
     0
176
     1
 90
       50
176
     1
 40
0.0
176
     1
 40
1.0
176
     1
 90
        0
176
     1
 62
    18
420
        0
176
     1
 90
       50
176
     1
 90
        3
176
     1
 62
     5
420
      255
176
     1
290
     0
176
     1
 90
       50
176
     1
 90
       50
176
     1
 90
       50
176
     1
290
     0
176
     1
 90
       50
176
     1
 62
   256
176
     0
 40
1.0
176
     0
 90
        2
176
     1
  1
strokes_ogs.tif
176
     1
290
     0
176
     1
 40
1.0
176
     1
 40
1.0
176
     1
  0
VISUALSTYLE
  5
4DD
102
{ACAD_REACTORS
330
4DC
102
}
330
4DC
100
AcDbVisualStyle
  2
Flat
 70
     0
177
     3
291
     1
 70
    58
 90
        2
176
     1
 90
        1
176
     1
 90
        1
176
     1
 90
        2
176
     1
 40
0.6
176
     1
 40
30.0
176
     1
 62
     7
420
 16777215
176
     1
 90
        0
176
     1
 90
        0
176
     1
 62
     7
176
     1
 62
   257
176
     1
 90
        1
176
     1
 90
        1
176
     1
 40
1.0
176
     1
 90
        8
176
     1
 62
     7
176
     1
 40
1.0
176
     1
 90
        1
176
     1
 90
        6
176
     1
 90
        2
176
     1
 62
     7
176
     1
 90
        5
176
     1
 90
        0
176
     1
 90
        0
176
     1
290
     0
176
     1
 90
       13
176
     1
 40
0.0
176
     1
 90
        0
176
     1
290
     0
176
     1
290
     1
176
     1
290
     1
176
     1
290
     0
176
     1
290
     0
176
     1
290
     0
176
     1
290
     0
176
     1
290
     0
176
     1
290
     0
176
     1
 90
       50
176
     1
 40
0.0
176
     1
 40
1.0
176
     1
 90
        0
176
     1
 62
    18
420
        0
176
     1
 90
       50
176
     1
 90
        3
176
     1
 62
     5
420
      255
176
     1
290
     0
176
     1
 90
       50
176
     1
 90
       50
176
     1
 90
       50
176
     1
290
     0
176
     1
 90
       50
176
     1
 62
   256
176
     0
 40
1.0
176
     0
 90
        2
176
     1
  1
strokes_ogs.tif
176
     1
290
     0
176
     1
 40
1.0
176
     1
 40
1.0
176
     1
  0
VISUALSTYLE
  5
4DE
102
{ACAD_REACTORS
330
4DC
102
}
330
4DC
100
AcDbVisualStyle
  2
FlatWithEdges
 70
     1
177
     3
291
     1
 70
    58
 90
        2
176
     1
 90
        1
176
     1
 90
        1
176
     1
 90
        2
176
     1
 40
0.6
176
     1
 40
30.0
176
     1
 62
     7
420
 16777215
176
     1
 90
        1
176
     1
 90
        0
176
     1
 62
     7
176
     1
 62
   257
176
     1
 90
        1
176
     1
 90
        1
176
     1
 40
1.0
176
     1
 90
        0
176
     1
 62
   257
176
     1
 40
1.0
176
     1
 90
        1
176
     1
 90
        6
176
     1
 90
        2
176
     1
 62
     7
176
     1
 90
        5
176
     1
 90
        0
176
     1
 90
        0
176
     1
290
     0
176
     1
 90
       13
176
     1
 40
0.0
176
     1
 90
        0
176
     1
290
     0
176
     1
290
     1
176
     1
290
     1
176
     1
290
     0
176
     1
290
     0
176
     1
290
     0
176
     1
290
     0
176
     1
290
     0
176
     1
290
     0
176
     1
 90
       50
176
     1
 40
0.0
176
     1
 40
1.0
176
     1
 90
        0
176
     1
 62
    18
420
        0
176
     1
 90
       50
176
     1
 90
        3
176
     1
 62
     5
420
      255
176
     1
290
     0
176
     1
 90
       50
176
     1
 90
       50
176
     1
 90
       50
176
     1
290
     0
176
     1
 90
       50
176
     1
 62
   256
176
     0
 40
1.0
176
     0
 90
        2
176
     1
  1
strokes_ogs.tif
176
     1
290
     0
176
     1
 40
1.0
176
     1
 40
1.0
176
     1
  0
VISUALSTYLE
  5
4DF
102
{ACAD_REACTORS
330
4DC
102
}
330
4DC
100
AcDbVisualStyle
  2
Gouraud
 70
     2
177
     3
291
     1
 70
    58
 90
        2
176
     1
 90
        2
176
     1
 90
        1
176
     1
 90
        2
176
     1
 40
0.6
176
     1
 40
30.0
176
     1
 62
     7
420
 16777215
176
     1
 90
        0
176
     1
 90
        0
176
     1
 62
     7
176
     1
 62
   257
176
     1
 90
        1
176
     1
 90
        1
176
     1
 40
1.0
176
     1
 90
        0
176
     1
 62
     7
176
     1
 40
1.0
176
     1
 90
        1
176
     1
 90
        6
176
     1
 90
        2
176
     1
 62
     7
176
     1
 90
        5
176
     1
 90
        0
176
     1
 90
        0
176
     1
290
     0
176
     1
 90
       13
176
     1
 40
0.0
176
     1
 90
        0
176
     1
290
     0
176
     1
290
     1
176
     1
290
     1
176
     1
290
     0
176
     1
290
     0
176
     1
290
     0
176
     1
290
     0
176
     1
290
     0
176
     1
290
     0
176
     1
 90
       50
176
     1
 40
0.0
176
     1
 40
1.0
176
     1
 90
        0
176
     1
 62
    18
420
        0
176
     1
 90
       50
176
     1
 90
        3
176
     1
 62
     5
420
      255
176
     1
290
     0
176
     1
 90
       50
176
     1
 90
       50
176
     1
 90
       50
176
     1
290
     0
176
     1
 90
       50
176
     1
 62
   256
176
     0
 40
1.0
176
     0
 90
        2
176
     1
  1
strokes_ogs.tif
176
     1
290
     0
176
     1
 40
1.0
176
     1
 40
1.0
176
     1
  0
VISUALSTYLE
  5
4E0
102
{ACAD_REACTORS
330
4DC
102
}
330
4DC
100
AcDbVisualStyle
  2
GouraudWithEdges
 70
     3
177
     3
291
     1
 70
    58
 90
        2
176
     1
 90
        2
176
     1
 90
        1
176
     1
 90
        2
176
     1
 40
0.6
176
     1
 40
30.0
176
     1
 62
     7
420
 16777215
176
     1
 90
        1
176
     1
 90
        0
176
     1
 62
     7
176
     1
 62
   257
176
     1
 90
        1
176
     1
 90
        1
176
     1
 40
1.0
176
     1
 90
        0
176
     1
 62
   257
176
     1
 40
1.0
176
     1
 90
        1
176
     1
 90
        6
176
     1
 90
        2
176
     1
 62
     7
176
     1
 90
        5
176
     1
 90
        0
176
     1
 90
        0
176
     1
290
     0
176
     1
 90
       13
176
     1
 40
0.0
176
     1
 90
        0
176
     1
290
     0
176
     1
290
     1
176
     1
290
     1
176
     1
290
     0
176
     1
290
     0
176
     1
290
     0
176
     1
290
     0
176
     1
290
     0
176
     1
290
     0
176
     1
 90
       50
176
     1
 40
0.0
176
     1
 40
1.0
176
     1
 90
        0
176
     1
 62
    18
420
        0
176
     1
 90
       50
176
     1
 90
        3
176
     1
 62
     5
420
      255
176
     1
290
     0
176
     1
 90
       50
176
     1
 90
       50
176
     1
 90
       50
176
     1
290
     0
176
     1
 90
       50
176
     1
 62
   256
176
     0
 40
1.0
176
     0
 90
        2
176
     1
  1
strokes_ogs.tif
176
     1
290
     0
176
     1
 40
1.0
176
     1
 40
1.0
176
     1
  0
VISUALSTYLE
  5
4E3
102
{ACAD_REACTORS
330
4DC
102
}
330
4DC
100
AcDbVisualStyle
  2
Hidden
 70
     6
177
     3
291
     0
 70
    58
 90
        1
176
     1
 90
        2
176
     1
 90
        2
176
     1
 90
        0
176
     1
 40
0.6
176
     1
 40
30.0
176
     1
 62
     7
420
 16777215
176
     1
 90
        2
176
     1
 90
        2
176
     1
 62
     7
176
     1
 62
   257
176
     1
 90
        2
176
     1
 90
        1
176
     1
 40
40.0
176
     1
 90
        0
176
     1
 62
   257
176
     1
 40
1.0
176
     1
 90
        1
176
     1
 90
        6
176
     1
 90
        2
176
     1
 62
     7
176
     1
 90
        3
176
     1
 90
        0
176
     1
 90
        0
176
     1
290
     0
176
     1
 90
        1
176
     1
 40
0.0
176
     1
 90
        0
176
     1
290
     0
176
     1
290
     1
176
     1
290
     1
176
     1
290
     0
176
     1
290
     0
176
     1
290
     0
176
     1
290
     0
176
     1
290
     0
176
     1
290
     0
176
     1
 90
       50
176
     1
 40
0.0
176
     1
 40
1.0
176
     1
 90
        0
176
     1
 62
    18
420
        0
176
     1
 90
       50
176
     1
 90
        3
176
     1
 62
     5
420
      255
176
     1
290
     0
176
     1
 90
       50
176
     1
 90
       50
176
     1
 90
       50
176
     1
290
     0
176
     1
 90
       50
176
     1
 62
   256
176
     0
 40
1.0
176
     0
 90
        2
176
     1
  1
strokes_ogs.tif
176
     1
290
     0
176
     1
 40
1.0
176
     1
 40
1.0
176
     1
  0
VISUALSTYLE
  5
4ED
102
{ACAD_REACTORS
330
4DC
102
}
330
4DC
100
AcDbVisualStyle
  2
JitterOff
 70
    20
177
     3
291
     1
 70
    58
 90
        2
176
     0
 90
        2
176
     0
 90
        0
176
     0
 90
        0
176
     0
 40
0.6
176
     0
 40
30.0
176
     0
 62
     7
420
 16777215
176
     0
 90
        1
176
     0
 90
        4
176
     0
 62
     7
176
     0
 62
   257
176
     0
 90
        1
176
     0
 90
        1
176
     0
 40
1.0
176
     0
 90
       10
176
     2
 62
     7
176
     0
 40
1.0
176
     0
 90
        1
176
     0
 90
        6
176
     0
 90
        2
176
     0
 62
     7
176
     0
 90
        5
176
     0
 90
        0
176
     0
 90
        0
176
     0
290
     0
176
     0
 90
        1
176
     0
 40
0.0
176
     0
 90
        0
176
     0
290
     0
176
     0
290
     1
176
     0
290
     1
176
     0
290
     0
176
     0
290
     0
176
     0
290
     0
176
     0
290
     0
176
     0
290
     0
176
     0
290
     0
176
     0
 90
       50
176
     0
 40
0.0
176
     0
 40
1.0
176
     0
 90
        0
176
     0
 62
    18
420
        0
176
     0
 90
       50
176
     0
 90
        3
176
     0
 62
     5
420
      255
176
     0
290
     0
176
     0
 90
       50
176
     0
 90
       50
176
     0
 90
       50
176
     0
290
     0
176
     0
 90
       50
176
     0
 62
   256
176
     0
 40
1.0
176
     0
 90
        2
176
     0
  1
strokes_ogs.tif
176
     0
290
     0
176
     0
 40
1.0
176
     0
 40
1.0
176
     0
  0
VISUALSTYLE
  5
4EA
102
{ACAD_REACTORS
330
4DC
102
}
330
4DC
100
AcDbVisualStyle
  2
Linepattern
 70
    14
177
     3
291
     1
 70
    58
 90
        2
176
     1
 90
        2
176
     1
 90
        0
176
     1
 90
        0
176
     1
 40
0.6
176
     1
 40
30.0
176
     1
 62
     7
420
 16777215
176
     1
 90
        1
176
     1
 90
        4
176
     1
 62
     7
176
     1
 62
   257
176
     1
 90
        7
176
     1
 90
        7
176
     1
 40
1.0
176
     1
 90
        8
176
     1
 62
     7
176
     1
 40
1.0
176
     1
 90
        1
176
     1
 90
        6
176
     1
 90
        2
176
     1
 62
     7
176
     1
 90
        5
176
     1
 90
        0
176
     1
 90
        0
176
     1
290
     0
176
     1
 90
        1
176
     1
 40
0.0
176
     1
 90
        0
176
     1
290
     0
176
     1
290
     1
176
     1
290
     1
176
     1
290
     0
176
     1
290
     0
176
     1
290
     0
176
     1
290
     0
176
     1
290
     0
176
     1
290
     0
176
     1
 90
       50
176
     1
 40
0.0
176
     1
 40
1.0
176
     1
 90
        0
176
     1
 62
    18
420
        0
176
     1
 90
       50
176
     1
 90
        3
176
     1
 62
     5
420
      255
176
     1
290
     0
176
     1
 90
       50
176
     1
 90
       50
176
     1
 90
       50
176
     1
290
     0
176
     1
 90
       50
176
     1
 62
   256
176
     0
 40
1.0
176
     0
 90
        2
176
     1
  1
strokes_ogs.tif
176
     1
290
     0
176
     1
 40
1.0
176
     1
 40
1.0
176
     1
  0
VISUALSTYLE
  5
4EE
102
{ACAD_REACTORS
330
4DC
102
}
330
4DC
100
AcDbVisualStyle
  2
OverhangOff
 70
    21
177
     3
291
     1
 70
    58
 90
        2
176
     0
 90
        2
176
     0
 90
        0
176
     0
 90
        0
176
     0
 40
0.6
176
     0
 40
30.0
176
     0
 62
     7
420
 16777215
176
     0
 90
        1
176
     0
 90
        4
176
     0
 62
     7
176
     0
 62
   257
176
     0
 90
        1
176
     0
 90
        1
176
     0
 40
1.0
176
     0
 90
        9
176
     2
 62
     7
176
     0
 40
1.0
176
     0
 90
        1
176
     0
 90
        6
176
     0
 90
        2
176
     0
 62
     7
176
     0
 90
        5
176
     0
 90
        0
176
     0
 90
        0
176
     0
290
     0
176
     0
 90
        1
176
     0
 40
0.0
176
     0
 90
        0
176
     0
290
     0
176
     0
290
     1
176
     0
290
     1
176
     0
290
     0
176
     0
290
     0
176
     0
290
     0
176
     0
290
     0
176
     0
290
     0
176
     0
290
     0
176
     0
 90
       50
176
     0
 40
0.0
176
     0
 40
1.0
176
     0
 90
        0
176
     0
 62
    18
420
        0
176
     0
 90
       50
176
     0
 90
        3
176
     0
 62
     5
420
      255
176
     0
290
     0
176
     0
 90
       50
176
     0
 90
       50
176
     0
 90
       50
176
     0
290
     0
176
     0
 90
       50
176
     0
 62
   256
176
     0
 40
1.0
176
     0
 90
        2
176
     0
  1
strokes_ogs.tif
176
     0
290
     0
176
     0
 40
1.0
176
     0
 40
1.0
176
     0
  0
VISUALSTYLE
  5
4E5
102
{ACAD_REACTORS
330
4DC
102
}
330
4DC
100
AcDbVisualStyle
  2
Realistic
 70
     8
177
     3
291
     0
 70
    58
 90
        2
176
     1
 90
        3
176
     1
 90
        0
176
     1
 90
        2
176
     1
 40
0.6
176
     1
 40
30.0
176
     1
 62
     7
420
 16777215
176
     1
 90
        0
176
     1
 90
        0
176
     1
 62
     7
176
     1
 62
   257
176
     1
 90
        1
176
     1
 90
        1
176
     1
 40
1.0
176
     1
 90
        8
176
     1
 62
   257
176
     1
 40
1.0
176
     1
 90
        1
176
     1
 90
        6
176
     1
 90
        2
176
     1
 62
     7
176
     1
 90
        3
176
     1
 90
        0
176
     1
 90
        0
176
     1
290
     0
176
     1
 90
       13
176
     1
 40
0.0
176
     1
 90
        0
176
     1
290
     0
176
     1
290
     1
176
     1
290
     1
176
     1
290
     0
176
     1
290
     0
176
     1
290
     0
176
     1
290
     0
176
     1
290
     0
176
     1
290
     0
176
     1
 90
       50
176
     1
 40
0.0
176
     1
 40
1.0
176
     1
 90
        0
176
     1
 62
    18
420
        0
176
     1
 90
       50
176
     1
 90
        3
176
     1
 62
     5
420
      255
176
     1
290
     0
176
     1
 90
       50
176
     1
 90
       50
176
     1
 90
       50
176
     1
290
     0
176
     1
 90
       50
176
     1
 62
   256
176
     0
 40
1.0
176
     0
 90
        2
176
     1
  1
strokes_ogs.tif
176
     1
290
     0
176
     1
 40
1.0
176
     1
 40
1.0
176
     1
  0
VISUALSTYLE
  5
4F4
102
{ACAD_REACTORS
330
4DC
102
}
330
4DC
100
AcDbVisualStyle
  2
Shaded
 70
    27
177
     3
291
     0
 70
    58
 90
        2
176
     1
 90
        2
176
     1
 90
        1
176
     1
 90
        2
176
     1
 40
0.6
176
     1
 40
30.0
176
     1
 62
     7
420
 16777215
176
     1
 90
        0
176
     1
 90
        4
176
     1
 62
     7
176
     1
 62
   257
176
     1
 90
        1
176
     1
 90
        1
176
     1
 40
1.0
176
     1
 90
        8
176
     1
 62
   257
176
     1
 40
1.0
176
     1
 90
        1
176
     1
 90
        6
176
     1
 90
        2
176
     1
 62
     8
420
  7895160
176
     1
 90
        3
176
     1
 90
        0
176
     1
 90
        0
176
     1
290
     0
176
     1
 90
        5
176
     1
 40
0.0
176
     1
 90
        0
176
     1
290
     0
176
     1
290
     1
176
     1
290
     1
176
     1
290
     0
176
     1
290
     0
176
     1
290
     0
176
     1
290
     0
176
     1
290
     0
176
     1
290
     0
176
     1
 90
       50
176
     1
 40
0.0
176
     1
 40
1.0
176
     1
 90
        0
176
     1
 62
    18
420
        0
176
     1
 90
       50
176
     1
 90
        3
176
     1
 62
     5
420
      255
176
     1
290
     0
176
     1
 90
       50
176
     1
 90
       50
176
     1
 90
       50
176
     1
290
     0
176
     1
 90
       50
176
     1
 62
   256
176
     0
 40
1.0
176
     0
 90
        2
176
     1
  1
strokes_ogs.tif
176
     1
290
     0
176
     1
 40
1.0
176
     1
 40
1.0
176
     1
  0
VISUALSTYLE
  5
4F3
102
{ACAD_REACTORS
330
4DC
102
}
330
4DC
100
AcDbVisualStyle
  2
Shaded with edges
 70
    26
177
     3
291
     0
 70
    58
 90
        2
176
     1
 90
        2
176
     1
 90
        1
176
     1
 90
        2
176
     1
 40
0.6
176
     1
 40
30.0
176
     1
 62
     7
420
 16777215
176
     1
 90
        1
176
     1
 90
       10
176
     1
 62
     7
176
     1
 62
   257
176
     1
 90
        2
176
     1
 90
        1
176
     1
 40
1.0
176
     1
 90
        8
176
     1
 62
   257
176
     1
 40
1.0
176
     1
 90
        1
176
     1
 90
        6
176
     1
 90
        2
176
     1
 62
     7
176
     1
 90
        3
176
     1
 90
        0
176
     1
 90
        0
176
     1
290
     0
176
     1
 90
        5
176
     1
 40
0.0
176
     1
 90
        0
176
     1
290
     0
176
     1
290
     1
176
     1
290
     1
176
     1
290
     0
176
     1
290
     0
176
     1
290
     0
176
     1
290
     0
176
     1
290
     0
176
     1
290
     0
176
     1
 90
       50
176
     1
 40
0.0
176
     1
 40
1.0
176
     1
 90
        0
176
     1
 62
    18
420
        0
176
     1
 90
       50
176
     1
 90
        3
176
     1
 62
     5
420
      255
176
     1
290
     0
176
     1
 90
       50
176
     1
 90
       50
176
     1
 90
       50
176
     1
290
     0
176
     1
 90
       50
176
     1
 62
   256
176
     0
 40
1.0
176
     0
 90
        2
176
     1
  1
strokes_ogs.tif
176
     1
290
     0
176
     1
 40
1.0
176
     1
 40
1.0
176
     1
  0
VISUALSTYLE
  5
4F0
102
{ACAD_REACTORS
330
4DC
102
}
330
4DC
100
AcDbVisualStyle
  2
Shades of Gray
 70
    23
177
     3
291
     0
 70
    58
 90
        2
176
     1
 90
        2
176
     1
 90
        3
176
     1
 90
        0
176
     1
 40
0.6
176
     1
 40
30.0
176
     1
 62
     7
420
 16777215
176
     1
 90
        2
176
     1
 90
        2
176
     1
 62
     7
176
     1
 62
     7
176
     1
 90
        1
176
     1
 90
        1
176
     1
 40
40.0
176
     1
 90
        8
176
     1
 62
     7
176
     1
 40
1.0
176
     1
 90
        1
176
     1
 90
        6
176
     1
 90
        2
176
     1
 62
     7
176
     1
 90
        3
176
     1
 90
        0
176
     1
 90
        0
176
     1
290
     0
176
     1
 90
        1
176
     1
 40
0.0
176
     1
 90
        0
176
     1
290
     0
176
     1
290
     1
176
     1
290
     1
176
     1
290
     0
176
     1
290
     0
176
     1
290
     0
176
     1
290
     0
176
     1
290
     0
176
     1
290
     0
176
     1
 90
       50
176
     1
 40
0.0
176
     1
 40
1.0
176
     1
 90
        0
176
     1
 62
    18
420
        0
176
     1
 90
       50
176
     1
 90
        3
176
     1
 62
     5
420
      255
176
     1
290
     0
176
     1
 90
       50
176
     1
 90
       50
176
     1
 90
       50
176
     1
290
     0
176
     1
 90
       50
176
     1
 62
   256
176
     0
 40
1.0
176
     0
 90
        2
176
     1
  1
strokes_ogs.tif
176
     1
290
     0
176
     1
 40
1.0
176
     1
 40
1.0
176
     1
  0
VISUALSTYLE
  5
4F1
102
{ACAD_REACTORS
330
4DC
102
}
330
4DC
100
AcDbVisualStyle
  2
Sketchy
 70
    24
177
     3
291
     0
 70
    58
 90
        1
176
     1
 90
        2
176
     1
 90
        2
176
     1
 90
        0
176
     1
 40
0.6
176
     1
 40
30.0
176
     1
 62
     7
420
 16777215
176
     1
 90
        2
176
     1
 90
        2
176
     1
 62
     7
176
     1
 62
     7
176
     1
 90
        1
176
     1
 90
        1
176
     1
 40
40.0
176
     1
 90
       11
176
     1
 62
     7
176
     1
 40
1.0
176
     1
 90
        1
176
     1
 90
        6
176
     1
 90
        2
176
     1
 62
     7
176
     1
 90
        6
176
     1
 90
        0
176
     1
 90
        0
176
     1
290
     0
176
     1
 90
        1
176
     1
 40
0.0
176
     1
 90
        0
176
     1
290
     0
176
     1
290
     1
176
     1
290
     1
176
     1
290
     0
176
     1
290
     0
176
     1
290
     0
176
     1
290
     0
176
     1
290
     0
176
     1
290
     0
176
     1
 90
       50
176
     1
 40
0.0
176
     1
 40
1.0
176
     1
 90
        0
176
     1
 62
    18
420
        0
176
     1
 90
       50
176
     1
 90
        3
176
     1
 62
     5
420
      255
176
     1
290
     0
176
     1
 90
       50
176
     1
 90
       50
176
     1
 90
       50
176
     1
290
     0
176
     1
 90
       50
176
     1
 62
   256
176
     0
 40
1.0
176
     0
 90
        2
176
     1
  1
strokes_ogs.tif
176
     1
290
     0
176
     1
 40
1.0
176
     1
 40
1.0
176
     1
  0
VISUALSTYLE
  5
4E9
102
{ACAD_REACTORS
330
4DC
102
}
330
4DC
100
AcDbVisualStyle
  2
Thicken
 70
    13
177
     3
291
     1
 70
    58
 90
        2
176
     1
 90
        2
176
     1
 90
        0
176
     1
 90
        0
176
     1
 40
0.6
176
     1
 40
30.0
176
     1
 62
     7
420
 16777215
176
     1
 90
        1
176
     1
 90
        4
176
     1
 62
     7
176
     1
 62
   257
176
     1
 90
        1
176
     1
 90
        1
176
     1
 40
1.0
176
     1
 90
       12
176
     1
 62
     7
176
     1
 40
1.0
176
     1
 90
        1
176
     1
 90
        6
176
     1
 90
        2
176
     1
 62
     7
176
     1
 90
        5
176
     1
 90
        0
176
     1
 90
        0
176
     1
290
     0
176
     1
 90
        1
176
     1
 40
0.0
176
     1
 90
        0
176
     1
290
     0
176
     1
290
     1
176
     1
290
     1
176
     1
290
     0
176
     1
290
     0
176
     1
290
     0
176
     1
290
     0
176
     1
290
     0
176
     1
290
     0
176
     1
 90
       50
176
     1
 40
0.0
176
     1
 40
1.0
176
     1
 90
        0
176
     1
 62
    18
420
        0
176
     1
 90
       50
176
     1
 90
        3
176
     1
 62
     5
420
      255
176
     1
290
     0
176
     1
 90
       50
176
     1
 90
       50
176
     1
 90
       50
176
     1
290
     0
176
     1
 90
       50
176
     1
 62
   256
176
     0
 40
1.0
176
     0
 90
        2
176
     1
  1
strokes_ogs.tif
176
     1
290
     0
176
     1
 40
1.0
176
     1
 40
1.0
176
     1
  0
VISUALSTYLE
  5
4E2
102
{ACAD_REACTORS
330
4DC
102
}
330
4DC
100
AcDbVisualStyle
  2
Wireframe
 70
     5
177
     3
291
     0
 70
    58
 90
        0
176
     1
 90
        2
176
     1
 90
        0
176
     1
 90
        0
176
     1
 40
0.6
176
     1
 40
30.0
176
     1
 62
     7
420
 16777215
176
     1
 90
        1
176
     1
 90
        4
176
     1
 62
     7
176
     1
 62
   257
176
     1
 90
        1
176
     1
 90
        1
176
     1
 40
1.0
176
     1
 90
        0
176
     1
 62
   257
176
     1
 40
1.0
176
     1
 90
        1
176
     1
 90
        6
176
     1
 90
        2
176
     1
 62
     7
176
     1
 90
        3
176
     1
 90
        0
176
     1
 90
        0
176
     1
290
     0
176
     1
 90
        1
176
     1
 40
0.0
176
     1
 90
        0
176
     1
290
     0
176
     1
290
     1
176
     1
290
     1
176
     1
290
     0
176
     1
290
     0
176
     1
290
     0
176
     1
290
     0
176
     1
290
     0
176
     1
290
     0
176
     1
 90
       50
176
     1
 40
0.0
176
     1
 40
1.0
176
     1
 90
        0
176
     1
 62
    18
420
        0
176
     1
 90
       50
176
     1
 90
        3
176
     1
 62
     5
420
      255
176
     1
290
     0
176
     1
 90
       50
176
     1
 90
       50
176
     1
 90
       50
176
     1
290
     0
176
     1
 90
       50
176
     1
 62
   256
176
     0
 40
1.0
176
     0
 90
        2
176
     1
  1
strokes_ogs.tif
176
     1
290
     0
176
     1
 40
1.0
176
     1
 40
1.0
176
     1
  0
VISUALSTYLE
  5
4F2
102
{ACAD_REACTORS
330
4DC
102
}
330
4DC
100
AcDbVisualStyle
  2
X-Ray
 70
    25
177
     3
291
     0
 70
    58
 90
        2
176
     1
 90
        2
176
     1
 90
        1
176
     1
 90
        1
176
     1
 40
0.5
176
     1
 40
30.0
176
     1
 62
     7
420
 16777215
176
     1
 90
        1
176
     1
 90
        0
176
     1
 62
     7
176
     1
 62
   257
176
     1
 90
        1
176
     1
 90
        1
176
     1
 40
1.0
176
     1
 90
        8
176
     1
 62
     7
176
     1
 40
1.0
176
     1
 90
        1
176
     1
 90
        6
176
     1
 90
        2
176
     1
 62
     7
176
     1
 90
        3
176
     1
 90
        0
176
     1
 90
        0
176
     1
290
     0
176
     1
 90
       13
176
     1
 40
0.0
176
     1
 90
        0
176
     1
290
     0
176
     1
290
     1
176
     1
290
     1
176
     1
290
     0
176
     1
290
     0
176
     1
290
     0
176
     1
290
     0
176
     1
290
     0
176
     1
290
     0
176
     1
 90
       50
176
     1
 40
0.0
176
     1
 40
1.0
176
     1
 90
        0
176
     1
 62
    18
420
        0
176
     1
 90
       50
176
     1
 90
        3
176
     1
 62
     5
420
      255
176
     1
290
     0
176
     1
 90
       50
176
     1
 90
       50
176
     1
 90
       50
176
     1
290
     0
176
     1
 90
       50
176
     1
 62
   256
176
     0
 40
1.0
176
     0
 90
        2
176
     1
  1
strokes_ogs.tif
176
     1
290
     0
176
     1
 40
1.0
176
     1
 40
1.0
176
     1
  0
DICTIONARYVAR
  5
4FE
102
{ACAD_REACTORS
330
4FD
102
}
330
4FD
100
DictionaryVariables
280
     0
  1
1:1
  0
DICTIONARYVAR
  5
503
102
{ACAD_REACTORS
330
4FD
102
}
330
4FD
100
DictionaryVariables
280
     0
  1
Standard
  0
DICTIONARYVAR
  5
502
102
{ACAD_REACTORS
330
4FD
102
}
330
4FD
100
DictionaryVariables
280
     0
  1
Standard
  0
DICTIONARYVAR
  5
504
102
{ACAD_REACTORS
330
4FD
102
}
330
4FD
100
DictionaryVariables
280
     0
  1
0
  0
DICTIONARY
  5
4FF
330
4F6
100
AcDbDictionary
280
     1
281
     1
  3
ACAD_ROUNDTRIP_2008_TABLESTYLE_CELLSTYLEMAP
360
500
  0
CELLSTYLEMAP
  5
500
102
{ACAD_REACTORS
330
4FF
102
}
330
4FF
100
AcDbCellStyleMap
 90
        3
300
CELLSTYLE
  1
TABLEFORMAT_BEGIN
 90
        5
170
     1
 91
        0
 92
    32768
 62
   257
 93
        1
300
CONTENTFORMAT
  1
CONTENTFORMAT_BEGIN
 90
        0
 91
        0
 92
        4
 93
        0
300

 40
0.0
140
1.0
 94
        5
 62
     0
340
437
144
0.25
309
CONTENTFORMAT_END
171
     1
301
MARGIN
  1
CELLMARGIN_BEGIN
 40
0.06
 40
0.06
 40
0.06
 40
0.06
 40
0.06
 40
0.06
309
CELLMARGIN_END
 94
        6
 95
        1
302
GRIDFORMAT
  1
GRIDFORMAT_BEGIN
 90
        0
 91
        1
 62
     0
 92
       -2
340
439
 93
        0
 40
0.045
309
GRIDFORMAT_END
 95
        2
302
GRIDFORMAT
  1
GRIDFORMAT_BEGIN
 90
        0
 91
        1
 62
     0
 92
       -2
340
439
 93
        0
 40
0.045
309
GRIDFORMAT_END
 95
        4
302
GRIDFORMAT
  1
GRIDFORMAT_BEGIN
 90
        0
 91
        1
 62
     0
 92
       -2
340
439
 93
        0
 40
0.045
309
GRIDFORMAT_END
 95
        8
302
GRIDFORMAT
  1
GRIDFORMAT_BEGIN
 90
        0
 91
        1
 62
     0
 92
       -2
340
439
 93
        0
 40
0.045
309
GRIDFORMAT_END
 95
       16
302
GRIDFORMAT
  1
GRIDFORMAT_BEGIN
 90
        0
 91
        1
 62
     0
 92
       -2
340
439
 93
        0
 40
0.045
309
GRIDFORMAT_END
 95
       32
302
GRIDFORMAT
  1
GRIDFORMAT_BEGIN
 90
        0
 91
        1
 62
     0
 92
       -2
340
439
 93
        0
 40
0.045
309
GRIDFORMAT_END
309
TABLEFORMAT_END
  1
CELLSTYLE_BEGIN
 90
        1
 91
        1
300
_TITLE
309
CELLSTYLE_END
300
CELLSTYLE
  1
TABLEFORMAT_BEGIN
 90
        5
170
     1
 91
        0
 92
        0
 62
   257
 93
        1
300
CONTENTFORMAT
  1
CONTENTFORMAT_BEGIN
 90
        0
 91
        0
 92
        4
 93
        0
300

 40
0.0
140
1.0
 94
        5
 62
     0
340
437
144
0.18
309
CONTENTFORMAT_END
171
     1
301
MARGIN
  1
CELLMARGIN_BEGIN
 40
0.06
 40
0.06
 40
0.06
 40
0.06
 40
0.06
 40
0.06
309
CELLMARGIN_END
 94
        6
 95
        1
302
GRIDFORMAT
  1
GRIDFORMAT_BEGIN
 90
        0
 91
        1
 62
     0
 92
       -2
340
439
 93
        0
 40
0.045
309
GRIDFORMAT_END
 95
        2
302
GRIDFORMAT
  1
GRIDFORMAT_BEGIN
 90
        0
 91
        1
 62
     0
 92
       -2
340
439
 93
        0
 40
0.045
309
GRIDFORMAT_END
 95
        4
302
GRIDFORMAT
  1
GRIDFORMAT_BEGIN
 90
        0
 91
        1
 62
     0
 92
       -2
340
439
 93
        0
 40
0.045
309
GRIDFORMAT_END
 95
        8
302
GRIDFORMAT
  1
GRIDFORMAT_BEGIN
 90
        0
 91
        1
 62
     0
 92
       -2
340
439
 93
        0
 40
0.045
309
GRIDFORMAT_END
 95
       16
302
GRIDFORMAT
  1
GRIDFORMAT_BEGIN
 90
        0
 91
        1
 62
     0
 92
       -2
340
439
 93
        0
 40
0.045
309
GRIDFORMAT_END
 95
       32
302
GRIDFORMAT
  1
GRIDFORMAT_BEGIN
 90
        0
 91
        1
 62
     0
 92
       -2
340
439
 93
        0
 40
0.045
309
GRIDFORMAT_END
309
TABLEFORMAT_END
  1
CELLSTYLE_BEGIN
 90
        2
 91
        1
300
_HEADER
309
CELLSTYLE_END
300
CELLSTYLE
  1
TABLEFORMAT_BEGIN
 90
        5
170
     1
 91
        0
 92
        0
 62
   257
 93
        1
300
CONTENTFORMAT
  1
CONTENTFORMAT_BEGIN
 90
        0
 91
        0
 92
        4
 93
        0
300

 40
0.0
140
1.0
 94
        2
 62
     0
340
437
144
0.18
309
CONTENTFORMAT_END
171
     1
301
MARGIN
  1
CELLMARGIN_BEGIN
 40
0.06
 40
0.06
 40
0.06
 40
0.06
 40
0.06
 40
0.06
309
CELLMARGIN_END
 94
        6
 95
        1
302
GRIDFORMAT
  1
GRIDFORMAT_BEGIN
 90
        0
 91
        1
 62
     0
 92
       -2
340
439
 93
        0
 40
0.045
309
GRIDFORMAT_END
 95
        2
302
GRIDFORMAT
  1
GRIDFORMAT_BEGIN
 90
        0
 91
        1
 62
     0
 92
       -2
340
439
 93
        0
 40
0.045
309
GRIDFORMAT_END
 95
        4
302
GRIDFORMAT
  1
GRIDFORMAT_BEGIN
 90
        0
 91
        1
 62
     0
 92
       -2
340
439
 93
        0
 40
0.045
309
GRIDFORMAT_END
 95
        8
302
GRIDFORMAT
  1
GRIDFORMAT_BEGIN
 90
        0
 91
        1
 62
     0
 92
       -2
340
439
 93
        0
 40
0.045
309
GRIDFORMAT_END
 95
       16
302
GRIDFORMAT
  1
GRIDFORMAT_BEGIN
 90
        0
 91
        1
 62
     0
 92
       -2
340
439
 93
        0
 40
0.045
309
GRIDFORMAT_END
 95
       32
302
GRIDFORMAT
  1
GRIDFORMAT_BEGIN
 90
        0
 91
        1
 62
     0
 92
       -2
340
439
 93
        0
 40
0.045
309
GRIDFORMAT_END
309
TABLEFORMAT_END
  1
CELLSTYLE_BEGIN
 90
        3
 91
        2
300
_DATA
309
CELLSTYLE_END
  0
ENDSEC
  0
EOF
