  0
SECTION
  2
HEADER
  9
$ACADVER
  1
AC1018
  9
$ACADMAINTVER
 70
     0
  9
$DWGCODEPAGE
  3
ANSI_1252
  9
$INSBASE
 10
0.0
 20
0.0
 30
0.0
  9
$EXTMIN
 10
-0.5
 20
-0.5
 30
-0.5
  9
$EXTMAX
 10
5.0
 20
5.0
 30
5.0
  9
$LIMMIN
 10
-0.5
 20
-0.5
  9
$LIMMAX
 10
5.0
 20
5.0
  9
$ORTHOMODE
 70
     0
  9
$REGENMODE
 70
     1
  9
$FILLMODE
 70
     1
  9
$QTEXTMODE
 70
     0
  9
$MIRRTEXT
 70
     1
  9
$LTSCALE
 40
1.0
  9
$ATTMODE
 70
     1
  9
$TEXTSIZE
 40
0.2
  9
$TRACEWID
 40
0.05
  9
$TEXTSTYLE
  7
Standard
  9
$CLAYER
  8
0
  9
$CELTYPE
  6
ByLayer
  9
$CECOLOR
 62
   256
  9
$CELTSCALE
 40
1.0
  9
$DISPSILH
 70
     0
  9
$DIMSCALE
 40
1.0
  9
$DIMASZ
 40
0.18
  9
$DIMEXO
 40
0.0625
  9
$DIMDLI
 40
0.38
  9
$DIMRND
 40
0.0
  9
$DIMDLE
 40
0.0
  9
$DIMEXE
 40
0.18
  9
$DIMTP
 40
0.0
  9
$DIMTM
 40
0.0
  9
$DIMTXT
 40
0.18
  9
$DIMCEN
 40
0.09
  9
$DIMTSZ
 40
0.0
  9
$DIMTOL
 70
     0
  9
$DIMLIM
 70
     0
  9
$DIMTIH
 70
     1
  9
$DIMTOH
 70
     1
  9
$DIMSE1
 70
     0
  9
$DIMSE2
 70
     0
  9
$DIMTAD
 70
     0
  9
$DIMZIN
 70
     0
  9
$DIMBLK
  1

  9
$DIMASO
 70
     1
  9
$DIMSHO
 70
     1
  9
$DIMPOST
  1

  9
$DIMAPOST
  1

  9
$DIMALT
 70
     0
  9
$DIMALTD
 70
     2
  9
$DIMALTF
 40
25.4
  9
$DIMLFAC
 40
1.0
  9
$DIMTOFL
 70
     0
  9
$DIMTVP
 40
0.0
  9
$DIMTIX
 70
     0
  9
$DIMSOXD
 70
     0
  9
$DIMSAH
 70
     0
  9
$DIMBLK1
  1

  9
$DIMBLK2
  1

  9
$DIMSTYLE
  2
Standard
  9
$DIMCLRD
 70
     0
  9
$DIMCLRE
 70
     0
  9
$DIMCLRT
 70
     0
  9
$DIMTFAC
 40
1.0
  9
$DIMGAP
 40
0.09
  9
$DIMJUST
 70
     0
  9
$DIMSD1
 70
     0
  9
$DIMSD2
 70
     0
  9
$DIMTOLJ
 70
     1
  9
$DIMTZIN
 70
     0
  9
$DIMALTZ
 70
     0
  9
$DIMALTTZ
 70
     0
  9
$DIMUPT
 70
     0
  9
$DIMDEC
 70
     4
  9
$DIMTDEC
 70
     4
  9
$DIMALTU
 70
     2
  9
$DIMALTTD
 70
     2
  9
$DIMTXSTY
  7
Standard
  9
$DIMAUNIT
 70
     0
  9
$DIMADEC
 70
     0
  9
$DIMALTRND
 40
0.0
  9
$DIMAZIN
 70
     0
  9
$DIMDSEP
 70
    46
  9
$DIMATFIT
 70
     3
  9
$DIMFRAC
 70
     0
  9
$DIMLDRBLK
  1

  9
$DIMLUNIT
 70
     2
  9
$DIMLWD
 70
    -2
  9
$DIMLWE
 70
    -2
  9
$DIMTMOVE
 70
     0
  9
$LUNITS
 70
     2
  9
$LUPREC
 70
     4
  9
$SKETCHINC
 40
0.1
  9
$FILLETRAD
 40
0.5
  9
$AUNITS
 70
     0
  9
$AUPREC
 70
     0
  9
$MENU
  1
.
  9
$ELEVATION
 40
0.0
  9
$PELEVATION
 40
0.0
  9
$THICKNESS
 40
0.0
  9
$LIMCHECK
 70
     0
  9
$CHAMFERA
 40
0.0
  9
$CHAMFERB
 40
0.0
  9
$CHAMFERC
 40
0.0
  9
$CHAMFERD
 40
0.0
  9
$SKPOLY
 70
     0
  9
$TDCREATE
 40
2458561.547025197
  9
$TDUCREATE
 40
2458561.50535853
  9
$TDUPDATE
 40
2458561.547026644
  9
$TDUUPDATE
 40
2458561.505359977
  9
$TDINDWG
 40
0.0000000116
  9
$TDUSRTIMER
 40
0.0000000116
  9
$USRTIMER
 70
     1
  9
$ANGBASE
 50
0.0
  9
$ANGDIR
 70
     0
  9
$PDMODE
 70
     0
  9
$PDSIZE
 40
0.0
  9
$PLINEWID
 40
0.0
  9
$SPLFRAME
 70
     0
  9
$SPLINETYPE
 70
     6
  9
$SPLINESEGS
 70
     8
  9
$HANDSEED
  5
1E4
  9
$SURFTAB1
 70
     6
  9
$SURFTAB2
 70
     6
  9
$SURFTYPE
 70
     6
  9
$SURFU
 70
     6
  9
$SURFV
 70
     6
  9
$UCSBASE
  2

  9
$UCSNAME
  2

  9
$UCSORG
 10
0.0
 20
0.0
 30
0.0
  9
$UCSXDIR
 10
1.0
 20
0.0
 30
0.0
  9
$UCSYDIR
 10
0.0
 20
1.0
 30
0.0
  9
$UCSORTHOREF
  2

  9
$UCSORTHOVIEW
 70
     0
  9
$UCSORGTOP
 10
0.0
 20
0.0
 30
0.0
  9
$UCSORGBOTTOM
 10
0.0
 20
0.0
 30
0.0
  9
$UCSORGLEFT
 10
0.0
 20
0.0
 30
0.0
  9
$UCSORGRIGHT
 10
0.0
 20
0.0
 30
0.0
  9
$UCSORGFRONT
 10
0.0
 20
0.0
 30
0.0
  9
$UCSORGBACK
 10
0.0
 20
0.0
 30
0.0
  9
$PUCSBASE
  2

  9
$PUCSNAME
  2

  9
$PUCSORG
 10
0.0
 20
0.0
 30
0.0
  9
$PUCSXDIR
 10
1.0
 20
0.0
 30
0.0
  9
$PUCSYDIR
 10
0.0
 20
1.0
 30
0.0
  9
$PUCSORTHOREF
  2

  9
$PUCSORTHOVIEW
 70
     0
  9
$PUCSORGTOP
 10
0.0
 20
0.0
 30
0.0
  9
$PUCSORGBOTTOM
 10
0.0
 20
0.0
 30
0.0
  9
$PUCSORGLEFT
 10
0.0
 20
0.0
 30
0.0
  9
$PUCSORGRIGHT
 10
0.0
 20
0.0
 30
0.0
  9
$PUCSORGFRONT
 10
0.0
 20
0.0
 30
0.0
  9
$PUCSORGBACK
 10
0.0
 20
0.0
 30
0.0
  9
$USERI1
 70
     0
  9
$USERI2
 70
     0
  9
$USERI3
 70
     0
  9
$USERI4
 70
     0
  9
$USERI5
 70
     0
  9
$USERR1
 40
0.0
  9
$USERR2
 40
0.0
  9
$USERR3
 40
0.0
  9
$USERR4
 40
0.0
  9
$USERR5
 40
0.0
  9
$WORLDVIEW
 70
     1
  9
$SHADEDGE
 70
     3
  9
$SHADEDIF
 70
    70
  9
$TILEMODE
 70
     1
  9
$MAXACTVP
 70
    64
  9
$PINSBASE
 10
0.0
 20
0.0
 30
0.0
  9
$PLIMCHECK
 70
     0
  9
$PEXTMIN
 10
-0.5
 20
-0.5
 30
-0.5
  9
$PEXTMAX
 10
5.0
 20
5.0
 30
5.0
  9
$PLIMMIN
 10
-0.5
 20
-0.5
  9
$PLIMMAX
 10
5.0
 20
5.0
  9
$UNITMODE
 70
     0
  9
$VISRETAIN
 70
     1
  9
$PLINEGEN
 70
     0
  9
$PSLTSCALE
 70
     1
  9
$TREEDEPTH
 70
  3020
  9
$CMLSTYLE
  2
Standard
  9
$CMLJUST
 70
     0
  9
$CMLSCALE
 40
1.0
  9
$PROXYGRAPHICS
 70
     1
  9
$MEASUREMENT
 70
     1
  9
$CELWEIGHT
370
    18
  9
$ENDCAPS
280
     0
  9
$JOINSTYLE
280
     0
  9
$LWDISPLAY
290
     1
  9
$INSUNITS
 70
     4
  9
$HYPERLINKBASE
  1

  9
$STYLESHEET
  1

  9
$XEDIT
290
     1
  9
$CEPSNTYPE
380
     0
  9
$PSTYLEMODE
290
     1
  9
$FINGERPRINTGUID
  2
{70B519CE-65D2-4704-8F3B-D048FBA3A29A}
  9
$VERSIONGUID
  2
{FAEB1C32-E019-11D5-929B-00C0DF256EC4}
  9
$EXTNAMES
290
     1
  9
$PSVPSCALE
 40
0.0
  9
$OLESTARTUP
290
     0
  9
$SORTENTS
280
   127
  9
$INDEXCTL
280
     0
  9
$HIDETEXT
280
     1
  9
$XCLIPFRAME
290
     0
  9
$HALOGAP
280
     0
  9
$OBSCOLOR
 70
   257
  9
$OBSLTYPE
280
     0
  9
$INTERSECTIONDISPLAY
280
     0
  9
$INTERSECTIONCOLOR
 70
   257
  9
$DIMASSOC
280
     2
  9
$PROJECTNAME
  1

  0
ENDSEC
  0
SECTION
  2
CLASSES
  0
CLASS
  1
ACDBDICTIONARYWDFLT
  2
AcDbDictionaryWithDefault
  3
ObjectDBX Classes
 90
        0
 91
        4
280
     0
281
     0
  0
CLASS
  1
VISUALSTYLE
  2
AcDbVisualStyle
  3
ObjectDBX Classes
 90
     4095
 91
        4
280
     0
281
     0
  0
CLASS
  1
MATERIAL
  2
AcDbMaterial
  3
ObjectDBX Classes
 90
     1153
 91
        4
280
     0
281
     0
  0
CLASS
  1
SCALE
  2
AcDbScale
  3
ObjectDBX Classes
 90
     1153
 91
        4
280
     0
281
     0
  0
CLASS
  1
SUN
  2
AcDbSun
  3
SCENEOE
 90
     1153
 91
        4
280
     0
281
     0
  0
CLASS
  1
DICTIONARYVAR
  2
AcDbDictionaryVar
  3
ObjectDBX Classes
 90
        0
 91
        4
280
     0
281
     0
  0
ENDSEC
  0
SECTION
  2
TABLES
  0
TABLE
  2
VPORT
  5
8
330
0
100
AcDbSymbolTable
 70
    17
  0
VPORT
  5
29
330
8
100
AcDbSymbolTableRecord
100
AcDbViewportTableRecord
  2
DUMMY
 70
     0
 10
0.0
 20
0.0
 11
1.0
 21
1.0
 12
10.429907
 22
4.5
 13
0.0
 23
0.0
 14
0.5
 24
0.5
 15
0.5
 25
0.5
 16
0.0
 26
0.0
 36
1.0
 17
0.0
 27
0.0
 37
0.0
 40
9.0
 41
1.972973
 42
50.0
 43
0.0
 44
0.0
 50
0.0
 51
0.0
 71
     0
 72
   100
 73
     1
 74
     3
 75
     0
 76
     0
 77
     0
 78
     0
281
     0
 65
     1
110
0.0
120
0.0
130
0.0
111
1.0
121
0.0
131
0.0
112
0.0
122
1.0
132
0.0
 79
     0
146
0.0
  0
VPORT
  5
196
330
8
100
AcDbSymbolTableRecord
100
AcDbViewportTableRecord
  2
*ACTIVE
 70
     0
 10
0.0
 20
0.0
 11
1.0
 21
1.0
 12
267.757405
 22
148.5
 13
0.0
 23
0.0
 14
0.5
 24
0.5
 15
0.5
 25
0.5
 16
0.0
 26
0.0
 36
1.0
 17
0.0
 27
0.0
 37
0.0
 40
254.0
 41
0.069908
 42
50.0
 43
964.613032
 44
-964.613032
 50
0.0
 51
0.0
 71
     0
 72
   100
 73
     1
 74
     3
 75
     0
 76
     0
 77
     0
 78
     0
281
     0
 65
     1
110
0.0
120
0.0
130
0.0
111
1.0
121
0.0
131
0.0
112
0.0
122
1.0
132
0.0
 79
     0
146
0.0
  0
VPORT
  5
198
330
8
100
AcDbSymbolTableRecord
100
AcDbViewportTableRecord
  2
L1
 70
     0
 10
0.0
 20
0.0
 11
1.0
 21
1.0
 12
267.757405
 22
148.5
 13
0.0
 23
0.0
 14
0.5
 24
0.5
 15
0.5
 25
0.5
 16
0.0
 26
0.0
 36
1.0
 17
0.0
 27
0.0
 37
0.0
 40
254.0
 41
0.069908
 42
50.0
 43
964.613032
 44
-964.613032
 50
0.0
 51
0.0
 71
     0
 72
   100
 73
     1
 74
     3
 75
     0
 76
     0
 77
     0
 78
     0
281
     0
 65
     1
110
0.0
120
0.0
130
0.0
111
1.0
121
0.0
131
0.0
112
0.0
122
1.0
132
0.0
 79
     0
146
0.0
  0
VPORT
  5
199
330
8
100
AcDbSymbolTableRecord
100
AcDbViewportTableRecord
  2
L2
 70
     0
 10
0.0
 20
0.0
 11
0.5
 21
1.0
 12
0.0
 22
0.0
 13
0.0
 23
0.0
 14
0.5
 24
0.5
 15
0.5
 25
0.5
 16
0.0
 26
-1.0
 36
0.0
 17
0.0
 27
0.0
 37
0.0
 40
1319.822715
 41
0.013454
 42
50.0
 43
672.020833
 44
-672.020833
 50
0.0
 51
0.0
 71
     0
 72
   100
 73
     1
 74
     3
 75
     0
 76
     0
 77
     0
 78
     0
281
     0
 65
     1
110
0.0
120
0.0
130
0.0
111
1.0
121
0.0
131
0.0
112
0.0
122
1.0
132
0.0
 79
     0
146
0.0
  0
VPORT
  5
19A
330
8
100
AcDbSymbolTableRecord
100
AcDbViewportTableRecord
  2
L2
 70
     0
 10
0.5
 20
0.0
 11
1.0
 21
1.0
 12
0.0
 22
0.0
 13
0.0
 23
0.0
 14
0.5
 24
0.5
 15
0.5
 25
0.5
 16
1.0
 26
0.0
 36
0.0
 17
0.0
 27
0.0
 37
0.0
 40
1319.822715
 41
0.013454
 42
50.0
 43
672.020833
 44
-672.020833
 50
0.0
 51
0.0
 71
     0
 72
   100
 73
     1
 74
     3
 75
     0
 76
     0
 77
     0
 78
     0
281
     0
 65
     1
110
0.0
120
0.0
130
0.0
111
1.0
121
0.0
131
0.0
112
0.0
122
1.0
132
0.0
 79
     0
146
0.0
  0
VPORT
  5
19B
330
8
100
AcDbSymbolTableRecord
100
AcDbViewportTableRecord
  2
L3
 70
     0
 10
0.0
 20
0.5
 11
1.0
 21
1.0
 12
267.757405
 22
148.5
 13
0.0
 23
0.0
 14
0.5
 24
0.5
 15
0.5
 25
0.5
 16
0.0
 26
0.0
 36
1.0
 17
0.0
 27
0.0
 37
0.0
 40
254.0
 41
0.069908
 42
50.0
 43
964.613032
 44
-964.613032
 50
0.0
 51
0.0
 71
     0
 72
   100
 73
     1
 74
     3
 75
     0
 76
     0
 77
     0
 78
     0
281
     0
 65
     1
110
0.0
120
0.0
130
0.0
111
1.0
121
0.0
131
0.0
112
0.0
122
1.0
132
0.0
 79
     0
146
0.0
  0
VPORT
  5
19C
330
8
100
AcDbSymbolTableRecord
100
AcDbViewportTableRecord
  2
L3
 70
     0
 10
0.0
 20
0.0
 11
1.0
 21
0.5
 12
0.0
 22
0.0
 13
0.0
 23
0.0
 14
0.5
 24
0.5
 15
0.5
 25
0.5
 16
0.0
 26
-1.0
 36
0.0
 17
0.0
 27
0.0
 37
0.0
 40
1319.822715
 41
0.013454
 42
50.0
 43
672.020833
 44
-672.020833
 50
0.0
 51
0.0
 71
     0
 72
   100
 73
     1
 74
     3
 75
     0
 76
     0
 77
     0
 78
     0
281
     0
 65
     1
110
0.0
120
0.0
130
0.0
111
1.0
121
0.0
131
0.0
112
0.0
122
1.0
132
0.0
 79
     0
146
0.0
  0
VPORT
  5
19D
330
8
100
AcDbSymbolTableRecord
100
AcDbViewportTableRecord
  2
L4
 70
     0
 10
0.0
 20
0.5
 11
0.5
 21
1.0
 12
267.757405
 22
148.5
 13
0.0
 23
0.0
 14
0.5
 24
0.5
 15
0.5
 25
0.5
 16
0.0
 26
0.0
 36
1.0
 17
0.0
 27
0.0
 37
0.0
 40
254.0
 41
0.069908
 42
50.0
 43
964.613032
 44
-964.613032
 50
0.0
 51
0.0
 71
     0
 72
   100
 73
     1
 74
     3
 75
     0
 76
     0
 77
     0
 78
     0
281
     0
 65
     1
110
0.0
120
0.0
130
0.0
111
1.0
121
0.0
131
0.0
112
0.0
122
1.0
132
0.0
 79
     0
146
0.0
  0
VPORT
  5
19E
330
8
100
AcDbSymbolTableRecord
100
AcDbViewportTableRecord
  2
L4
 70
     0
 10
0.0
 20
0.0
 11
0.5
 21
0.5
 12
0.0
 22
0.0
 13
0.0
 23
0.0
 14
0.5
 24
0.5
 15
0.5
 25
0.5
 16
0.0
 26
-1.0
 36
0.0
 17
0.0
 27
0.0
 37
0.0
 40
1319.822715
 41
0.013454
 42
50.0
 43
672.020833
 44
-672.020833
 50
0.0
 51
0.0
 71
     0
 72
   100
 73
     1
 74
     3
 75
     0
 76
     0
 77
     0
 78
     0
281
     0
 65
     1
110
0.0
120
0.0
130
0.0
111
1.0
121
0.0
131
0.0
112
0.0
122
1.0
132
0.0
 79
     0
146
0.0
  0
VPORT
  5
19F
330
8
100
AcDbSymbolTableRecord
100
AcDbViewportTableRecord
  2
L4
 70
     0
 10
0.5
 20
0.0
 11
1.0
 21
0.5
 12
0.0
 22
0.0
 13
0.0
 23
0.0
 14
0.5
 24
0.5
 15
0.5
 25
0.5
 16
1.0
 26
0.0
 36
0.0
 17
0.0
 27
0.0
 37
0.0
 40
1319.822715
 41
0.013454
 42
50.0
 43
672.020833
 44
-672.020833
 50
0.0
 51
0.0
 71
     0
 72
   100
 73
     1
 74
     3
 75
     0
 76
     0
 77
     0
 78
     0
281
     0
 65
     1
110
0.0
120
0.0
130
0.0
111
1.0
121
0.0
131
0.0
112
0.0
122
1.0
132
0.0
 79
     0
146
0.0
  0
VPORT
  5
1A0
330
8
100
AcDbSymbolTableRecord
100
AcDbViewportTableRecord
  2
L4
 70
     0
 10
0.5
 20
0.5
 11
1.0
 21
1.0
 12
0.0
 22
0.0
 13
0.0
 23
0.0
 14
0.5
 24
0.5
 15
0.5
 25
0.5
 16
0.5773502691896258
 26
-0.5773502691896258
 36
0.5773502691896258
 17
0.0
 27
0.0
 37
0.0
 40
1285.020866
 41
0.013818
 42
50.0
 43
667.141407
 44
-667.141407
 50
0.0
 51
0.0
 71
     0
 72
   100
 73
     1
 74
     3
 75
     0
 76
     0
 77
     0
 78
     0
281
     0
 65
     1
110
0.0
120
0.0
130
0.0
111
1.0
121
0.0
131
0.0
112
0.0
122
1.0
132
0.0
 79
     0
146
0.0
  0
VPORT
  5
1A1
330
8
100
AcDbSymbolTableRecord
100
AcDbViewportTableRecord
  2
L6
 70
     0
 10
0.0
 20
0.5
 11
0.333333
 21
1.0
 12
0.0
 22
0.0
 13
0.0
 23
0.0
 14
0.5
 24
0.5
 15
0.5
 25
0.5
 16
0.7188730927569433
 26
-0.5850486126764433
 36
0.3754192287502549
 17
0.0
 27
0.0
 37
0.0
 40
1357.434192
 41
0.013081
 42
50.0
 43
701.839477
 44
-701.839477
 50
0.0
 51
0.0
 71
     0
 72
   100
 73
     1
 74
     3
 75
     0
 76
     0
 77
     0
 78
     0
281
     0
 65
     1
110
0.0
120
0.0
130
0.0
111
1.0
121
0.0
131
0.0
112
0.0
122
1.0
132
0.0
 79
     0
146
0.0
  0
VPORT
  5
1A2
330
8
100
AcDbSymbolTableRecord
100
AcDbViewportTableRecord
  2
L6
 70
     0
 10
0.0
 20
0.0
 11
0.333333
 21
0.5
 12
0.0
 22
0.0
 13
0.0
 23
0.0
 14
0.5
 24
0.5
 15
0.5
 25
0.5
 16
-1.0
 26
0.0
 36
0.0
 17
0.0
 27
0.0
 37
0.0
 40
1319.822715
 41
0.013454
 42
50.0
 43
672.020833
 44
-672.020833
 50
0.0
 51
0.0
 71
     0
 72
   100
 73
     1
 74
     3
 75
     0
 76
     0
 77
     0
 78
     0
281
     0
 65
     1
110
0.0
120
0.0
130
0.0
111
1.0
121
0.0
131
0.0
112
0.0
122
1.0
132
0.0
 79
     0
146
0.0
  0
VPORT
  5
1A3
330
8
100
AcDbSymbolTableRecord
100
AcDbViewportTableRecord
  2
L6
 70
     0
 10
0.333333
 20
0.5
 11
0.666667
 21
1.0
 12
267.757405
 22
148.5
 13
0.0
 23
0.0
 14
0.5
 24
0.5
 15
0.5
 25
0.5
 16
0.0
 26
0.0
 36
1.0
 17
0.0
 27
0.0
 37
0.0
 40
254.0
 41
0.069908
 42
50.0
 43
964.613032
 44
-964.613032
 50
0.0
 51
0.0
 71
     0
 72
   100
 73
     1
 74
     3
 75
     0
 76
     0
 77
     0
 78
     0
281
     0
 65
     1
110
0.0
120
0.0
130
0.0
111
1.0
121
0.0
131
0.0
112
0.0
122
1.0
132
0.0
 79
     0
146
0.0
  0
VPORT
  5
1A4
330
8
100
AcDbSymbolTableRecord
100
AcDbViewportTableRecord
  2
L6
 70
     0
 10
0.333333
 20
0.0
 11
0.666667
 21
0.5
 12
0.0
 22
0.0
 13
0.0
 23
0.0
 14
0.5
 24
0.5
 15
0.5
 25
0.5
 16
0.0
 26
-1.0
 36
0.0
 17
0.0
 27
0.0
 37
0.0
 40
1319.822715
 41
0.013454
 42
50.0
 43
672.020833
 44
-672.020833
 50
0.0
 51
0.0
 71
     0
 72
   100
 73
     1
 74
     3
 75
     0
 76
     0
 77
     0
 78
     0
281
     0
 65
     1
110
0.0
120
0.0
130
0.0
111
1.0
121
0.0
131
0.0
112
0.0
122
1.0
132
0.0
 79
     0
146
0.0
  0
VPORT
  5
1A5
330
8
100
AcDbSymbolTableRecord
100
AcDbViewportTableRecord
  2
L6
 70
     0
 10
0.666667
 20
0.5
 11
1.0
 21
1.0
 12
0.0
 22
0.0
 13
0.0
 23
0.0
 14
0.5
 24
0.5
 15
0.5
 25
0.5
 16
0.5773502691896258
 26
-0.5773502691896258
 36
0.5773502691896258
 17
0.0
 27
0.0
 37
0.0
 40
1285.020866
 41
0.013818
 42
50.0
 43
667.141407
 44
-667.141407
 50
0.0
 51
0.0
 71
     0
 72
   100
 73
     1
 74
     3
 75
     0
 76
     0
 77
     0
 78
     0
281
     0
 65
     1
110
0.0
120
0.0
130
0.0
111
1.0
121
0.0
131
0.0
112
0.0
122
1.0
132
0.0
 79
     0
146
0.0
  0
VPORT
  5
1A6
330
8
100
AcDbSymbolTableRecord
100
AcDbViewportTableRecord
  2
L6
 70
     0
 10
0.666667
 20
0.0
 11
1.0
 21
0.5
 12
0.0
 22
0.0
 13
0.0
 23
0.0
 14
0.5
 24
0.5
 15
0.5
 25
0.5
 16
1.0
 26
0.0
 36
0.0
 17
0.0
 27
0.0
 37
0.0
 40
1319.822715
 41
0.013454
 42
50.0
 43
672.020833
 44
-672.020833
 50
0.0
 51
0.0
 71
     0
 72
   100
 73
     1
 74
     3
 75
     0
 76
     0
 77
     0
 78
     0
281
     0
 65
     1
110
0.0
120
0.0
130
0.0
111
1.0
121
0.0
131
0.0
112
0.0
122
1.0
132
0.0
 79
     0
146
0.0
  0
ENDTAB
  0
TABLE
  2
LTYPE
  5
5
330
0
100
AcDbSymbolTable
 70
     6
  0
LTYPE
  5
14
330
5
100
AcDbSymbolTableRecord
100
AcDbLinetypeTableRecord
  2
ByBlock
 70
     0
  3

 72
    65
 73
     0
 40
0.0
  0
LTYPE
  5
15
330
5
100
AcDbSymbolTableRecord
100
AcDbLinetypeTableRecord
  2
ByLayer
 70
     0
  3

 72
    65
 73
     0
 40
0.0
  0
LTYPE
  5
16
330
5
100
AcDbSymbolTableRecord
100
AcDbLinetypeTableRecord
  2
Continuous
 70
     0
  3
Solid line
 72
    65
 73
     0
 40
0.0
  0
LTYPE
  5
6A
330
5
100
AcDbSymbolTableRecord
100
AcDbLinetypeTableRecord
  2
CENTER
 70
     0
  3
____ _ ____ _ ____ _ ____
 72
    65
 73
     4
 40
47.4
 49
22.0
 74
     4
 75
     0
340
0
 46
0.0
 50
0.0
 44
0.0
 45
0.0
 49
-8.5
 74
     4
 75
     0
340
0
 46
0.0
 50
0.0
 44
0.0
 45
0.0
 49
8.5
 74
     4
 75
     0
340
0
 46
0.0
 50
0.0
 44
0.0
 45
0.0
 49
-8.5
 74
     4
 75
     0
340
0
 46
0.0
 50
0.0
 44
0.0
 45
0.0
  0
LTYPE
  5
6B
330
5
100
AcDbSymbolTableRecord
100
AcDbLinetypeTableRecord
  2
DASHDOT
 70
     0
  3
_._._._._._._._._._._._._._._._.
 72
    65
 73
     4
 40
70.0
 49
31.0
 74
     4
 75
     0
340
0
 46
0.0
 50
0.0
 44
0.0
 45
0.0
 49
-13.0
 74
     4
 75
     0
340
0
 46
0.0
 50
0.0
 44
0.0
 45
0.0
 49
13.0
 74
     4
 75
     0
340
0
 46
0.0
 50
0.0
 44
0.0
 45
0.0
 49
-13.0
 74
     4
 75
     0
340
0
 46
0.0
 50
0.0
 44
0.0
 45
0.0
  0
LTYPE
  5
6C
330
5
100
AcDbSymbolTableRecord
100
AcDbLinetypeTableRecord
  2
DASHED
 70
     0
  3
__ __ __ __ __ __ __ __ __
 72
    65
 73
     2
 40
25.72
 49
12.86
 74
     4
 75
     0
340
0
 46
0.0
 50
0.0
 44
0.0
 45
0.0
 49
-12.86
 74
     4
 75
     0
340
0
 46
0.0
 50
0.0
 44
0.0
 45
0.0
  0
LTYPE
  5
6D
330
5
100
AcDbSymbolTableRecord
100
AcDbLinetypeTableRecord
  2
DOT
 70
     0
  3
.........................
 72
    65
 73
     2
 40
10.0
 49
0.0
 74
     4
 75
     0
340
0
 46
0.0
 50
0.0
 44
0.0
 45
0.0
 49
-10.0
 74
     4
 75
     0
340
0
 46
0.0
 50
0.0
 44
0.0
 45
0.0
  0
LTYPE
  5
6E
330
5
100
AcDbSymbolTableRecord
100
AcDbLinetypeTableRecord
  2
PHANTOM
 70
     0
  3
____ _ _ ____ _ _ _____ _ _ ____
 72
    65
 73
     6
 40
50.5
 49
18.0
 74
     4
 75
     0
340
0
 46
0.0
 50
0.0
 44
0.0
 45
0.0
 49
-6.5
 74
     4
 75
     0
340
0
 46
0.0
 50
0.0
 44
0.0
 45
0.0
 49
6.5
 74
     4
 75
     0
340
0
 46
0.0
 50
0.0
 44
0.0
 45
0.0
 49
-6.5
 74
     4
 75
     0
340
0
 46
0.0
 50
0.0
 44
0.0
 45
0.0
 49
6.5
 74
     4
 75
     0
340
0
 46
0.0
 50
0.0
 44
0.0
 45
0.0
 49
-6.5
 74
     4
 75
     0
340
0
 46
0.0
 50
0.0
 44
0.0
 45
0.0
  0
ENDTAB
  0
TABLE
  2
LAYER
  5
2
330
0
100
AcDbSymbolTable
 70
     4
  0
LAYER
  5
10
330
2
100
AcDbSymbolTableRecord
100
AcDbLayerTableRecord
  2
0
 70
     0
 62
     7
  6
Continuous
370
    -3
390
F
  0
LAYER
  5
70
330
2
100
AcDbSymbolTableRecord
100
AcDbLayerTableRecord
  2
1
 70
     0
 62
     7
420
 16777215
  6
Continuous
370
    -3
390
F
  0
LAYER
  5
79
330
2
100
AcDbSymbolTableRecord
100
AcDbLayerTableRecord
  2
256
 70
     0
 62
     7
420
 16777215
  6
Continuous
370
    -3
390
F
  0
LAYER
  5
85
330
2
100
AcDbSymbolTableRecord
100
AcDbLayerTableRecord
  2
255
 70
     0
 62
     7
420
 16777215
  6
Continuous
370
    -3
390
F
  0
ENDTAB
  0
TABLE
  2
STYLE
  5
3
330
0
100
AcDbSymbolTable
 70
     4
  0
STYLE
  5
11
330
3
100
AcDbSymbolTableRecord
100
AcDbTextStyleTableRecord
  2
Standard
 70
     0
 40
0.0
 41
1.0
 50
0.0
 71
     0
 42
0.2
  3
txt
  4

  0
STYLE
  5
11D
330
3
100
AcDbSymbolTableRecord
100
AcDbTextStyleTableRecord
  2
ISOCPEUR
 70
     0
 40
0.0
 41
1.0
 50
0.0
 71
     0
 42
0.2
  3
ISOCPEUR
  4

1001
ACAD
1000
ISOCPEUR
1071
        0
  0
STYLE
  5
137
330
3
100
AcDbSymbolTableRecord
100
AcDbTextStyleTableRecord
  2
ideas_iso
 70
     0
 40
0.0
 41
1.0
 50
0.0
 71
     0
 42
0.2
  3
simplex.shx
  4

  0
STYLE
  5
138
330
3
100
AcDbSymbolTableRecord
100
AcDbTextStyleTableRecord
  2
DWGDirectTextStyle
 70
     0
 40
0.0
 41
1.0
 50
0.0
 71
     0
 42
0.2
  3
simplex
  4

  0
ENDTAB
  0
TABLE
  2
VIEW
  5
6
330
0
100
AcDbSymbolTable
 70
     8
  0
VIEW
  5
18B
330
6
100
AcDbSymbolTableRecord
100
AcDbViewTableRecord
  2
Top
 70
     0
 40
254.0
 10
267.757405
 20
148.5
 41
254.0
 11
0.0
 21
0.0
 31
1.0
 12
0.0
 22
0.0
 32
0.0
 42
50.0
 43
964.613032
 44
-964.613032
 50
0.0
 71
     0
281
     0
 72
     0
  0
VIEW
  5
18C
330
6
100
AcDbSymbolTableRecord
100
AcDbViewTableRecord
  2
Front
 70
     0
 40
1319.822715
 10
0.0
 20
0.0
 41
254.0
 11
0.0
 21
-1.0
 31
0.0
 12
0.0
 22
0.0
 32
0.0
 42
50.0
 43
672.020833
 44
-672.020833
 50
0.0
 71
     0
281
     0
 72
     0
  0
VIEW
  5
18D
330
6
100
AcDbSymbolTableRecord
100
AcDbViewTableRecord
  2
Right
 70
     0
 40
1319.822715
 10
0.0
 20
0.0
 41
254.0
 11
1.0
 21
0.0
 31
0.0
 12
0.0
 22
0.0
 32
0.0
 42
50.0
 43
672.020833
 44
-672.020833
 50
0.0
 71
     0
281
     0
 72
     0
  0
VIEW
  5
18E
330
6
100
AcDbSymbolTableRecord
100
AcDbViewTableRecord
  2
Back
 70
     0
 40
1319.822715
 10
0.0
 20
0.0
 41
254.0
 11
0.0
 21
1.0
 31
0.0
 12
0.0
 22
0.0
 32
0.0
 42
50.0
 43
672.020833
 44
-672.020833
 50
0.0
 71
     0
281
     0
 72
     0
  0
VIEW
  5
18F
330
6
100
AcDbSymbolTableRecord
100
AcDbViewTableRecord
  2
Bottom
 70
     0
 40
254.0
 10
0.0
 20
0.0
 41
254.0
 11
0.0
 21
0.0
 31
-1.0
 12
0.0
 22
0.0
 32
0.0
 42
50.0
 43
659.911358
 44
-659.911358
 50
180.0
 71
     0
281
     0
 72
     0
  0
VIEW
  5
190
330
6
100
AcDbSymbolTableRecord
100
AcDbViewTableRecord
  2
Left
 70
     0
 40
1319.822715
 10
0.0
 20
0.0
 41
254.0
 11
-1.0
 21
0.0
 31
0.0
 12
0.0
 22
0.0
 32
0.0
 42
50.0
 43
672.020833
 44
-672.020833
 50
0.0
 71
     0
281
     0
 72
     0
  0
VIEW
  5
191
330
6
100
AcDbSymbolTableRecord
100
AcDbViewTableRecord
  2
Isometric
 70
     0
 40
1285.020866
 10
0.0
 20
0.0
 41
359.210245
 11
0.5773502691896258
 21
-0.5773502691896258
 31
0.5773502691896258
 12
0.0
 22
0.0
 32
0.0
 42
50.0
 43
667.141407
 44
-667.141407
 50
0.0
 71
     0
281
     0
 72
     0
  0
VIEW
  5
192
330
6
100
AcDbSymbolTableRecord
100
AcDbViewTableRecord
  2
Trimetric
 70
     0
 40
1357.434192
 10
0.0
 20
0.0
 41
357.33321
 11
0.7188730927569433
 21
-0.5850486126764433
 31
0.3754192287502549
 12
0.0
 22
0.0
 32
0.0
 42
50.0
 43
701.839477
 44
-701.839477
 50
0.0
 71
     0
281
     0
 72
     0
  0
ENDTAB
  0
TABLE
  2
UCS
  5
7
330
0
100
AcDbSymbolTable
 70
     0
  0
ENDTAB
  0
TABLE
  2
APPID
  5
9
330
0
100
AcDbSymbolTable
 70
     1
  0
APPID
  5
12
330
9
100
AcDbSymbolTableRecord
100
AcDbRegAppTableRecord
  2
ACAD
 70
     0
  0
ENDTAB
  0
TABLE
  2
DIMSTYLE
  5
A
330
0
100
AcDbSymbolTable
 70
     1
100
AcDbDimStyleTable
  0
DIMSTYLE
105
27
330
A
100
AcDbSymbolTableRecord
100
AcDbDimStyleTableRecord
  2
Standard
 70
     0
178
     0
340
11
  0
ENDTAB
  0
TABLE
  2
BLOCK_RECORD
  5
1
330
0
100
AcDbSymbolTable
 70
     8
  0
BLOCK_RECORD
  5
1F
330
1
100
AcDbSymbolTableRecord
100
AcDbBlockTableRecord
  2
*Model_Space
340
22
  0
BLOCK_RECORD
  5
1B
330
1
100
AcDbSymbolTableRecord
100
AcDbBlockTableRecord
  2
*Paper_Space
340
1E
  0
BLOCK_RECORD
  5
23
330
1
100
AcDbSymbolTableRecord
100
AcDbBlockTableRecord
  2
*Paper_Space0
340
26
  0
BLOCK_RECORD
  5
117
330
1
100
AcDbSymbolTableRecord
100
AcDbBlockTableRecord
  2
LABLE3D_1
340
0
102
{BLKREFS
331
11E
102
}
  0
BLOCK_RECORD
  5
118
330
1
100
AcDbSymbolTableRecord
100
AcDbBlockTableRecord
  2
_NONE
340
0
  0
BLOCK_RECORD
  5
159
330
1
100
AcDbSymbolTableRecord
100
AcDbBlockTableRecord
  2
_U0
340
0
102
{BLKREFS
331
160
102
}
  0
BLOCK_RECORD
  5
163
330
1
100
AcDbSymbolTableRecord
100
AcDbBlockTableRecord
  2
_U1
340
0
102
{BLKREFS
331
16A
102
}
  0
BLOCK_RECORD
  5
16D
330
1
100
AcDbSymbolTableRecord
100
AcDbBlockTableRecord
  2
_U2
340
0
102
{BLKREFS
331
174
102
}
  0
BLOCK_RECORD
  5
177
330
1
100
AcDbSymbolTableRecord
100
AcDbBlockTableRecord
  2
_U3
340
0
102
{BLKREFS
331
17E
102
}
  0
BLOCK_RECORD
  5
181
330
1
100
AcDbSymbolTableRecord
100
AcDbBlockTableRecord
  2
_U4
340
0
102
{BLKREFS
331
188
102
}
  0
ENDTAB
  0
ENDSEC
  0
SECTION
  2
BLOCKS
  0
BLOCK
  5
20
330
1F
100
AcDbEntity
  8
0
100
AcDbBlockBegin
  2
*Model_Space
 70
     0
 10
0.0
 20
0.0
 30
0.0
  3
*Model_Space
  1
*Model_Space
  0
ENDBLK
  5
21
330
1F
100
AcDbEntity
  8
0
100
AcDbBlockEnd
  0
BLOCK
  5
1C
330
1B
100
AcDbEntity
 67
     1
  8
0
100
AcDbBlockBegin
  2
*Paper_Space
 70
     0
 10
0.0
 20
0.0
 30
0.0
  3
*Paper_Space
  1
*Paper_Space
  0
ENDBLK
  5
1D
330
1B
100
AcDbEntity
 67
     1
  8
0
100
AcDbBlockEnd
  0
BLOCK
  5
24
330
23
100
AcDbEntity
  8
0
100
AcDbBlockBegin
  2
*Paper_Space0
 70
     0
 10
0.0
 20
0.0
 30
0.0
  3
*Paper_Space0
  1
*Paper_Space0
  0
ENDBLK
  5
25
330
23
100
AcDbEntity
  8
0
100
AcDbBlockEnd
  0
BLOCK
  5
11F
330
117
100
AcDbEntity
  8
0
100
AcDbBlockBegin
  2
LABLE3D_1
 70
     0
 10
0.0
 20
0.0
 30
0.0
  3
LABLE3D_1
  1
LABLE3D_1
  0
MTEXT
  5
11C
330
117
100
AcDbEntity
  8
1
  6
Continuous
 62
    35
370
    18
100
AcDbMText
 10
136.664449
 20
205.611856
 30
0.0
 40
3.5
 41
0.0
 71
     7
 72
     5
  1
\W1.0000;fuer M5
  7
ISOCPEUR
 73
     2
 44
0.85889
  0
ENDBLK
  5
120
330
117
100
AcDbEntity
  8
0
100
AcDbBlockEnd
  0
BLOCK
  5
119
330
118
100
AcDbEntity
  8
0
100
AcDbBlockBegin
  2
_NONE
 70
     0
 10
0.0
 20
0.0
 30
0.0
  3
_NONE
  1
_NONE
  0
ENDBLK
  5
11A
330
118
100
AcDbEntity
  8
0
100
AcDbBlockEnd
  0
BLOCK
  5
161
330
159
100
AcDbEntity
  8
0
100
AcDbBlockBegin
  2
_U0
 70
     0
 10
0.0
 20
0.0
 30
0.0
  3
_U0
  1
_U0
  0
MTEXT
  5
15A
330
159
100
AcDbEntity
  8
1
  6
Continuous
 62
    35
370
    13
100
AcDbMText
 10
111.067013
 20
146.951732
 30
0.0
 40
3.5
 41
0.0
 71
     7
 72
     5
  1
\W1.0000;62
  7
ISOCPEUR
 73
     2
 44
1.115371
  0
LINE
  5
15B
330
159
100
AcDbEntity
  8
1
 62
    35
370
    13
100
AcDbLine
 10
143.467013
 20
175.251539
 30
0.0
 11
143.467013
 21
145.251539
 31
0.0
  0
LINE
  5
15C
330
159
100
AcDbEntity
  8
1
 62
    35
370
    13
100
AcDbLine
 10
81.467013
 20
175.251539
 30
0.0
 11
81.467013
 21
145.251539
 31
0.0
  0
LINE
  5
15D
330
159
100
AcDbEntity
  8
1
 62
    35
370
    13
100
AcDbLine
 10
143.467013
 20
146.251539
 30
0.0
 11
81.467013
 21
146.251539
 31
0.0
  0
SOLID
  5
15E
330
159
100
AcDbEntity
  8
1
 62
    35
370
    18
100
AcDbTrace
 10
143.467013
 20
146.251539
 30
0.0
 11
135.467017
 21
145.198319
 31
0.0
 12
135.467009
 22
147.304759
 32
0.0
 13
143.467013
 23
146.251539
 33
0.0
  0
SOLID
  5
15F
330
159
100
AcDbEntity
  8
1
 62
    35
370
    18
100
AcDbTrace
 10
81.467013
 20
146.251539
 30
0.0
 11
89.467009
 21
147.304759
 31
0.0
 12
89.467017
 22
145.198319
 32
0.0
 13
81.467013
 23
146.251539
 33
0.0
  0
ENDBLK
  5
162
330
159
100
AcDbEntity
  8
0
100
AcDbBlockEnd
  0
BLOCK
  5
16B
330
163
100
AcDbEntity
  8
0
100
AcDbBlockBegin
  2
_U1
 70
     0
 10
0.0
 20
0.0
 30
0.0
  3
_U1
  1
_U1
  0
MTEXT
  5
164
330
163
100
AcDbEntity
  8
1
  6
Continuous
 62
    35
370
    13
100
AcDbMText
 10
155.766821
 20
185.676539
 30
0.0
 40
3.5
 41
0.0
 71
     7
 72
     5
  1
\W1.0000;24
  7
ISOCPEUR
 11
6.123233995736766E-17
 21
1.0
 31
0.0
 73
     2
 44
1.115371
  0
LINE
  5
165
330
163
100
AcDbEntity
  8
1
 62
    35
370
    13
100
AcDbLine
 10
143.467013
 20
175.251539
 30
0.0
 11
157.467013
 21
175.251539
 31
0.0
  0
LINE
  5
166
330
163
100
AcDbEntity
  8
1
 62
    35
370
    13
100
AcDbLine
 10
143.467013
 20
199.251539
 30
0.0
 11
157.467013
 21
199.251539
 31
0.0
  0
LINE
  5
167
330
163
100
AcDbEntity
  8
1
 62
    35
370
    13
100
AcDbLine
 10
156.467013
 20
175.251539
 30
0.0
 11
156.467013
 21
199.251539
 31
0.0
  0
SOLID
  5
168
330
163
100
AcDbEntity
  8
1
 62
    35
370
    18
100
AcDbTrace
 10
156.467013
 20
175.251539
 30
0.0
 11
155.413793
 21
183.251535
 31
0.0
 12
157.520233
 22
183.251543
 32
0.0
 13
156.467013
 23
175.251539
 33
0.0
  0
SOLID
  5
169
330
163
100
AcDbEntity
  8
1
 62
    35
370
    18
100
AcDbTrace
 10
156.467013
 20
199.251539
 30
0.0
 11
157.520233
 21
191.251543
 31
0.0
 12
155.413793
 22
191.251535
 32
0.0
 13
156.467013
 23
199.251539
 33
0.0
  0
ENDBLK
  5
16C
330
163
100
AcDbEntity
  8
0
100
AcDbBlockEnd
  0
BLOCK
  5
175
330
16D
100
AcDbEntity
  8
0
100
AcDbBlockBegin
  2
_U2
 70
     0
 10
0.0
 20
0.0
 30
0.0
  3
_U2
  1
_U2
  0
MTEXT
  5
16E
330
16D
100
AcDbEntity
  8
1
  6
Continuous
 62
    35
370
    13
100
AcDbMText
 10
65.766821
 20
158.822014
 30
0.0
 40
3.5
 41
0.0
 71
     7
 72
     5
  1
\W1.0000;3.5
  7
ISOCPEUR
 11
6.123233995736766E-17
 21
1.0
 31
0.0
 73
     2
 44
1.115371
  0
LINE
  5
16F
330
16D
100
AcDbEntity
  8
1
 62
    35
370
    13
100
AcDbLine
 10
105.467013
 20
178.751539
 30
0.0
 11
65.467013
 21
178.751539
 31
0.0
  0
LINE
  5
170
330
16D
100
AcDbEntity
  8
1
 62
    35
370
    13
100
AcDbLine
 10
81.467013
 20
175.251539
 30
0.0
 11
65.467013
 21
175.251539
 31
0.0
  0
LINE
  5
171
330
16D
100
AcDbEntity
  8
1
 62
    35
370
    13
100
AcDbLine
 10
66.467013
 20
157.947014
 30
0.0
 11
66.467013
 21
189.251539
 31
0.0
  0
SOLID
  5
172
330
16D
100
AcDbEntity
  8
1
 62
    35
370
    18
100
AcDbTrace
 10
66.467013
 20
178.751539
 30
0.0
 11
65.413793
 21
186.751535
 31
0.0
 12
67.520233
 22
186.751543
 32
0.0
 13
66.467013
 23
178.751539
 33
0.0
  0
SOLID
  5
173
330
16D
100
AcDbEntity
  8
1
 62
    35
370
    18
100
AcDbTrace
 10
66.467013
 20
175.251539
 30
0.0
 11
67.520233
 21
167.251543
 31
0.0
 12
65.413793
 22
167.251535
 32
0.0
 13
66.467013
 23
175.251539
 33
0.0
  0
ENDBLK
  5
176
330
16D
100
AcDbEntity
  8
0
100
AcDbBlockEnd
  0
BLOCK
  5
17F
330
177
100
AcDbEntity
  8
0
100
AcDbBlockBegin
  2
_U3
 70
     0
 10
0.0
 20
0.0
 30
0.0
  3
_U3
  1
_U3
  0
MTEXT
  5
178
330
177
100
AcDbEntity
  8
1
  6
Continuous
 62
    35
370
    13
100
AcDbMText
 10
52.766821
 20
163.870417
 30
0.0
 40
3.5
 41
0.0
 71
     7
 72
     5
  1
\W1.0000;15
  7
ISOCPEUR
 11
6.123233995736766E-17
 21
1.0
 31
0.0
 73
     2
 44
1.115371
  0
LINE
  5
179
330
177
100
AcDbEntity
  8
1
 62
    35
370
    13
100
AcDbLine
 10
105.467013
 20
178.751539
 30
0.0
 11
52.467013
 21
178.751539
 31
0.0
  0
LINE
  5
17A
330
177
100
AcDbEntity
  8
1
 62
    35
370
    13
100
AcDbLine
 10
105.467013
 20
194.051539
 30
0.0
 11
52.467013
 21
194.051539
 31
0.0
  0
LINE
  5
17B
330
177
100
AcDbEntity
  8
1
 62
    35
370
    13
100
AcDbLine
 10
53.467013
 20
204.551539
 30
0.0
 11
53.467013
 21
162.995417
 31
0.0
  0
SOLID
  5
17C
330
177
100
AcDbEntity
  8
1
 62
    35
370
    18
100
AcDbTrace
 10
53.467013
 20
178.751539
 30
0.0
 11
54.520233
 21
170.751543
 31
0.0
 12
52.413793
 22
170.751535
 32
0.0
 13
53.467013
 23
178.751539
 33
0.0
  0
SOLID
  5
17D
330
177
100
AcDbEntity
  8
1
 62
    35
370
    18
100
AcDbTrace
 10
53.467013
 20
194.051539
 30
0.0
 11
52.413793
 21
202.051535
 31
0.0
 12
54.520233
 22
202.051543
 32
0.0
 13
53.467013
 23
194.051539
 33
0.0
  0
ENDBLK
  5
180
330
177
100
AcDbEntity
  8
0
100
AcDbBlockEnd
  0
BLOCK
  5
189
330
181
100
AcDbEntity
  8
0
100
AcDbBlockBegin
  2
_U4
 70
     0
 10
0.0
 20
0.0
 30
0.0
  3
_U4
  1
_U4
  0
MTEXT
  5
182
330
181
100
AcDbEntity
  8
1
  6
Continuous
 62
    35
370
    13
100
AcDbMText
 10
111.417013
 20
210.951732
 30
0.0
 40
3.5
 41
0.0
 71
     7
 72
     5
  1
\W1.0000;18
  7
ISOCPEUR
 73
     2
 44
1.115371
  0
LINE
  5
183
330
181
100
AcDbEntity
  8
1
 62
    35
370
    13
100
AcDbLine
 10
121.467013
 20
192.051539
 30
0.0
 11
121.467013
 21
211.251539
 31
0.0
  0
LINE
  5
184
330
181
100
AcDbEntity
  8
1
 62
    35
370
    13
100
AcDbLine
 10
103.467013
 20
192.051539
 30
0.0
 11
103.467013
 21
211.251539
 31
0.0
  0
LINE
  5
185
330
181
100
AcDbEntity
  8
1
 62
    35
370
    13
100
AcDbLine
 10
121.467013
 20
210.251539
 30
0.0
 11
103.467013
 21
210.251539
 31
0.0
  0
SOLID
  5
186
330
181
100
AcDbEntity
  8
1
 62
    35
370
    18
100
AcDbTrace
 10
121.467013
 20
210.251539
 30
0.0
 11
113.467017
 21
209.198319
 31
0.0
 12
113.467009
 22
211.304759
 32
0.0
 13
121.467013
 23
210.251539
 33
0.0
  0
SOLID
  5
187
330
181
100
AcDbEntity
  8
1
 62
    35
370
    18
100
AcDbTrace
 10
103.467013
 20
210.251539
 30
0.0
 11
111.467009
 21
211.304759
 31
0.0
 12
111.467017
 22
209.198319
 32
0.0
 13
103.467013
 23
210.251539
 33
0.0
  0
ENDBLK
  5
18A
330
181
100
AcDbEntity
  8
0
100
AcDbBlockEnd
  0
ENDSEC
  0
SECTION
  2
ENTITIES
  0
LINE
  5
6F
330
1F
100
AcDbEntity
  8
1
  6
Continuous
 62
   155
370
    25
100
AcDbLine
 10
143.467013
 20
199.251539
 30
0.0
 11
143.467013
 21
175.251539
 31
0.0
  0
LINE
  5
71
330
1F
100
AcDbEntity
  8
1
  6
Continuous
 62
   155
370
    25
100
AcDbLine
 10
103.467013
 20
180.751539
 30
0.0
 11
103.467013
 21
192.051539
 31
0.0
  0
LINE
  5
72
330
1F
100
AcDbEntity
  8
1
  6
Continuous
 62
   155
370
    25
100
AcDbLine
 10
119.467013
 20
178.751539
 30
0.0
 11
105.467013
 21
178.751539
 31
0.0
  0
LINE
  5
73
330
1F
100
AcDbEntity
  8
1
  6
Continuous
 62
   155
370
    25
100
AcDbLine
 10
121.467013
 20
192.051539
 30
0.0
 11
121.467013
 21
180.751539
 31
0.0
  0
LINE
  5
74
330
1F
100
AcDbEntity
  8
1
  6
Continuous
 62
   155
370
    25
100
AcDbLine
 10
105.467013
 20
194.051539
 30
0.0
 11
119.467013
 21
194.051539
 31
0.0
  0
LINE
  5
75
330
1F
100
AcDbEntity
  8
1
  6
Continuous
 62
   155
370
    25
100
AcDbLine
 10
143.467013
 20
175.251539
 30
0.0
 11
81.467013
 21
175.251539
 31
0.0
  0
LINE
  5
76
330
1F
100
AcDbEntity
  8
1
  6
Continuous
 62
   155
370
    25
100
AcDbLine
 10
81.467013
 20
175.251539
 30
0.0
 11
81.467013
 21
199.251539
 31
0.0
  0
LINE
  5
77
330
1F
100
AcDbEntity
  8
1
  6
Continuous
 62
   155
370
    25
100
AcDbLine
 10
81.467013
 20
199.251539
 30
0.0
 11
143.467013
 21
199.251539
 31
0.0
  0
LINE
  5
78
102
{ACAD_REACTORS
330
195
102
}
330
1F
100
AcDbEntity
  8
256
  6
Continuous
 62
     2
370
    13
100
AcDbLine
 10
106.914809
 20
24.5
 30
0.0
 11
205.0
 21
24.5
 31
0.0
  0
LINE
  5
7A
102
{ACAD_REACTORS
330
195
102
}
330
1F
100
AcDbEntity
  8
256
  6
Continuous
 62
     2
370
    18
100
AcDbLine
 10
65.932916
 20
5.054708
 30
0.0
 11
65.932916
 21
30.530208
 31
0.0
  0
LINE
  5
7B
102
{ACAD_REACTORS
330
195
102
}
330
1F
100
AcDbEntity
  8
256
  6
Continuous
 62
     2
370
    13
100
AcDbLine
 10
20.0
 20
24.5
 30
0.0
 11
106.914809
 21
24.5
 31
0.0
  0
LINE
  5
7C
102
{ACAD_REACTORS
330
195
102
}
330
1F
100
AcDbEntity
  8
256
  6
Continuous
 62
     2
370
    18
100
AcDbLine
 10
138.3325
 20
18.5
 30
0.0
 11
138.3325
 21
30.4755
 31
0.0
  0
LINE
  5
7D
102
{ACAD_REACTORS
330
195
102
}
330
1F
100
AcDbEntity
  8
256
  6
Continuous
 62
     2
370
    18
100
AcDbLine
 10
138.3325
 20
5.0
 30
0.0
 11
138.3325
 21
18.5
 31
0.0
  0
LINE
  5
7E
102
{ACAD_REACTORS
330
195
102
}
330
1F
100
AcDbEntity
  8
256
  6
Continuous
 62
   140
370
    18
100
AcDbLine
 10
209.9
 20
296.9
 30
0.0
 11
0.1
 21
296.9
 31
0.0
  0
LINE
  5
7F
102
{ACAD_REACTORS
330
195
102
}
330
1F
100
AcDbEntity
  8
256
  6
Continuous
 62
   140
370
    18
100
AcDbLine
 10
0.1
 20
296.9
 30
0.0
 11
0.1
 21
0.1
 31
0.0
  0
LINE
  5
80
102
{ACAD_REACTORS
330
195
102
}
330
1F
100
AcDbEntity
  8
256
  6
Continuous
 62
     2
370
    25
100
AcDbLine
 10
20.0
 20
5.0
 30
0.0
 11
20.0
 21
30.4755
 31
0.0
  0
LINE
  5
81
102
{ACAD_REACTORS
330
195
102
}
330
1F
100
AcDbEntity
  8
256
  6
Continuous
 62
     2
370
    25
100
AcDbLine
 10
20.0
 20
30.4755
 30
0.0
 11
205.0
 21
30.4755
 31
0.0
  0
LINE
  5
82
102
{ACAD_REACTORS
330
195
102
}
330
1F
100
AcDbEntity
  8
256
  6
Continuous
 62
     2
370
    13
100
AcDbLine
 10
138.322529
 20
14.00233
 30
0.0
 11
205.0
 21
14.0
 31
0.0
  0
LINE
  5
83
102
{ACAD_REACTORS
330
195
102
}
330
1F
100
AcDbEntity
  8
256
  6
Continuous
 62
     2
370
    13
100
AcDbLine
 10
173.356458
 20
18.5
 30
0.0
 11
173.356458
 21
14.0
 31
0.0
  0
LINE
  5
84
102
{ACAD_REACTORS
330
195
102
}
330
1F
100
AcDbEntity
  8
255
  6
Continuous
 62
   163
370
    13
100
AcDbLine
 10
205.0
 20
130.4755
 30
0.0
 11
205.0
 21
120.4755
 31
0.0
  0
LINE
  5
86
102
{ACAD_REACTORS
330
195
102
}
330
1F
100
AcDbEntity
  8
255
  6
Continuous
 62
   163
370
    13
100
AcDbLine
 10
205.0
 20
30.4755
 30
0.0
 11
205.0
 21
20.4755
 31
0.0
  0
LINE
  5
87
102
{ACAD_REACTORS
330
195
102
}
330
1F
100
AcDbEntity
  8
255
  6
Continuous
 62
   163
370
    13
100
AcDbLine
 10
205.0
 20
45.4755
 30
0.0
 11
205.0
 21
35.4755
 31
0.0
  0
LINE
  5
88
102
{ACAD_REACTORS
330
195
102
}
330
1F
100
AcDbEntity
  8
255
  6
Continuous
 62
   163
370
    13
100
AcDbLine
 10
205.0
 20
130.4755
 30
0.0
 11
205.0
 21
120.4755
 31
0.0
  0
LINE
  5
89
102
{ACAD_REACTORS
330
195
102
}
330
1F
100
AcDbEntity
  8
256
  6
Continuous
 62
     2
370
    18
100
AcDbLine
 10
20.0
 20
18.5
 30
0.0
 11
65.932916
 21
18.5
 31
0.0
  0
LINE
  5
8A
102
{ACAD_REACTORS
330
195
102
}
330
1F
100
AcDbEntity
  8
256
  6
Continuous
 62
     2
370
    13
100
AcDbLine
 10
138.3325
 20
18.5
 30
0.0
 11
205.0
 21
18.5
 31
0.0
  0
LINE
  5
8B
102
{ACAD_REACTORS
330
195
102
}
330
1F
100
AcDbEntity
  8
256
  6
Continuous
 62
     2
370
    13
100
AcDbLine
 10
106.914809
 20
24.5
 30
0.0
 11
106.914809
 21
30.4755
 31
0.0
  0
LINE
  5
8C
102
{ACAD_REACTORS
330
195
102
}
330
1F
100
AcDbEntity
  8
256
  6
Continuous
 62
     2
370
    25
100
AcDbLine
 10
205.0
 20
148.5
 30
0.0
 11
209.9
 21
148.5
 31
0.0
  0
LINE
  5
8D
102
{ACAD_REACTORS
330
195
102
}
330
1F
100
AcDbEntity
  8
256
  6
Continuous
 62
     2
370
    25
100
AcDbLine
 10
205.0
 20
292.0
 30
0.0
 11
20.0
 21
292.0
 31
0.0
  0
LINE
  5
8E
102
{ACAD_REACTORS
330
195
102
}
330
1F
100
AcDbEntity
  8
256
  6
Continuous
 62
   140
370
    18
100
AcDbLine
 10
0.1
 20
0.1
 30
0.0
 11
209.9
 21
0.1
 31
0.0
  0
LINE
  5
8F
102
{ACAD_REACTORS
330
195
102
}
330
1F
100
AcDbEntity
  8
256
  6
Continuous
 62
     2
370
    25
100
AcDbLine
 10
105.0
 20
292.0
 30
0.0
 11
105.0
 21
296.9
 31
0.0
  0
LINE
  5
90
102
{ACAD_REACTORS
330
195
102
}
330
1F
100
AcDbEntity
  8
256
  6
Continuous
 62
     2
370
    25
100
AcDbLine
 10
205.0
 20
5.0
 30
0.0
 11
205.0
 21
292.0
 31
0.0
  0
LINE
  5
91
102
{ACAD_REACTORS
330
195
102
}
330
1F
100
AcDbEntity
  8
256
  6
Continuous
 62
     2
370
    25
100
AcDbLine
 10
105.0
 20
0.1
 30
0.0
 11
105.0
 21
5.0
 31
0.0
  0
LINE
  5
92
102
{ACAD_REACTORS
330
195
102
}
330
1F
100
AcDbEntity
  8
256
  6
Continuous
 62
   140
370
    18
100
AcDbLine
 10
209.9
 20
0.1
 30
0.0
 11
209.9
 21
296.9
 31
0.0
  0
LINE
  5
93
102
{ACAD_REACTORS
330
195
102
}
330
1F
100
AcDbEntity
  8
256
  6
Continuous
 62
     2
370
    25
100
AcDbLine
 10
20.0
 20
5.0
 30
0.0
 11
205.0
 21
5.0
 31
0.0
  0
LINE
  5
94
102
{ACAD_REACTORS
330
195
102
}
330
1F
100
AcDbEntity
  8
256
  6
Continuous
 62
   140
370
    18
100
AcDbLine
 10
20.0
 20
292.0
 30
0.0
 11
20.0
 21
5.0
 31
0.0
  0
LINE
  5
95
102
{ACAD_REACTORS
330
194
102
}
330
1F
100
AcDbEntity
  8
1
  6
Continuous
 62
    35
370
    13
100
AcDbLine
 10
133.467013
 20
159.251539
 30
0.0
 11
91.467013
 21
159.251539
 31
0.0
  0
LINE
  5
96
102
{ACAD_REACTORS
330
194
102
}
330
1F
100
AcDbEntity
  8
1
  6
Continuous
 62
    35
370
    13
100
AcDbLine
 10
91.467013
 20
179.251539
 30
0.0
 11
91.467013
 21
158.251539
 31
0.0
  0
LINE
  5
97
102
{ACAD_REACTORS
330
194
102
}
330
1F
100
AcDbEntity
  8
1
  6
Continuous
 62
    35
370
    13
100
AcDbLine
 10
133.467013
 20
179.251539
 30
0.0
 11
133.467013
 21
158.251539
 31
0.0
  0
LINE
  5
98
330
1F
100
AcDbEntity
  8
1
  6
Continuous
 62
    35
 60
     1
370
    18
100
AcDbLine
 10
91.467013
 20
159.251539
 30
0.0
 11
99.467009
 21
160.304759
 31
0.0
  0
LINE
  5
99
330
1F
100
AcDbEntity
  8
1
  6
Continuous
 62
    35
 60
     1
370
    18
100
AcDbLine
 10
99.467009
 20
160.304759
 30
0.0
 11
99.467017
 21
158.198319
 31
0.0
  0
LINE
  5
9A
330
1F
100
AcDbEntity
  8
1
  6
Continuous
 62
    35
 60
     1
370
    18
100
AcDbLine
 10
99.467017
 20
158.198319
 30
0.0
 11
91.467013
 21
159.251539
 31
0.0
  0
LINE
  5
9B
330
1F
100
AcDbEntity
  8
1
  6
Continuous
 62
    35
 60
     1
370
    18
100
AcDbLine
 10
133.467013
 20
159.251539
 30
0.0
 11
125.467017
 21
158.198319
 31
0.0
  0
LINE
  5
9C
330
1F
100
AcDbEntity
  8
1
  6
Continuous
 62
    35
 60
     1
370
    18
100
AcDbLine
 10
125.467017
 20
158.198319
 30
0.0
 11
125.467009
 21
160.304759
 31
0.0
  0
LINE
  5
9D
330
1F
100
AcDbEntity
  8
1
  6
Continuous
 62
    35
 60
     1
370
    18
100
AcDbLine
 10
125.467009
 20
160.304759
 30
0.0
 11
133.467013
 21
159.251539
 31
0.0
  0
CIRCLE
  5
9E
330
1F
100
AcDbEntity
  8
1
  6
Continuous
 62
   155
370
    25
100
AcDbCircle
 10
133.467013
 20
187.251539
 30
0.0
 40
4.999999999999999
  0
CIRCLE
  5
9F
330
1F
100
AcDbEntity
  8
1
  6
Continuous
 62
   155
370
    25
100
AcDbCircle
 10
91.467013
 20
187.251539
 30
0.0
 40
4.999999999999997
  0
ARC
  5
A0
330
1F
100
AcDbEntity
  8
1
  6
Continuous
 62
   155
370
    25
100
AcDbCircle
 10
91.467013
 20
187.251539
 30
0.0
 40
2.749935399977628
100
AcDbArc
 50
134.02648
 51
135.97352
  0
ARC
  5
A1
330
1F
100
AcDbEntity
  8
1
  6
Continuous
 62
   155
370
    25
100
AcDbCircle
 10
91.467013
 20
187.251539
 30
0.0
 40
2.749935399977628
100
AcDbArc
 50
179.02648
 51
180.97352
  0
ARC
  5
A2
330
1F
100
AcDbEntity
  8
1
  6
Continuous
 62
   155
370
    25
100
AcDbCircle
 10
91.467013
 20
187.251539
 30
0.0
 40
2.749935399977628
100
AcDbArc
 50
224.02648
 51
225.97352
  0
ARC
  5
A3
330
1F
100
AcDbEntity
  8
1
  6
Continuous
 62
   155
370
    25
100
AcDbCircle
 10
91.467013
 20
187.251539
 30
0.0
 40
2.749935399977628
100
AcDbArc
 50
269.02648
 51
270.97352
  0
ARC
  5
A4
330
1F
100
AcDbEntity
  8
1
  6
Continuous
 62
   155
370
    25
100
AcDbCircle
 10
91.467013
 20
187.251539
 30
0.0
 40
2.749935399977628
100
AcDbArc
 50
314.02648
 51
315.97352
  0
ARC
  5
A5
330
1F
100
AcDbEntity
  8
1
  6
Continuous
 62
   155
370
    25
100
AcDbCircle
 10
91.467013
 20
187.251539
 30
0.0
 40
2.749935399977628
100
AcDbArc
 50
359.02648
 51
0.97352
  0
ARC
  5
A6
330
1F
100
AcDbEntity
  8
1
  6
Continuous
 62
   155
370
    25
100
AcDbCircle
 10
91.467013
 20
187.251539
 30
0.0
 40
2.749935399977628
100
AcDbArc
 50
44.02648
 51
45.97352
  0
ARC
  5
A7
330
1F
100
AcDbEntity
  8
1
  6
Continuous
 62
   155
370
    25
100
AcDbCircle
 10
91.467013
 20
187.251539
 30
0.0
 40
2.749935399977628
100
AcDbArc
 50
89.02648
 51
90.97352
  0
ARC
  5
A8
330
1F
100
AcDbEntity
  8
1
  6
Continuous
 62
   155
370
    25
100
AcDbCircle
 10
105.467013
 20
192.051539
 30
0.0
 40
1.999999999999999
100
AcDbArc
 50
90.0
 51
180.0
  0
ARC
  5
A9
330
1F
100
AcDbEntity
  8
1
  6
Continuous
 62
   155
370
    25
100
AcDbCircle
 10
105.467013
 20
180.751539
 30
0.0
 40
2.0
100
AcDbArc
 50
180.0
 51
270.0
  0
ARC
  5
AA
330
1F
100
AcDbEntity
  8
1
  6
Continuous
 62
   155
370
    25
100
AcDbCircle
 10
119.467013
 20
180.751539
 30
0.0
 40
2.000000000000004
100
AcDbArc
 50
270.0
 51
360.0
  0
ARC
  5
AB
330
1F
100
AcDbEntity
  8
1
  6
Continuous
 62
   155
370
    25
100
AcDbCircle
 10
119.467013
 20
192.051539
 30
0.0
 40
2.0
100
AcDbArc
 50
0.0
 51
90.0
  0
ARC
  5
AC
330
1F
100
AcDbEntity
  8
1
  6
Continuous
 62
   155
370
    25
100
AcDbCircle
 10
133.467013
 20
187.251539
 30
0.0
 40
2.749935399977628
100
AcDbArc
 50
134.52648
 51
136.47352
  0
ARC
  5
AD
330
1F
100
AcDbEntity
  8
1
  6
Continuous
 62
   155
370
    25
100
AcDbCircle
 10
133.467013
 20
187.251539
 30
0.0
 40
2.749935399977628
100
AcDbArc
 50
179.52648
 51
181.47352
  0
ARC
  5
AE
330
1F
100
AcDbEntity
  8
1
  6
Continuous
 62
   155
370
    25
100
AcDbCircle
 10
133.467013
 20
187.251539
 30
0.0
 40
2.749935399977628
100
AcDbArc
 50
224.52648
 51
226.47352
  0
ARC
  5
AF
330
1F
100
AcDbEntity
  8
1
  6
Continuous
 62
   155
370
    25
100
AcDbCircle
 10
133.467013
 20
187.251539
 30
0.0
 40
2.749935399977628
100
AcDbArc
 50
269.52648
 51
271.47352
  0
ARC
  5
B0
330
1F
100
AcDbEntity
  8
1
  6
Continuous
 62
   155
370
    25
100
AcDbCircle
 10
133.467013
 20
187.251539
 30
0.0
 40
2.749935399977628
100
AcDbArc
 50
314.52648
 51
316.47352
  0
ARC
  5
B1
330
1F
100
AcDbEntity
  8
1
  6
Continuous
 62
   155
370
    25
100
AcDbCircle
 10
133.467013
 20
187.251539
 30
0.0
 40
2.749935399977628
100
AcDbArc
 50
359.52648
 51
1.47352
  0
ARC
  5
B2
330
1F
100
AcDbEntity
  8
1
  6
Continuous
 62
   155
370
    25
100
AcDbCircle
 10
133.467013
 20
187.251539
 30
0.0
 40
2.749935399977628
100
AcDbArc
 50
44.52648
 51
46.47352
  0
ARC
  5
B3
330
1F
100
AcDbEntity
  8
1
  6
Continuous
 62
   155
370
    25
100
AcDbCircle
 10
133.467013
 20
187.251539
 30
0.0
 40
2.749935399977628
100
AcDbArc
 50
89.52648
 51
91.47352
  0
SPLINE
  5
B4
330
1F
100
AcDbEntity
  8
1
  6
Continuous
 62
   155
370
    25
100
AcDbSpline
210
0.0
220
0.0
230
1.0
 70
     8
 71
     3
 72
    22
 73
    18
 74
     0
 42
0.000000001
 43
0.0000000001
 40
0.0
 40
0.0
 40
0.0
 40
0.0
 40
0.1249999999999807
 40
0.1249999999999807
 40
0.1874999999999774
 40
0.1874999999999774
 40
0.2499999999999741
 40
0.2499999999999741
 40
0.3749999999999828
 40
0.3749999999999828
 40
0.4999999999999915
 40
0.4999999999999915
 40
0.7499999999999956
 40
0.7499999999999956
 40
0.8749999999999978
 40
0.8749999999999978
 40
1.0
 40
1.0
 40
1.0
 40
1.0
 10
89.48975812466455
 20
189.1627188893262
 30
0.0
 10
89.45262873800388
 20
189.1243058273969
 30
0.0
 10
89.41372179631364
 20
189.0895156389047
 30
0.0
 10
89.35297843362963
 20
189.0421431829017
 30
0.0
 10
89.33233092972989
 20
189.027158840236
 30
0.0
 10
89.29025741730048
 20
188.998744215196
 30
0.0
 10
89.26873765400519
 20
188.9852682666783
 30
0.0
 10
89.20445672439506
 20
188.9479028667529
 30
0.0
 10
89.16157542434803
 20
188.9267453640373
 30
0.0
 10
89.07560526264834
 20
188.8905955003994
 30
0.0
 10
89.03233670130737
 20
188.8755970291409
 30
0.0
 10
88.9053804640927
 20
188.8395947992299
 30
0.0
 10
88.82330817733467
 20
188.8268161173809
 30
0.0
 10
88.70228543692309
 20
188.8205220963772
 30
0.0
 10
88.66231677752953
 20
188.8206396703363
 30
0.0
 10
88.58393224853441
 20
188.8249385620286
 30
0.0
 10
88.54538287121365
 20
188.8291111555033
 30
0.0
 10
88.50739817774453
 20
188.8351925695253
 30
0.0
  0
SPLINE
  5
B5
330
1F
100
AcDbEntity
  8
1
  6
Continuous
 62
   155
370
    25
100
AcDbSpline
210
0.0
220
0.0
230
1.0
 70
    24
 71
     3
 72
     8
 73
     4
 74
     0
 42
0.000000001
 43
0.0000000001
 40
0.0
 40
0.0
 40
0.0
 40
0.0
 40
1.0
 40
1.0
 40
1.0
 40
1.0
 10
88.50739817774453
 20
188.8351925695253
 30
0.0
 10
88.46624906661427
 20
188.8417806121964
 30
0.0
 10
88.42514065780276
 20
188.8483621383571
 30
0.0
 10
88.38406883968861
 20
188.8549378062848
 30
0.0
  0
SPLINE
  5
B6
330
1F
100
AcDbEntity
  8
1
  6
Continuous
 62
   155
370
    25
100
AcDbSpline
210
0.0
220
0.0
230
1.0
 70
     8
 71
     3
 72
    30
 73
    26
 74
     0
 42
0.000000001
 43
0.0000000001
 40
0.0
 40
0.0
 40
0.0
 40
0.0
 40
0.124999999999999
 40
0.124999999999999
 40
0.1874999999999981
 40
0.1874999999999981
 40
0.2499999999999971
 40
0.2499999999999971
 40
0.3124999999999961
 40
0.3124999999999961
 40
0.3749999999999951
 40
0.3749999999999951
 40
0.4374999999999941
 40
0.4374999999999941
 40
0.4999999999999931
 40
0.4999999999999931
 40
0.5624999999999922
 40
0.5624999999999922
 40
0.6249999999999912
 40
0.6249999999999912
 40
0.7499999999999942
 40
0.7499999999999942
 40
0.8749999999999971
 40
0.8749999999999971
 40
1.0
 40
1.0
 40
1.0
 40
1.0
 10
88.38406883968861
 20
188.8549378062848
 30
0.0
 10
88.355112661259
 20
188.859573739695
 30
0.0
 10
88.32533506436015
 20
188.860224257217
 30
0.0
 10
88.27932274788347
 20
188.8541760442288
 30
0.0
 10
88.26364667050146
 20
188.8509331727641
 30
0.0
 10
88.23253085596998
 20
188.8418381326772
 30
0.0
 10
88.21706143747613
 20
188.8360038359409
 30
0.0
 10
88.18635088365917
 20
188.8213695494608
 30
0.0
 10
88.17096145076202
 20
188.8124581197852
 30
0.0
 10
88.14149275245039
 20
188.791645780268
 30
0.0
 10
88.12736737051364
 20
188.7797651506957
 30
0.0
 10
88.10058078279468
 20
188.752512010595
 30
0.0
 10
88.08810620763761
 20
188.7372616862942
 30
0.0
 10
88.06616470858619
 20
188.7043534259475
 30
0.0
 10
88.05647041654248
 20
188.6862786349055
 30
0.0
 10
88.04106404110046
 20
188.6491802119911
 30
0.0
 10
88.03517213615535
 20
188.6298635920481
 30
0.0
 10
88.02725283593158
 20
188.5907039265713
 30
0.0
 10
88.02528793027892
 20
188.5713523938073
 30
0.0
 10
88.02466340228852
 20
188.513914868448
 30
0.0
 10
88.03142075782509
 20
188.4776627407372
 30
0.0
 10
88.05415816279987
 20
188.4133493351902
 30
0.0
 10
88.0700511089085
 20
188.3850123985626
 30
0.0
 10
88.1079071645344
 20
188.3356000376154
 30
0.0
 10
88.12949404904833
 20
188.3149482172778
 30
0.0
 10
88.15326828745239
 20
188.297735982873
 30
0.0
  0
SPLINE
  5
B7
330
1F
100
AcDbEntity
  8
1
  6
Continuous
 62
   155
370
    25
100
AcDbSpline
210
0.0
220
0.0
230
1.0
 70
    24
 71
     3
 72
     8
 73
     4
 74
     0
 42
0.000000001
 43
0.0000000001
 40
0.0
 40
0.0
 40
0.0
 40
0.0
 40
1.0
 40
1.0
 40
1.0
 40
1.0
 10
88.15326828745239
 20
188.297735982873
 30
0.0
 10
88.18696014793912
 20
188.2733435211514
 30
0.0
 10
88.22068202435227
 20
188.2489293282957
 30
0.0
 10
88.25443728951977
 20
188.2244909624232
 30
0.0
  0
SPLINE
  5
B8
330
1F
100
AcDbEntity
  8
1
  6
Continuous
 62
   155
370
    25
100
AcDbSpline
210
0.0
220
0.0
230
1.0
 70
     8
 71
     3
 72
    22
 73
    18
 74
     0
 42
0.000000001
 43
0.0000000001
 40
0.0
 40
0.0
 40
0.0
 40
0.0
 40
0.2500000000000064
 40
0.2500000000000064
 40
0.3750000000000053
 40
0.3750000000000053
 40
0.5000000000000042
 40
0.5000000000000042
 40
0.6250000000000032
 40
0.6250000000000032
 40
0.7500000000000021
 40
0.7500000000000021
 40
0.8750000000000011
 40
0.8750000000000011
 40
0.9375000000000007
 40
0.9375000000000007
 40
1.0
 40
1.0
 40
1.0
 40
1.0
 10
88.25443728951977
 20
188.2244909624232
 30
0.0
 10
88.31670386682066
 20
188.1794107833708
 30
0.0
 10
88.37478652937344
 20
188.1277482354379
 30
0.0
 10
88.45528637622122
 20
188.0387040437249
 30
0.0
 10
88.48100759576857
 20
188.0070773873179
 30
0.0
 10
88.53001158526797
 20
187.9392447574448
 30
0.0
 10
88.55342701441415
 20
187.9027912279689
 30
0.0
 10
88.59652616457072
 20
187.8257843576026
 30
0.0
 10
88.61626891835765
 20
187.785218680312
 30
0.0
 10
88.65160153307164
 20
187.6990318404699
 30
0.0
 10
88.66728103626636
 20
187.6529903954066
 30
0.0
 10
88.69265687882377
 20
187.5576323025881
 30
0.0
 10
88.7024843120549
 20
187.5081422321246
 30
0.0
 10
88.71219316108844
 20
187.4306100772421
 30
0.0
 10
88.71456825510782
 20
187.4042442262153
 30
0.0
 10
88.7174259669178
 20
187.3514815557563
 30
0.0
 10
88.71792809061873
 20
187.3249494908619
 30
0.0
 10
88.7174745878047
 20
187.2982615006417
 30
0.0
  0
SPLINE
  5
B9
330
1F
100
AcDbEntity
  8
1
  6
Continuous
 62
   155
370
    25
100
AcDbSpline
210
0.0
220
0.0
230
1.0
 70
     8
 71
     3
 72
    22
 73
    18
 74
     0
 42
0.000000001
 43
0.0000000001
 40
0.0
 40
0.0
 40
0.0
 40
0.0
 40
0.1249999999999955
 40
0.1249999999999955
 40
0.1874999999999942
 40
0.1874999999999942
 40
0.249999999999993
 40
0.249999999999993
 40
0.3749999999999904
 40
0.3749999999999904
 40
0.4999999999999879
 40
0.4999999999999879
 40
0.7499999999999928
 40
0.7499999999999928
 40
0.8749999999999964
 40
0.8749999999999964
 40
1.0
 40
1.0
 40
1.0
 40
1.0
 10
88.7174745878047
 20
187.2048169648928
 30
0.0
 10
88.71838230946449
 20
187.1513988470093
 30
0.0
 10
88.71547112810333
 20
187.0992866134865
 30
0.0
 10
88.70601640568313
 20
187.0228376451838
 30
0.0
 10
88.70201196077996
 20
186.9976424801168
 30
0.0
 10
88.69235384414995
 20
186.9478009102846
 30
0.0
 10
88.68666604695187
 20
186.9230552955323
 30
0.0
 10
88.6676335999775
 20
186.8511794835954
 30
0.0
 10
88.65227245275409
 20
186.8058972043529
 30
0.0
 10
88.61704442339929
 20
186.7195460619262
 30
0.0
 10
88.59705440923238
 20
186.6783449227659
 30
0.0
 10
88.53273947148816
 20
186.5631147787406
 30
0.0
 10
88.48374152531585
 20
186.4960455249305
 30
0.0
 10
88.40261723895767
 20
186.4060203093023
 30
0.0
 10
88.37427186285115
 20
186.3778411578661
 30
0.0
 10
88.31580566603056
 20
186.3254545275626
 30
0.0
 10
88.28559665642665
 20
186.3011464729506
 30
0.0
 10
88.25443728951976
 20
186.2785875031114
 30
0.0
  0
SPLINE
  5
BA
330
1F
100
AcDbEntity
  8
1
  6
Continuous
 62
   155
370
    25
100
AcDbSpline
210
0.0
220
0.0
230
1.0
 70
    24
 71
     3
 72
     8
 73
     4
 74
     0
 42
0.000000001
 43
0.0000000001
 40
0.0
 40
0.0
 40
0.0
 40
0.0
 40
1.0
 40
1.0
 40
1.0
 40
1.0
 10
88.25443728951977
 20
186.2785875031114
 30
0.0
 10
88.22068202435227
 20
186.2541491372388
 30
0.0
 10
88.18696014793912
 20
186.2297349443832
 30
0.0
 10
88.15326828745239
 20
186.2053424826615
 30
0.0
  0
SPLINE
  5
BB
330
1F
100
AcDbEntity
  8
1
  6
Continuous
 62
   155
370
    25
100
AcDbSpline
210
0.0
220
0.0
230
1.0
 70
     8
 71
     3
 72
    30
 73
    26
 74
     0
 42
0.000000001
 43
0.0000000001
 40
0.0
 40
0.0
 40
0.0
 40
0.0
 40
0.1250000000000099
 40
0.1250000000000099
 40
0.18750000000001
 40
0.18750000000001
 40
0.25000000000001
 40
0.25000000000001
 40
0.3125000000000102
 40
0.3125000000000102
 40
0.3750000000000102
 40
0.3750000000000102
 40
0.4375000000000103
 40
0.4375000000000103
 40
0.5000000000000103
 40
0.5000000000000103
 40
0.5625000000000103
 40
0.5625000000000103
 40
0.6250000000000104
 40
0.6250000000000104
 40
0.750000000000007
 40
0.750000000000007
 40
0.8750000000000036
 40
0.8750000000000036
 40
1.0
 40
1.0
 40
1.0
 40
1.0
 10
88.15326828745239
 20
186.2053424826615
 30
0.0
 10
88.12951625872577
 20
186.1881463277697
 30
0.0
 10
88.10800032874084
 20
186.1675509264584
 30
0.0
 10
88.07974036770183
 20
186.1307373626838
 30
0.0
 10
88.0709485202537
 20
186.1173591509355
 30
0.0
 10
88.055378139695
 20
186.0889270717122
 30
0.0
 10
88.04856507594465
 20
186.0738633621777
 30
0.0
 10
88.03719710276704
 20
186.0417991142489
 30
0.0
 10
88.03261634394713
 20
186.0246152125989
 30
0.0
 10
88.0264955227698
 20
185.9890625654872
 30
0.0
 10
88.0249080509615
 20
185.9706735536712
 30
0.0
 10
88.02523790729482
 20
185.9324596925329
 30
0.0
 10
88.02720046375656
 20
185.9128572512728
 30
0.0
 10
88.03495506729467
 20
185.8740721038913
 30
0.0
 10
88.04088103079482
 20
185.8544361789792
 30
0.0
 10
88.05621901063822
 20
185.817310685477
 30
0.0
 10
88.06571275774525
 20
185.7994835467389
 30
0.0
 10
88.08780187153785
 20
185.7661952758701
 30
0.0
 10
88.10009590304315
 20
185.7511221465405
 30
0.0
 10
88.14027021601459
 20
185.7100643382487
 30
0.0
 10
88.17068187662069
 20
185.6892091938946
 30
0.0
 10
88.23223426453616
 20
185.6598110629535
 30
0.0
 10
88.2635119032581
 20
185.6510110116946
 30
0.0
 10
88.3252181387991
 20
185.6428395750151
 30
0.0
 10
88.35508577264838
 20
185.6435004209273
 30
0.0
 10
88.38406883968861
 20
185.6481406592497
 30
0.0
  0
SPLINE
  5
BC
330
1F
100
AcDbEntity
  8
1
  6
Continuous
 62
   155
370
    25
100
AcDbSpline
210
0.0
220
0.0
230
1.0
 70
    24
 71
     3
 72
     8
 73
     4
 74
     0
 42
0.000000001
 43
0.0000000001
 40
0.0
 40
0.0
 40
0.0
 40
0.0
 40
1.0
 40
1.0
 40
1.0
 40
1.0
 10
88.38406883968861
 20
185.6481406592497
 30
0.0
 10
88.42514065780276
 20
185.6547163271775
 30
0.0
 10
88.46624906661427
 20
185.6612978533381
 30
0.0
 10
88.50739817774453
 20
185.6678858960092
 30
0.0
  0
SPLINE
  5
BD
330
1F
100
AcDbEntity
  8
1
  6
Continuous
 62
   155
370
    25
100
AcDbSpline
210
0.0
220
0.0
230
1.0
 70
     8
 71
     3
 72
    22
 73
    18
 74
     0
 42
0.000000001
 43
0.0000000001
 40
0.0
 40
0.0
 40
0.0
 40
0.0
 40
0.2499999999999997
 40
0.2499999999999997
 40
0.3749999999999993
 40
0.3749999999999993
 40
0.499999999999999
 40
0.499999999999999
 40
0.6249999999999988
 40
0.6249999999999988
 40
0.7499999999999983
 40
0.7499999999999983
 40
0.874999999999998
 40
0.874999999999998
 40
0.937499999999999
 40
0.937499999999999
 40
1.0
 40
1.0
 40
1.0
 40
1.0
 10
88.50739817774453
 20
185.6678858960092
 30
0.0
 10
88.58330419396194
 20
185.6800385782931
 30
0.0
 10
88.66090598119925
 20
185.6845782303121
 30
0.0
 10
88.78079164097323
 20
185.6785364111938
 30
0.0
 10
88.8213426211922
 20
185.6743606230938
 30
0.0
 10
88.9039582342797
 20
185.6610468011967
 30
0.0
 10
88.94629182017773
 20
185.6518275234884
 30
0.0
 10
89.03122003762698
 20
185.6278510100837
 30
0.0
 10
89.0738646299554
 20
185.6131269174142
 30
0.0
 10
89.15979172576019
 20
185.577167569433
 30
0.0
 10
89.20343504821511
 20
185.5556984218216
 30
0.0
 10
89.28880723310922
 20
185.5062132034188
 30
0.0
 10
89.33075102264928
 20
185.4781674193297
 30
0.0
 10
89.39243934105284
 20
185.4302093499316
 30
0.0
 10
89.41276239199448
 20
185.413245198903
 30
0.0
 10
89.45209186896513
 20
185.3779570932947
 30
0.0
 10
89.47120778089757
 20
185.3595512615018
 30
0.0
 10
89.48975812466453
 20
185.3403595762083
 30
0.0
  0
SPLINE
  5
BE
330
1F
100
AcDbEntity
  8
1
  6
Continuous
 62
   155
370
    25
100
AcDbSpline
210
0.0
220
0.0
230
1.0
 70
     8
 71
     3
 72
    22
 73
    18
 74
     0
 42
0.000000001
 43
0.0000000001
 40
0.0
 40
0.0
 40
0.0
 40
0.0
 40
0.1250000000000164
 40
0.1250000000000164
 40
0.1875000000000197
 40
0.1875000000000197
 40
0.2500000000000229
 40
0.2500000000000229
 40
0.3750000000000184
 40
0.3750000000000184
 40
0.5000000000000139
 40
0.5000000000000139
 40
0.7500000000000054
 40
0.7500000000000054
 40
0.8750000000000028
 40
0.8750000000000028
 40
1.0
 40
1.0
 40
1.0
 40
1.0
 10
89.55583338955742
 20
185.2742843113155
 30
0.0
 10
89.59424657272997
 20
185.2371548074631
 30
0.0
 10
89.62903678349502
 20
185.1982478129571
 30
0.0
 10
89.67640919763414
 20
185.1375044829287
 30
0.0
 10
89.69139351344307
 20
185.1168570084986
 30
0.0
 10
89.71980806814523
 20
185.0747835944837
 30
0.0
 10
89.73328401258223
 20
185.0532638416467
 30
0.0
 10
89.77064946749783
 20
184.9889828125179
 30
0.0
 10
89.79180696266519
 20
184.946101504969
 30
0.0
 10
89.82795678617597
 20
184.8601314233159
 30
0.0
 10
89.84295526418722
 20
184.8168628497895
 30
0.0
 10
89.87895752335457
 20
184.6899064711043
 30
0.0
 10
89.8917361688195
 20
184.6078342284327
 30
0.0
 10
89.89803017913607
 20
184.486811685812
 30
0.0
 10
89.8979126099155
 20
184.4468430029361
 30
0.0
 10
89.89361371784992
 20
184.3684584395182
 30
0.0
 10
89.88944112301009
 20
184.329909055552
 30
0.0
 10
89.88335970935827
 20
184.2919243643954
 30
0.0
  0
SPLINE
  5
BF
330
1F
100
AcDbEntity
  8
1
  6
Continuous
 62
   155
370
    25
100
AcDbSpline
210
0.0
220
0.0
230
1.0
 70
    24
 71
     3
 72
     8
 73
     4
 74
     0
 42
0.000000001
 43
0.0000000001
 40
0.0
 40
0.0
 40
0.0
 40
0.0
 40
1.0
 40
1.0
 40
1.0
 40
1.0
 10
89.88335970935827
 20
184.2919243643954
 30
0.0
 10
89.87677166668718
 20
184.2507752532652
 30
0.0
 10
89.87019014052653
 20
184.2096668444537
 30
0.0
 10
89.86361447259875
 20
184.1685950263395
 30
0.0
  0
SPLINE
  5
C0
330
1F
100
AcDbEntity
  8
1
  6
Continuous
 62
   155
370
    25
100
AcDbSpline
210
0.0
220
0.0
230
1.0
 70
     8
 71
     3
 72
    30
 73
    26
 74
     0
 42
0.000000001
 43
0.0000000001
 40
0.0
 40
0.0
 40
0.0
 40
0.0
 40
0.1250000000000093
 40
0.1250000000000093
 40
0.1875000000000129
 40
0.1875000000000129
 40
0.2500000000000166
 40
0.2500000000000166
 40
0.3125000000000203
 40
0.3125000000000203
 40
0.3750000000000239
 40
0.3750000000000239
 40
0.4375000000000275
 40
0.4375000000000275
 40
0.5000000000000312
 40
0.5000000000000312
 40
0.5625000000000349
 40
0.5625000000000349
 40
0.6250000000000385
 40
0.6250000000000385
 40
0.7500000000000256
 40
0.7500000000000256
 40
0.8750000000000129
 40
0.8750000000000129
 40
1.0
 40
1.0
 40
1.0
 40
1.0
 10
89.86361447259877
 20
184.1685950263395
 30
0.0
 10
89.85897853918863
 20
184.1396388479099
 30
0.0
 10
89.85832802166658
 20
184.1098612510111
 30
0.0
 10
89.86437623465483
 20
184.0638489345344
 30
0.0
 10
89.86761910611952
 20
184.0481728571524
 30
0.0
 10
89.87671414620637
 20
184.0170570426209
 30
0.0
 10
89.88254844294266
 20
184.001587624127
 30
0.0
 10
89.89718272942275
 20
183.9708770703101
 30
0.0
 10
89.90609415909836
 20
183.9554876374129
 30
0.0
 10
89.92690649861562
 20
183.9260189391013
 30
0.0
 10
89.93878712818791
 20
183.9118935571645
 30
0.0
 10
89.96604026828857
 20
183.8851069694456
 30
0.0
 10
89.98129059258937
 20
183.8726323942885
 30
0.0
 10
90.01419885293606
 20
183.8506908952371
 30
0.0
 10
90.03227364397809
 20
183.8409966031934
 30
0.0
 10
90.06937206689248
 20
183.8255902277514
 30
0.0
 10
90.08868868683552
 20
183.8196983228063
 30
0.0
 10
90.12784835231233
 20
183.8117790225825
 30
0.0
 10
90.14719988507633
 20
183.8098141169299
 30
0.0
 10
90.20463741043555
 20
183.8091895889394
 30
0.0
 10
90.24088953814646
 20
183.815946944476
 30
0.0
 10
90.30520294369346
 20
183.8386843494508
 30
0.0
 10
90.33353988032097
 20
183.8545772955594
 30
0.0
 10
90.38295224126821
 20
183.8924333511853
 30
0.0
 10
90.40360406160583
 20
183.9140202356993
 30
0.0
 10
90.42081629601063
 20
183.9377944741033
 30
0.0
  0
SPLINE
  5
C1
330
1F
100
AcDbEntity
  8
1
  6
Continuous
 62
   155
370
    25
100
AcDbSpline
210
0.0
220
0.0
230
1.0
 70
    24
 71
     3
 72
     8
 73
     4
 74
     0
 42
0.000000001
 43
0.0000000001
 40
0.0
 40
0.0
 40
0.0
 40
0.0
 40
1.0
 40
1.0
 40
1.0
 40
1.0
 10
90.42081629601063
 20
183.9377944741033
 30
0.0
 10
90.44520875773223
 20
183.97148633459
 30
0.0
 10
90.4696229505879
 20
184.0052082110032
 30
0.0
 10
90.49406131646043
 20
184.0389634761707
 30
0.0
  0
SPLINE
  5
C2
330
1F
100
AcDbEntity
  8
1
  6
Continuous
 62
   155
370
    25
100
AcDbSpline
210
0.0
220
0.0
230
1.0
 70
     8
 71
     3
 72
    22
 73
    18
 74
     0
 42
0.000000001
 43
0.0000000001
 40
0.0
 40
0.0
 40
0.0
 40
0.0
 40
0.2499999999999987
 40
0.2499999999999987
 40
0.3749999999999991
 40
0.3749999999999991
 40
0.4999999999999996
 40
0.4999999999999996
 40
0.6249999999999998
 40
0.6249999999999998
 40
0.75
 40
0.75
 40
0.8750000000000003
 40
0.8750000000000003
 40
0.9375000000000002
 40
0.9375000000000002
 40
1.0
 40
1.0
 40
1.0
 40
1.0
 10
90.49406131646043
 20
184.0389634761707
 30
0.0
 10
90.53914149551278
 20
184.1012300534716
 30
0.0
 10
90.59080404344571
 20
184.1593127160243
 30
0.0
 10
90.67984823515872
 20
184.2398125628721
 30
0.0
 10
90.7114748915657
 20
184.2655337824195
 30
0.0
 10
90.7793075214388
 20
184.3145377719189
 30
0.0
 10
90.81576105091477
 20
184.3379532010651
 30
0.0
 10
90.89276792128106
 20
184.3810523512216
 30
0.0
 10
90.93333359857158
 20
184.4007951050086
 30
0.0
 10
91.01952043841366
 20
184.4361277197225
 30
0.0
 10
91.06556188347699
 20
184.4518072229173
 30
0.0
 10
91.1609199762955
 20
184.4771830654747
 30
0.0
 10
91.21041004675897
 20
184.4870104987058
 30
0.0
 10
91.28794220164148
 20
184.4967193477393
 30
0.0
 10
91.3143080526683
 20
184.4990944417587
 30
0.0
 10
91.36707072312728
 20
184.5019521535687
 30
0.0
 10
91.39360278802172
 20
184.5024542772696
 30
0.0
 10
91.42029077824189
 20
184.5020007744556
 30
0.0
  0
SPLINE
  5
C3
330
1F
100
AcDbEntity
  8
1
  6
Continuous
 62
   155
370
    25
100
AcDbSpline
210
0.0
220
0.0
230
1.0
 70
     8
 71
     3
 72
    22
 73
    18
 74
     0
 42
0.000000001
 43
0.0000000001
 40
0.0
 40
0.0
 40
0.0
 40
0.0
 40
0.124999999999985
 40
0.124999999999985
 40
0.1874999999999855
 40
0.1874999999999855
 40
0.2499999999999861
 40
0.2499999999999861
 40
0.3749999999999881
 40
0.3749999999999881
 40
0.4999999999999901
 40
0.4999999999999901
 40
0.7499999999999941
 40
0.7499999999999941
 40
0.874999999999997
 40
0.874999999999997
 40
1.0
 40
1.0
 40
1.0
 40
1.0
 10
91.5137353139908
 20
184.5020007744556
 30
0.0
 10
91.56715343187435
 20
184.5029084961154
 30
0.0
 10
91.6192656653971
 20
184.4999973147542
 30
0.0
 10
91.6957146336998
 20
184.490542592334
 30
0.0
 10
91.72090979876688
 20
184.4865381474309
 30
0.0
 10
91.77075136859904
 20
184.4768800308009
 30
0.0
 10
91.79549698335131
 20
184.4711922336028
 30
0.0
 10
91.86737279528822
 20
184.4521597866284
 30
0.0
 10
91.91265507453073
 20
184.436798639405
 30
0.0
 10
91.99900621695743
 20
184.4015706100502
 30
0.0
 10
92.04020735611772
 20
184.3815805958833
 30
0.0
 10
92.15543750014302
 20
184.3172656581391
 30
0.0
 10
92.2225067539531
 20
184.2682677119668
 30
0.0
 10
92.3125319695813
 20
184.1871434256086
 30
0.0
 10
92.34071112101753
 20
184.1587980495021
 30
0.0
 10
92.39309775132105
 20
184.1003318526815
 30
0.0
 10
92.41740580593306
 20
184.0701228430776
 30
0.0
 10
92.43996477577227
 20
184.0389634761707
 30
0.0
  0
SPLINE
  5
C4
330
1F
100
AcDbEntity
  8
1
  6
Continuous
 62
   155
370
    25
100
AcDbSpline
210
0.0
220
0.0
230
1.0
 70
    24
 71
     3
 72
     8
 73
     4
 74
     0
 42
0.000000001
 43
0.0000000001
 40
0.0
 40
0.0
 40
0.0
 40
0.0
 40
1.0
 40
1.0
 40
1.0
 40
1.0
 10
92.43996477577227
 20
184.0389634761707
 30
0.0
 10
92.46440314164481
 20
184.0052082110032
 30
0.0
 10
92.48881733450045
 20
183.97148633459
 30
0.0
 10
92.51320979622207
 20
183.9377944741033
 30
0.0
  0
SPLINE
  5
C5
330
1F
100
AcDbEntity
  8
1
  6
Continuous
 62
   155
370
    25
100
AcDbSpline
210
0.0
220
0.0
230
1.0
 70
     8
 71
     3
 72
    30
 73
    26
 74
     0
 42
0.000000001
 43
0.0000000001
 40
0.0
 40
0.0
 40
0.0
 40
0.0
 40
0.1250000000000125
 40
0.1250000000000125
 40
0.1875000000000108
 40
0.1875000000000108
 40
0.2500000000000092
 40
0.2500000000000092
 40
0.3125000000000075
 40
0.3125000000000075
 40
0.3750000000000058
 40
0.3750000000000058
 40
0.4375000000000042
 40
0.4375000000000042
 40
0.5000000000000026
 40
0.5000000000000026
 40
0.5625000000000009
 40
0.5625000000000009
 40
0.6249999999999992
 40
0.6249999999999992
 40
0.7499999999999994
 40
0.7499999999999994
 40
0.8749999999999998
 40
0.8749999999999998
 40
1.0
 40
1.0
 40
1.0
 40
1.0
 10
92.51320979622207
 20
183.9377944741033
 30
0.0
 10
92.53040595111395
 20
183.9140424453767
 30
0.0
 10
92.5510013524252
 20
183.8925265153918
 30
0.0
 10
92.58781491619979
 20
183.8642665543528
 30
0.0
 10
92.6011931279481
 20
183.8554747069046
 30
0.0
 10
92.62962520717139
 20
183.8399043263459
 30
0.0
 10
92.64468891670589
 20
183.8330912625956
 30
0.0
 10
92.67675316463472
 20
183.8217232894179
 30
0.0
 10
92.69393706628465
 20
183.817142530598
 30
0.0
 10
92.72948971339642
 20
183.8110217094207
 30
0.0
 10
92.74787872521244
 20
183.8094342376124
 30
0.0
 10
92.78609258635076
 20
183.8097640939457
 30
0.0
 10
92.80569502761082
 20
183.8117266504075
 30
0.0
 10
92.84448017499236
 20
183.8194812539456
 30
0.0
 10
92.86411609990438
 20
183.8254072174457
 30
0.0
 10
92.90124159340661
 20
183.8407451972891
 30
0.0
 10
92.91906873214475
 20
183.8502389443962
 30
0.0
 10
92.95235700301352
 20
183.8723280581888
 30
0.0
 10
92.96743013234313
 20
183.8846220896941
 30
0.0
 10
93.00848794063495
 20
183.9247964026655
 30
0.0
 10
93.02934308498897
 20
183.9552080632716
 30
0.0
 10
93.05874121593011
 20
184.0167604511871
 30
0.0
 10
93.06754126718897
 20
184.048038089909
 30
0.0
 10
93.07571270386852
 20
184.10974432545
 30
0.0
 10
93.07505185795634
 20
184.1396119592993
 30
0.0
 10
93.07041161963392
 20
184.1685950263395
 30
0.0
  0
SPLINE
  5
C6
330
1F
100
AcDbEntity
  8
1
  6
Continuous
 62
   155
370
    25
100
AcDbSpline
210
0.0
220
0.0
230
1.0
 70
    24
 71
     3
 72
     8
 73
     4
 74
     0
 42
0.000000001
 43
0.0000000001
 40
0.0
 40
0.0
 40
0.0
 40
0.0
 40
1.0
 40
1.0
 40
1.0
 40
1.0
 10
93.07041161963392
 20
184.1685950263395
 30
0.0
 10
93.06383595170615
 20
184.2096668444536
 30
0.0
 10
93.05725442554551
 20
184.2507752532651
 30
0.0
 10
93.05066638287441
 20
184.2919243643954
 30
0.0
  0
SPLINE
  5
C7
330
1F
100
AcDbEntity
  8
1
  6
Continuous
 62
   155
370
    25
100
AcDbSpline
210
0.0
220
0.0
230
1.0
 70
     8
 71
     3
 72
    22
 73
    18
 74
     0
 42
0.000000001
 43
0.0000000001
 40
0.0
 40
0.0
 40
0.0
 40
0.0
 40
0.2499999999999967
 40
0.2499999999999967
 40
0.3749999999999954
 40
0.3749999999999954
 40
0.4999999999999941
 40
0.4999999999999941
 40
0.6249999999999931
 40
0.6249999999999931
 40
0.7499999999999921
 40
0.7499999999999921
 40
0.8749999999999912
 40
0.8749999999999912
 40
0.9374999999999956
 40
0.9374999999999956
 40
1.0
 40
1.0
 40
1.0
 40
1.0
 10
93.05066638287443
 20
184.2919243643954
 30
0.0
 10
93.03851370158124
 20
184.3678303744244
 30
0.0
 10
93.03397404933456
 20
184.4454321552069
 30
0.0
 10
93.04001586583057
 20
184.565317804624
 30
0.0
 10
93.04419165267002
 20
184.6058687812754
 30
0.0
 10
93.05750547103773
 20
184.6884843868795
 30
0.0
 10
93.06672474644535
 20
184.7308179688674
 30
0.0
 10
93.09070125429298
 20
184.8157461791516
 30
0.0
 10
93.10542534362577
 20
184.8583907678326
 30
0.0
 10
93.14138468331934
 20
184.944317856104
 30
0.0
 10
93.16285382603117
 20
184.9879611749712
 30
0.0
 10
93.2123390338767
 20
185.0733333543722
 30
0.0
 10
93.24038481194256
 20
185.1152771412996
 30
0.0
 10
93.28834287065013
 20
185.1769654560893
 30
0.0
 10
93.3053070189261
 20
185.1972885078004
 30
0.0
 10
93.3405951408307
 20
185.2366180085301
 30
0.0
 10
93.3590009894412
 20
185.2557339405415
 30
0.0
 10
93.37819270267528
 20
185.2742843113155
 30
0.0
  0
SPLINE
  5
C8
330
1F
100
AcDbEntity
  8
1
  6
Continuous
 62
   155
370
    25
100
AcDbSpline
210
0.0
220
0.0
230
1.0
 70
     8
 71
     3
 72
    22
 73
    18
 74
     0
 42
0.000000001
 43
0.0000000001
 40
0.0
 40
0.0
 40
0.0
 40
0.0
 40
0.1249999999999821
 40
0.1249999999999821
 40
0.1874999999999796
 40
0.1874999999999796
 40
0.2499999999999771
 40
0.2499999999999771
 40
0.3749999999999854
 40
0.3749999999999854
 40
0.4999999999999937
 40
0.4999999999999937
 40
0.7499999999999969
 40
0.7499999999999969
 40
0.8749999999999984
 40
0.8749999999999984
 40
1.0
 40
1.0
 40
1.0
 40
1.0
 10
93.44426796756815
 20
185.3403595762083
 30
0.0
 10
93.48139735422882
 20
185.3787726381376
 30
0.0
 10
93.52030429591906
 20
185.4135628266298
 30
0.0
 10
93.5810476586031
 20
185.4609352826328
 30
0.0
 10
93.6016951625028
 20
185.4759196252985
 30
0.0
 10
93.6437686749322
 20
185.5043342503385
 30
0.0
 10
93.6652884382275
 20
185.5178101988562
 30
0.0
 10
93.72956936783763
 20
185.5551755987816
 30
0.0
 10
93.77245066788468
 20
185.5763331014972
 30
0.0
 10
93.85842082958439
 20
185.6124829651351
 30
0.0
 10
93.90168939092533
 20
185.6274814363937
 30
0.0
 10
94.02864562814
 20
185.6634836663046
 30
0.0
 10
94.11071791489803
 20
185.6762623481536
 30
0.0
 10
94.23174065530961
 20
185.6825563691573
 30
0.0
 10
94.27170931470317
 20
185.6824387951982
 30
0.0
 10
94.35009384369829
 20
185.6781399035059
 30
0.0
 10
94.38864322101905
 20
185.6739673100312
 30
0.0
 10
94.42662791448818
 20
185.6678858960092
 30
0.0
  0
SPLINE
  5
C9
330
1F
100
AcDbEntity
  8
1
  6
Continuous
 62
   155
370
    25
100
AcDbSpline
210
0.0
220
0.0
230
1.0
 70
    24
 71
     3
 72
     8
 73
     4
 74
     0
 42
0.000000001
 43
0.0000000001
 40
0.0
 40
0.0
 40
0.0
 40
0.0
 40
1.0
 40
1.0
 40
1.0
 40
1.0
 10
94.42662791448818
 20
185.6678858960092
 30
0.0
 10
94.46777702561845
 20
185.6612978533381
 30
0.0
 10
94.50888543442996
 20
185.6547163271775
 30
0.0
 10
94.54995725254409
 20
185.6481406592497
 30
0.0
  0
SPLINE
  5
CA
330
1F
100
AcDbEntity
  8
1
  6
Continuous
 62
   155
370
    25
100
AcDbSpline
210
0.0
220
0.0
230
1.0
 70
     8
 71
     3
 72
    30
 73
    26
 74
     0
 42
0.000000001
 43
0.0000000001
 40
0.0
 40
0.0
 40
0.0
 40
0.0
 40
0.1250000000000023
 40
0.1250000000000023
 40
0.1875000000000032
 40
0.1875000000000032
 40
0.2500000000000041
 40
0.2500000000000041
 40
0.312500000000005
 40
0.312500000000005
 40
0.3750000000000059
 40
0.3750000000000059
 40
0.4375000000000068
 40
0.4375000000000068
 40
0.5000000000000077
 40
0.5000000000000077
 40
0.5625000000000084
 40
0.5625000000000084
 40
0.6250000000000094
 40
0.6250000000000094
 40
0.7500000000000063
 40
0.7500000000000063
 40
0.8750000000000032
 40
0.8750000000000032
 40
1.0
 40
1.0
 40
1.0
 40
1.0
 10
94.54995725254409
 20
185.6481406592497
 30
0.0
 10
94.5789134309737
 20
185.6435047258396
 30
0.0
 10
94.60869102787257
 20
185.6428542083175
 30
0.0
 10
94.65470334434923
 20
185.6489024213058
 30
0.0
 10
94.67037942173125
 20
185.6521452927705
 30
0.0
 10
94.70149523626273
 20
185.6612403328573
 30
0.0
 10
94.71696465475657
 20
185.6670746295936
 30
0.0
 10
94.74767520857354
 20
185.6817089160737
 30
0.0
 10
94.76306464147068
 20
185.6906203457493
 30
0.0
 10
94.7925333397823
 20
185.7114326852665
 30
0.0
 10
94.8066587217191
 20
185.7233133148388
 30
0.0
 10
94.83344530943802
 20
185.7505664549395
 30
0.0
 10
94.8459198845951
 20
185.7658167792403
 30
0.0
 10
94.86786138364651
 20
185.798725039587
 30
0.0
 10
94.87755567569022
 20
185.816799830629
 30
0.0
 10
94.89296205113223
 20
185.8538982535434
 30
0.0
 10
94.89885395607735
 20
185.8732148734864
 30
0.0
 10
94.90677325630112
 20
185.9123745389632
 30
0.0
 10
94.90873816195375
 20
185.9317260717272
 30
0.0
 10
94.90936268994417
 20
185.9891635970865
 30
0.0
 10
94.90260533440758
 20
186.0254157247973
 30
0.0
 10
94.8798679294328
 20
186.0897291303444
 30
0.0
 10
94.8639749833242
 20
186.1180660669719
 30
0.0
 10
94.82611892769833
 20
186.1674784279191
 30
0.0
 10
94.80453204318437
 20
186.1881302482568
 30
0.0
 10
94.78075780478031
 20
186.2053424826615
 30
0.0
  0
SPLINE
  5
CB
330
1F
100
AcDbEntity
  8
1
  6
Continuous
 62
   155
370
    25
100
AcDbSpline
210
0.0
220
0.0
230
1.0
 70
    24
 71
     3
 72
     8
 73
     4
 74
     0
 42
0.000000001
 43
0.0000000001
 40
0.0
 40
0.0
 40
0.0
 40
0.0
 40
1.0
 40
1.0
 40
1.0
 40
1.0
 10
94.78075780478031
 20
186.2053424826615
 30
0.0
 10
94.74706594429358
 20
186.2297349443832
 30
0.0
 10
94.71334406788043
 20
186.2541491372388
 30
0.0
 10
94.67958880271293
 20
186.2785875031113
 30
0.0
  0
SPLINE
  5
CC
330
1F
100
AcDbEntity
  8
1
  6
Continuous
 62
   155
370
    25
100
AcDbSpline
210
0.0
220
0.0
230
1.0
 70
     8
 71
     3
 72
    22
 73
    18
 74
     0
 42
0.000000001
 43
0.0000000001
 40
0.0
 40
0.0
 40
0.0
 40
0.0
 40
0.2500000000000064
 40
0.2500000000000064
 40
0.3750000000000053
 40
0.3750000000000053
 40
0.5000000000000042
 40
0.5000000000000042
 40
0.6250000000000032
 40
0.6250000000000032
 40
0.7500000000000021
 40
0.7500000000000021
 40
0.8750000000000011
 40
0.8750000000000011
 40
0.9375000000000007
 40
0.9375000000000007
 40
1.0
 40
1.0
 40
1.0
 40
1.0
 10
94.67958880271293
 20
186.2785875031113
 30
0.0
 10
94.61732222541204
 20
186.3236676821637
 30
0.0
 10
94.55923956285929
 20
186.3753302300966
 30
0.0
 10
94.47873971601146
 20
186.4643744218097
 30
0.0
 10
94.4530184964641
 20
186.4960010782166
 30
0.0
 10
94.40401450696476
 20
186.5638337080897
 30
0.0
 10
94.38059907781857
 20
186.6002872375657
 30
0.0
 10
94.33749992766198
 20
186.677294107932
 30
0.0
 10
94.31775717387504
 20
186.7178597852225
 30
0.0
 10
94.28242455916106
 20
186.8040466250646
 30
0.0
 10
94.26674505596633
 20
186.8500880701279
 30
0.0
 10
94.24136921340894
 20
186.9454461629464
 30
0.0
 10
94.23154178017778
 20
186.9949362334099
 30
0.0
 10
94.22183293114426
 20
187.0724683882924
 30
0.0
 10
94.21945783712486
 20
187.0988342393192
 30
0.0
 10
94.21660012531487
 20
187.1515969097782
 30
0.0
 10
94.21609800161399
 20
187.1781289746727
 30
0.0
 10
94.216551504428
 20
187.2048169648928
 30
0.0
  0
SPLINE
  5
CD
330
1F
100
AcDbEntity
  8
1
  6
Continuous
 62
   155
370
    25
100
AcDbSpline
210
0.0
220
0.0
230
1.0
 70
     8
 71
     3
 72
    22
 73
    18
 74
     0
 42
0.000000001
 43
0.0000000001
 40
0.0
 40
0.0
 40
0.0
 40
0.0
 40
0.1250000000000001
 40
0.1250000000000001
 40
0.1874999999999991
 40
0.1874999999999991
 40
0.2499999999999981
 40
0.2499999999999981
 40
0.3749999999999963
 40
0.3749999999999963
 40
0.4999999999999944
 40
0.4999999999999944
 40
0.7499999999999972
 40
0.7499999999999972
 40
0.8749999999999986
 40
0.8749999999999986
 40
1.0
 40
1.0
 40
1.0
 40
1.0
 10
94.216551504428
 20
187.2982615006417
 30
0.0
 10
94.21564378276817
 20
187.3516796185253
 30
0.0
 10
94.21855496412934
 20
187.403791852048
 30
0.0
 10
94.22800968654958
 20
187.4802408203507
 30
0.0
 10
94.23201413145273
 20
187.5054359854178
 30
0.0
 10
94.24167224808272
 20
187.5552775552499
 30
0.0
 10
94.2473600452808
 20
187.5800231700022
 30
0.0
 10
94.26639249225519
 20
187.6518989819391
 30
0.0
 10
94.2817536394786
 20
187.6971812611816
 30
0.0
 10
94.31698166883339
 20
187.7835324036083
 30
0.0
 10
94.33697168300029
 20
187.8247335427686
 30
0.0
 10
94.40128662074451
 20
187.9399636867939
 30
0.0
 10
94.45028456691685
 20
188.007032940604
 30
0.0
 10
94.53140885327502
 20
188.0970581562322
 30
0.0
 10
94.55975422938155
 20
188.1252373076684
 30
0.0
 10
94.6182204262021
 20
188.1776239379719
 30
0.0
 10
94.64842943580604
 20
188.201931992584
 30
0.0
 10
94.67958880271294
 20
188.2244909624232
 30
0.0
  0
SPLINE
  5
CE
330
1F
100
AcDbEntity
  8
1
  6
Continuous
 62
   155
370
    25
100
AcDbSpline
210
0.0
220
0.0
230
1.0
 70
    24
 71
     3
 72
     8
 73
     4
 74
     0
 42
0.000000001
 43
0.0000000001
 40
0.0
 40
0.0
 40
0.0
 40
0.0
 40
1.0
 40
1.0
 40
1.0
 40
1.0
 10
94.67958880271293
 20
188.2244909624231
 30
0.0
 10
94.71334406788043
 20
188.2489293282957
 30
0.0
 10
94.74706594429358
 20
188.2733435211514
 30
0.0
 10
94.78075780478031
 20
188.297735982873
 30
0.0
  0
SPLINE
  5
CF
330
1F
100
AcDbEntity
  8
1
  6
Continuous
 62
   155
370
    25
100
AcDbSpline
210
0.0
220
0.0
230
1.0
 70
     8
 71
     3
 72
    30
 73
    26
 74
     0
 42
0.000000001
 43
0.0000000001
 40
0.0
 40
0.0
 40
0.0
 40
0.0
 40
0.1250000000000106
 40
0.1250000000000106
 40
0.1875000000000107
 40
0.1875000000000107
 40
0.2500000000000107
 40
0.2500000000000107
 40
0.3125000000000108
 40
0.3125000000000108
 40
0.3750000000000108
 40
0.3750000000000108
 40
0.4375000000000108
 40
0.4375000000000108
 40
0.5000000000000109
 40
0.5000000000000109
 40
0.5625000000000109
 40
0.5625000000000109
 40
0.6250000000000109
 40
0.6250000000000109
 40
0.7500000000000072
 40
0.7500000000000072
 40
0.8750000000000037
 40
0.8750000000000037
 40
1.0
 40
1.0
 40
1.0
 40
1.0
 10
94.78075780478031
 20
188.297735982873
 30
0.0
 10
94.8045098335069
 20
188.3149321377649
 30
0.0
 10
94.82602576349186
 20
188.3355275390761
 30
0.0
 10
94.85428572453085
 20
188.3723411028507
 30
0.0
 10
94.863077571979
 20
188.385719314599
 30
0.0
 10
94.87864795253772
 20
188.4141513938223
 30
0.0
 10
94.88546101628805
 20
188.4292151033568
 30
0.0
 10
94.89682898946565
 20
188.4612793512856
 30
0.0
 10
94.90140974828556
 20
188.4784632529356
 30
0.0
 10
94.90753056946286
 20
188.5140159000474
 30
0.0
 10
94.9091180412712
 20
188.5324049118634
 30
0.0
 10
94.90878818493789
 20
188.5706187730017
 30
0.0
 10
94.90682562847613
 20
188.5902212142617
 30
0.0
 10
94.89907102493802
 20
188.6290063616433
 30
0.0
 10
94.89314506143788
 20
188.6486422865553
 30
0.0
 10
94.87780708159448
 20
188.6857677800575
 30
0.0
 10
94.86831333448745
 20
188.7035949187957
 30
0.0
 10
94.84622422069486
 20
188.7368831896644
 30
0.0
 10
94.83393018918952
 20
188.751956318994
 30
0.0
 10
94.7937558762181
 20
188.7930141272859
 30
0.0
 10
94.76334421561202
 20
188.8138692716399
 30
0.0
 10
94.70179182769654
 20
188.843267402581
 30
0.0
 10
94.67051418897458
 20
188.8520674538399
 30
0.0
 10
94.60880795343361
 20
188.8602388905194
 30
0.0
 10
94.57894031958435
 20
188.8595780446072
 30
0.0
 10
94.5499572525441
 20
188.8549378062848
 30
0.0
  0
SPLINE
  5
D0
330
1F
100
AcDbEntity
  8
1
  6
Continuous
 62
   155
370
    25
100
AcDbSpline
210
0.0
220
0.0
230
1.0
 70
    24
 71
     3
 72
     8
 73
     4
 74
     0
 42
0.000000001
 43
0.0000000001
 40
0.0
 40
0.0
 40
0.0
 40
0.0
 40
1.0
 40
1.0
 40
1.0
 40
1.0
 10
94.5499572525441
 20
188.8549378062848
 30
0.0
 10
94.50888543442997
 20
188.8483621383571
 30
0.0
 10
94.46777702561846
 20
188.8417806121964
 30
0.0
 10
94.4266279144882
 20
188.8351925695253
 30
0.0
  0
SPLINE
  5
D1
330
1F
100
AcDbEntity
  8
1
  6
Continuous
 62
   155
370
    25
100
AcDbSpline
210
0.0
220
0.0
230
1.0
 70
     8
 71
     3
 72
    22
 73
    18
 74
     0
 42
0.000000001
 43
0.0000000001
 40
0.0
 40
0.0
 40
0.0
 40
0.0
 40
0.2499999999999994
 40
0.2499999999999994
 40
0.3749999999999991
 40
0.3749999999999991
 40
0.4999999999999988
 40
0.4999999999999988
 40
0.6249999999999984
 40
0.6249999999999984
 40
0.7499999999999982
 40
0.7499999999999982
 40
0.8749999999999979
 40
0.8749999999999979
 40
0.9374999999999989
 40
0.9374999999999989
 40
1.0
 40
1.0
 40
1.0
 40
1.0
 10
94.4266279144882
 20
188.8351925695253
 30
0.0
 10
94.35072189827076
 20
188.8230398872414
 30
0.0
 10
94.27312011103345
 20
188.8185002352224
 30
0.0
 10
94.15323445125946
 20
188.8245420543407
 30
0.0
 10
94.1126834710405
 20
188.8287178424407
 30
0.0
 10
94.03006785795301
 20
188.8420316643378
 30
0.0
 10
93.98773427205498
 20
188.8512509420462
 30
0.0
 10
93.90280605460572
 20
188.8752274554508
 30
0.0
 10
93.86016146227732
 20
188.8899515481204
 30
0.0
 10
93.7742343664725
 20
188.9259108961015
 30
0.0
 10
93.73059104401759
 20
188.947380043713
 30
0.0
 10
93.6452188591235
 20
188.9968652621157
 30
0.0
 10
93.60327506958339
 20
189.0249110462048
 30
0.0
 10
93.54158675117989
 20
189.0728691156029
 30
0.0
 10
93.52126370023822
 20
189.0898332666315
 30
0.0
 10
93.48193422326759
 20
189.1251213722398
 30
0.0
 10
93.4628183113351
 20
189.1435272040328
 30
0.0
 10
93.44426796756817
 20
189.1627188893262
 30
0.0
  0
SPLINE
  5
D2
330
1F
100
AcDbEntity
  8
1
  6
Continuous
 62
   155
370
    25
100
AcDbSpline
210
0.0
220
0.0
230
1.0
 70
     8
 71
     3
 72
    22
 73
    18
 74
     0
 42
0.000000001
 43
0.0000000001
 40
0.0
 40
0.0
 40
0.0
 40
0.0
 40
0.1249999999999873
 40
0.1249999999999873
 40
0.187499999999986
 40
0.187499999999986
 40
0.2499999999999847
 40
0.2499999999999847
 40
0.3749999999999865
 40
0.3749999999999865
 40
0.4999999999999882
 40
0.4999999999999882
 40
0.7499999999999922
 40
0.7499999999999922
 40
0.8749999999999961
 40
0.8749999999999961
 40
1.0
 40
1.0
 40
1.0
 40
1.0
 10
93.3781927026753
 20
189.2287941542191
 30
0.0
 10
93.33977951950273
 20
189.2659236580714
 30
0.0
 10
93.3049893087377
 20
189.3048306525774
 30
0.0
 10
93.25761689459856
 20
189.3655739826058
 30
0.0
 10
93.24263257878965
 20
189.386221457036
 30
0.0
 10
93.21421802408747
 20
189.4282948710508
 30
0.0
 10
93.20074207965045
 20
189.4498146238878
 30
0.0
 10
93.16337662473484
 20
189.5140956530167
 30
0.0
 10
93.14221912956751
 20
189.5569769605655
 30
0.0
 10
93.10606930605675
 20
189.6429470422186
 30
0.0
 10
93.09107082804546
 20
189.686215615745
 30
0.0
 10
93.05506856887808
 20
189.8131719944303
 30
0.0
 10
93.0422899234132
 20
189.8952442371018
 30
0.0
 10
93.03599591309663
 20
190.0162667797225
 30
0.0
 10
93.0361134823172
 20
190.0562354625984
 30
0.0
 10
93.04041237438275
 20
190.1346200260163
 30
0.0
 10
93.0445849692226
 20
190.1731694099825
 30
0.0
 10
93.05066638287443
 20
190.2111541011391
 30
0.0
  0
SPLINE
  5
D3
330
1F
100
AcDbEntity
  8
1
  6
Continuous
 62
   155
370
    25
100
AcDbSpline
210
0.0
220
0.0
230
1.0
 70
    24
 71
     3
 72
     8
 73
     4
 74
     0
 42
0.000000001
 43
0.0000000001
 40
0.0
 40
0.0
 40
0.0
 40
0.0
 40
1.0
 40
1.0
 40
1.0
 40
1.0
 10
93.05066638287443
 20
190.2111541011391
 30
0.0
 10
93.05725442554552
 20
190.2523032122693
 30
0.0
 10
93.06383595170615
 20
190.2934116210808
 30
0.0
 10
93.07041161963392
 20
190.334483439195
 30
0.0
  0
SPLINE
  5
D4
330
1F
100
AcDbEntity
  8
1
  6
Continuous
 62
   155
370
    25
100
AcDbSpline
210
0.0
220
0.0
230
1.0
 70
     8
 71
     3
 72
    30
 73
    26
 74
     0
 42
0.000000001
 43
0.0000000001
 40
0.0
 40
0.0
 40
0.0
 40
0.0
 40
0.1249999999999945
 40
0.1249999999999945
 40
0.1874999999999906
 40
0.1874999999999906
 40
0.2499999999999867
 40
0.2499999999999867
 40
0.3124999999999828
 40
0.3124999999999828
 40
0.3749999999999789
 40
0.3749999999999789
 40
0.4374999999999749
 40
0.4374999999999749
 40
0.4999999999999709
 40
0.4999999999999709
 40
0.5624999999999669
 40
0.5624999999999669
 40
0.624999999999963
 40
0.624999999999963
 40
0.7499999999999754
 40
0.7499999999999754
 40
0.8749999999999877
 40
0.8749999999999877
 40
1.0
 40
1.0
 40
1.0
 40
1.0
 10
93.07041161963393
 20
190.334483439195
 30
0.0
 10
93.07504755304404
 20
190.3634396176246
 30
0.0
 10
93.0756980705661
 20
190.3932172145235
 30
0.0
 10
93.06964985757786
 20
190.4392295310001
 30
0.0
 10
93.06640698611318
 20
190.4549056083821
 30
0.0
 10
93.05731194602635
 20
190.4860214229136
 30
0.0
 10
93.05147764929002
 20
190.5014908414075
 30
0.0
 10
93.03684336280992
 20
190.5322013952244
 30
0.0
 10
93.02793193313434
 20
190.5475908281216
 30
0.0
 10
93.00711959361709
 20
190.5770595264332
 30
0.0
 10
92.99523896404479
 20
190.59118490837
 30
0.0
 10
92.96798582394412
 20
190.6179714960889
 30
0.0
 10
92.9527354996433
 20
190.630446071246
 30
0.0
 10
92.91982723929661
 20
190.6523875702974
 30
0.0
 10
92.90175244825463
 20
190.6620818623411
 30
0.0
 10
92.86465402534023
 20
190.6774882377831
 30
0.0
 10
92.84533740539717
 20
190.6833801427283
 30
0.0
 10
92.80617773992037
 20
190.691299442952
 30
0.0
 10
92.78682620715635
 20
190.6932643486047
 30
0.0
 10
92.72938868179713
 20
190.6938888765951
 30
0.0
 10
92.69313655408624
 20
190.6871315210585
 30
0.0
 10
92.62882314853925
 20
190.6643941160837
 30
0.0
 10
92.60048621191171
 20
190.6485011699751
 30
0.0
 10
92.5510738509645
 20
190.6106451143492
 30
0.0
 10
92.53042203062688
 20
190.5890582298352
 30
0.0
 10
92.51320979622209
 20
190.5652839914312
 30
0.0
  0
SPLINE
  5
D5
330
1F
100
AcDbEntity
  8
1
  6
Continuous
 62
   155
370
    25
100
AcDbSpline
210
0.0
220
0.0
230
1.0
 70
    24
 71
     3
 72
     8
 73
     4
 74
     0
 42
0.000000001
 43
0.0000000001
 40
0.0
 40
0.0
 40
0.0
 40
0.0
 40
1.0
 40
1.0
 40
1.0
 40
1.0
 10
92.51320979622207
 20
190.5652839914312
 30
0.0
 10
92.48881733450045
 20
190.5315921309445
 30
0.0
 10
92.46440314164481
 20
190.4978702545313
 30
0.0
 10
92.43996477577227
 20
190.4641149893638
 30
0.0
  0
SPLINE
  5
D6
330
1F
100
AcDbEntity
  8
1
  6
Continuous
 62
   155
370
    25
100
AcDbSpline
210
0.0
220
0.0
230
1.0
 70
     8
 71
     3
 72
    22
 73
    18
 74
     0
 42
0.000000001
 43
0.0000000001
 40
0.0
 40
0.0
 40
0.0
 40
0.0
 40
0.250000000000005
 40
0.250000000000005
 40
0.375000000000004
 40
0.375000000000004
 40
0.500000000000003
 40
0.500000000000003
 40
0.6250000000000021
 40
0.6250000000000021
 40
0.7500000000000013
 40
0.7500000000000013
 40
0.8750000000000004
 40
0.8750000000000004
 40
0.9375000000000003
 40
0.9375000000000003
 40
1.0
 40
1.0
 40
1.0
 40
1.0
 10
92.43996477577227
 20
190.4641149893638
 30
0.0
 10
92.39488459671993
 20
190.4018484120629
 30
0.0
 10
92.343222048787
 20
190.3437657495102
 30
0.0
 10
92.25417785707397
 20
190.2632659026624
 30
0.0
 10
92.222551200667
 20
190.237544683115
 30
0.0
 10
92.15471857079393
 20
190.1885406936157
 30
0.0
 10
92.11826504131795
 20
190.1651252644695
 30
0.0
 10
92.04125817095164
 20
190.1220261143129
 30
0.0
 10
92.00069249366112
 20
190.1022833605259
 30
0.0
 10
91.91450565381902
 20
190.066950745812
 30
0.0
 10
91.86846420875571
 20
190.0512712426172
 30
0.0
 10
91.77310611593722
 20
190.0258954000598
 30
0.0
 10
91.72361604547375
 20
190.0160679668287
 30
0.0
 10
91.64608389059124
 20
190.0063591177952
 30
0.0
 10
91.61971803956439
 20
190.0039840237758
 30
0.0
 10
91.56695536910539
 20
190.0011263119658
 30
0.0
 10
91.54042330421095
 20
190.0006241882649
 30
0.0
 10
91.51373531399081
 20
190.0010776910789
 30
0.0
  0
SPLINE
  5
D7
330
1F
100
AcDbEntity
  8
1
  6
Continuous
 62
   155
370
    25
100
AcDbSpline
210
0.0
220
0.0
230
1.0
 70
     8
 71
     3
 72
    22
 73
    18
 74
     0
 42
0.000000001
 43
0.0000000001
 40
0.0
 40
0.0
 40
0.0
 40
0.0
 40
0.1249999999999861
 40
0.1249999999999861
 40
0.1874999999999873
 40
0.1874999999999873
 40
0.2499999999999884
 40
0.2499999999999884
 40
0.3749999999999908
 40
0.3749999999999908
 40
0.4999999999999931
 40
0.4999999999999931
 40
0.7499999999999977
 40
0.7499999999999977
 40
0.8749999999999989
 40
0.8749999999999989
 40
1.0
 40
1.0
 40
1.0
 40
1.0
 10
91.4202907782419
 20
190.0010776910789
 30
0.0
 10
91.36687266035835
 20
190.0001699694191
 30
0.0
 10
91.31476042683562
 20
190.0030811507803
 30
0.0
 10
91.23831145853293
 20
190.0125358732005
 30
0.0
 10
91.21311629346584
 20
190.0165403181036
 30
0.0
 10
91.16327472363369
 20
190.0261984347337
 30
0.0
 10
91.13852910888141
 20
190.0318862319317
 30
0.0
 10
91.06665329694451
 20
190.0509186789061
 30
0.0
 10
91.02137101770198
 20
190.0662798261295
 30
0.0
 10
90.93501987527529
 20
190.1015078554843
 30
0.0
 10
90.89381873611498
 20
190.1214978696512
 30
0.0
 10
90.7785885920897
 20
190.1858128073955
 30
0.0
 10
90.71151933827961
 20
190.2348107535678
 30
0.0
 10
90.62149412265137
 20
190.3159350399259
 30
0.0
 10
90.59331497121516
 20
190.3442804160325
 30
0.0
 10
90.54092834091166
 20
190.402746612853
 30
0.0
 10
90.51662028629964
 20
190.4329556224569
 30
0.0
 10
90.49406131646043
 20
190.4641149893638
 30
0.0
  0
SPLINE
  5
D8
330
1F
100
AcDbEntity
  8
1
  6
Continuous
 62
   155
370
    25
100
AcDbSpline
210
0.0
220
0.0
230
1.0
 70
    24
 71
     3
 72
     8
 73
     4
 74
     0
 42
0.000000001
 43
0.0000000001
 40
0.0
 40
0.0
 40
0.0
 40
0.0
 40
1.0
 40
1.0
 40
1.0
 40
1.0
 10
90.49406131646043
 20
190.4641149893638
 30
0.0
 10
90.4696229505879
 20
190.4978702545313
 30
0.0
 10
90.44520875773225
 20
190.5315921309445
 30
0.0
 10
90.42081629601063
 20
190.5652839914312
 30
0.0
  0
SPLINE
  5
D9
330
1F
100
AcDbEntity
  8
1
  6
Continuous
 62
   155
370
    25
100
AcDbSpline
210
0.0
220
0.0
230
1.0
 70
     8
 71
     3
 72
    30
 73
    26
 74
     0
 42
0.000000001
 43
0.0000000001
 40
0.0
 40
0.0
 40
0.0
 40
0.0
 40
0.124999999999999
 40
0.124999999999999
 40
0.1874999999999983
 40
0.1874999999999983
 40
0.2499999999999975
 40
0.2499999999999975
 40
0.3124999999999968
 40
0.3124999999999968
 40
0.3749999999999961
 40
0.3749999999999961
 40
0.4374999999999953
 40
0.4374999999999953
 40
0.4999999999999946
 40
0.4999999999999946
 40
0.5624999999999938
 40
0.5624999999999938
 40
0.6249999999999931
 40
0.6249999999999931
 40
0.7499999999999953
 40
0.7499999999999953
 40
0.8749999999999977
 40
0.8749999999999977
 40
1.0
 40
1.0
 40
1.0
 40
1.0
 10
90.42081629601063
 20
190.5652839914312
 30
0.0
 10
90.40362014111875
 20
190.5890360201578
 30
0.0
 10
90.3830247398075
 20
190.6105519501428
 30
0.0
 10
90.34621117603291
 20
190.6388119111818
 30
0.0
 10
90.33283296428459
 20
190.6476037586299
 30
0.0
 10
90.3044008850613
 20
190.6631741391886
 30
0.0
 10
90.28933717552678
 20
190.669987202939
 30
0.0
 10
90.25727292759797
 20
190.6813551761166
 30
0.0
 10
90.24008902594802
 20
190.6859359349365
 30
0.0
 10
90.20453637883624
 20
190.6920567561138
 30
0.0
 10
90.18614736702023
 20
190.6936442279221
 30
0.0
 10
90.14793350588192
 20
190.6933143715888
 30
0.0
 10
90.12833106462188
 20
190.6913518151271
 30
0.0
 10
90.08954591724032
 20
190.6835972115889
 30
0.0
 10
90.06990999232829
 20
190.6776712480888
 30
0.0
 10
90.03278449882609
 20
190.6623332682454
 30
0.0
 10
90.01495736008792
 20
190.6528395211384
 30
0.0
 10
89.98166908921917
 20
190.6307504073458
 30
0.0
 10
89.96659595988953
 20
190.6184563758405
 30
0.0
 10
89.92553815159772
 20
190.578282062869
 30
0.0
 10
89.9046830072437
 20
190.5478704022629
 30
0.0
 10
89.87528487630257
 20
190.4863180143474
 30
0.0
 10
89.86648482504373
 20
190.4550403756255
 30
0.0
 10
89.85831338836417
 20
190.3933341400845
 30
0.0
 10
89.85897423427633
 20
190.3634665062353
 30
0.0
 10
89.86361447259877
 20
190.334483439195
 30
0.0
  0
SPLINE
  5
DA
330
1F
100
AcDbEntity
  8
1
  6
Continuous
 62
   155
370
    25
100
AcDbSpline
210
0.0
220
0.0
230
1.0
 70
    24
 71
     3
 72
     8
 73
     4
 74
     0
 42
0.000000001
 43
0.0000000001
 40
0.0
 40
0.0
 40
0.0
 40
0.0
 40
1.0
 40
1.0
 40
1.0
 40
1.0
 10
89.86361447259878
 20
190.334483439195
 30
0.0
 10
89.87019014052655
 20
190.2934116210809
 30
0.0
 10
89.8767716666872
 20
190.2523032122694
 30
0.0
 10
89.8833597093583
 20
190.2111541011391
 30
0.0
  0
SPLINE
  5
DB
330
1F
100
AcDbEntity
  8
1
  6
Continuous
 62
   155
370
    25
100
AcDbSpline
210
0.0
220
0.0
230
1.0
 70
     8
 71
     3
 72
    22
 73
    18
 74
     0
 42
0.000000001
 43
0.0000000001
 40
0.0
 40
0.0
 40
0.0
 40
0.0
 40
0.2499999999999947
 40
0.2499999999999947
 40
0.3749999999999939
 40
0.3749999999999939
 40
0.4999999999999931
 40
0.4999999999999931
 40
0.6249999999999923
 40
0.6249999999999923
 40
0.7499999999999916
 40
0.7499999999999916
 40
0.8749999999999908
 40
0.8749999999999908
 40
0.9374999999999953
 40
0.9374999999999953
 40
1.0
 40
1.0
 40
1.0
 40
1.0
 10
89.88335970935829
 20
190.2111541011391
 30
0.0
 10
89.89551239065146
 20
190.1352480911101
 30
0.0
 10
89.90005204289815
 20
190.0576463103276
 30
0.0
 10
89.89401022640214
 20
189.9377606609106
 30
0.0
 10
89.88983443956266
 20
189.8972096842591
 30
0.0
 10
89.87652062119494
 20
189.814594078655
 30
0.0
 10
89.86730134578735
 20
189.7722604966671
 30
0.0
 10
89.84332483793972
 20
189.6873322863829
 30
0.0
 10
89.82860074860693
 20
189.644687697702
 30
0.0
 10
89.79264140891335
 20
189.5587606094305
 30
0.0
 10
89.7711722662015
 20
189.5151172905633
 30
0.0
 10
89.721687058356
 20
189.4297451111623
 30
0.0
 10
89.69364128029014
 20
189.3878013242349
 30
0.0
 10
89.64568322158259
 20
189.3261130094452
 30
0.0
 10
89.6287190733066
 20
189.3057899577341
 30
0.0
 10
89.59343095140198
 20
189.2664604570044
 30
0.0
 10
89.5750251027915
 20
189.247344524993
 30
0.0
 10
89.55583338955743
 20
189.2287941542191
 30
0.0
  0
SPLINE
  5
DC
330
1F
100
AcDbEntity
  8
1
  6
Continuous
 62
   155
370
    25
100
AcDbSpline
210
0.0
220
0.0
230
1.0
 70
     8
 71
     3
 72
    22
 73
    18
 74
     0
 42
0.000000001
 43
0.0000000001
 40
0.0
 40
0.0
 40
0.0
 40
0.0
 40
0.1249999999999972
 40
0.1249999999999972
 40
0.1874999999999974
 40
0.1874999999999974
 40
0.2499999999999977
 40
0.2499999999999977
 40
0.3749999999999981
 40
0.3749999999999981
 40
0.4999999999999986
 40
0.4999999999999986
 40
0.7499999999999993
 40
0.7499999999999993
 40
0.8749999999999997
 40
0.8749999999999997
 40
1.0
 40
1.0
 40
1.0
 40
1.0
 10
131.4731554353566
 20
189.1453915321996
 30
0.0
 10
131.4363625315895
 20
189.1066557705882
 30
0.0
 10
131.3977606040337
 20
189.0715273558704
 30
0.0
 10
131.3374329917838
 20
189.0236266768255
 30
0.0
 10
131.3169170717265
 20
189.008462757149
 30
0.0
 10
131.2750932437913
 20
188.9796821462837
 30
0.0
 10
131.2536919111978
 20
188.9660189230943
 30
0.0
 10
131.1897393770864
 20
188.9280939269315
 30
0.0
 10
131.1470443322102
 20
188.906563033918
 30
0.0
 10
131.0613930059158
 20
188.8696643756662
 30
0.0
 10
131.0182569618401
 20
188.8542888823621
 30
0.0
 10
130.8916195586685
 20
188.8171800973735
 30
0.0
 10
130.8096619649188
 20
188.803685740878
 30
0.0
 10
130.6886990027585
 20
188.7963358655687
 30
0.0
 10
130.6487308102417
 20
188.7961046409553
 30
0.0
 10
130.5703117084661
 20
188.7997193436241
 30
0.0
 10
130.5317273781336
 20
188.8035553773297
 30
0.0
 10
130.4936910637496
 20
188.8093050846484
 30
0.0
  0
SPLINE
  5
DD
330
1F
100
AcDbEntity
  8
1
  6
Continuous
 62
   155
370
    25
100
AcDbSpline
210
0.0
220
0.0
230
1.0
 70
    24
 71
     3
 72
     8
 73
     4
 74
     0
 42
0.000000001
 43
0.0000000001
 40
0.0
 40
0.0
 40
0.0
 40
0.0
 40
1.0
 40
1.0
 40
1.0
 40
1.0
 10
130.4936910637496
 20
188.8093050846484
 30
0.0
 10
130.4524860286631
 20
188.815533787288
 30
0.0
 10
130.4113217512122
 20
188.8217563288555
 30
0.0
 10
130.3701941141875
 20
188.8279733317233
 30
0.0
  0
SPLINE
  5
DE
330
1F
100
AcDbEntity
  8
1
  6
Continuous
 62
   155
370
    25
100
AcDbSpline
210
0.0
220
0.0
230
1.0
 70
     8
 71
     3
 72
    30
 73
    26
 74
     0
 42
0.000000001
 43
0.0000000001
 40
0.0
 40
0.0
 40
0.0
 40
0.0
 40
0.1249999999999988
 40
0.1249999999999988
 40
0.1874999999999999
 40
0.1874999999999999
 40
0.2500000000000012
 40
0.2500000000000012
 40
0.3125000000000024
 40
0.3125000000000024
 40
0.3750000000000036
 40
0.3750000000000036
 40
0.4375000000000048
 40
0.4375000000000048
 40
0.500000000000006
 40
0.500000000000006
 40
0.5625000000000072
 40
0.5625000000000072
 40
0.6250000000000085
 40
0.6250000000000085
 40
0.7500000000000056
 40
0.7500000000000056
 40
0.8750000000000028
 40
0.8750000000000028
 40
1.0
 40
1.0
 40
1.0
 40
1.0
 10
130.3701941141875
 20
188.8279733317233
 30
0.0
 10
130.3411985770479
 20
188.8323564023441
 30
0.0
 10
130.3114164335409
 20
188.8327470387264
 30
0.0
 10
130.2654586475794
 20
188.8262975261518
 30
0.0
 10
130.2498114655899
 20
188.8229179797474
 30
0.0
 10
130.2187761984647
 20
188.8135517494212
 30
0.0
 10
130.2033582803942
 20
188.8075826785189
 30
0.0
 10
130.1727766011495
 20
188.7926809492097
 30
0.0
 10
130.1574655198609
 20
188.7836355608377
 30
0.0
 10
130.1281795594658
 20
188.7625668474975
 30
0.0
 10
130.1141583917219
 20
188.750563401588
 30
0.0
 10
130.0876106514961
 20
188.7230775412076
 30
0.0
 10
130.0752696319913
 20
188.7077189317899
 30
0.0
 10
130.0536161459305
 20
188.6746204450802
 30
0.0
 10
130.0440799550407
 20
188.6564617416812
 30
0.0
 10
130.0289979106524
 20
188.6192302794164
 30
0.0
 10
130.0232748008474
 20
188.5998629796219
 30
0.0
 10
130.015697536012
 20
188.560635690415
 30
0.0
 10
130.0139015806015
 20
188.5412677461915
 30
0.0
 10
130.0137783174986
 20
188.4838269581916
 30
0.0
 10
130.0208517781176
 20
188.44763517797
 30
0.0
 10
130.0441495648499
 20
188.3835226401677
 30
0.0
 10
130.0602891961817
 20
188.3553254750961
 30
0.0
 10
130.0985750158719
 20
188.3062453596138
 30
0.0
 10
130.1203412862932
 20
188.2857827258832
 30
0.0
 10
130.1442647916209
 20
188.2687786356373
 30
0.0
  0
SPLINE
  5
DF
330
1F
100
AcDbEntity
  8
1
  6
Continuous
 62
   155
370
    25
100
AcDbSpline
210
0.0
220
0.0
230
1.0
 70
    24
 71
     3
 72
     8
 73
     4
 74
     0
 42
0.000000001
 43
0.0000000001
 40
0.0
 40
0.0
 40
0.0
 40
0.0
 40
1.0
 40
1.0
 40
1.0
 40
1.0
 10
130.1442647916209
 20
188.2687786356373
 30
0.0
 10
130.1781682309079
 20
188.2446811159225
 30
0.0
 10
130.2121018746159
 20
188.220562127836
 30
0.0
 10
130.2460691167536
 20
188.1964192590214
 30
0.0
  0
SPLINE
  5
E0
330
1F
100
AcDbEntity
  8
1
  6
Continuous
 62
   155
370
    25
100
AcDbSpline
210
0.0
220
0.0
230
1.0
 70
     8
 71
     3
 72
    22
 73
    18
 74
     0
 42
0.000000001
 43
0.0000000001
 40
0.0
 40
0.0
 40
0.0
 40
0.0
 40
0.2499999999999979
 40
0.2499999999999979
 40
0.3749999999999981
 40
0.3749999999999981
 40
0.4999999999999982
 40
0.4999999999999982
 40
0.6249999999999987
 40
0.6249999999999987
 40
0.749999999999999
 40
0.749999999999999
 40
0.8749999999999994
 40
0.8749999999999994
 40
0.9374999999999998
 40
0.9374999999999998
 40
1.0
 40
1.0
 40
1.0
 40
1.0
 10
130.2460691167536
 20
188.1964192590214
 30
0.0
 10
130.3087267266752
 20
188.1518841610453
 30
0.0
 10
130.3672580150097
 20
188.1007304358318
 30
0.0
 10
130.4485318389003
 20
188.0123921228934
 30
0.0
 10
130.4745280670699
 20
187.9809911308421
 30
0.0
 10
130.5241221257623
 20
187.9135887308589
 30
0.0
 10
130.5478547732436
 20
187.8773409315626
 30
0.0
 10
130.5916242926411
 20
187.8007130885532
 30
0.0
 10
130.6117202931807
 20
187.7603212395115
 30
0.0
 10
130.6478036723315
 20
187.674446020026
 30
0.0
 10
130.6638843613066
 20
187.6285431568842
 30
0.0
 10
130.6900913872613
 20
187.5334101247626
 30
0.0
 10
130.7003503218467
 20
187.4840076990013
 30
0.0
 10
130.7107353863564
 20
187.4065632397644
 30
0.0
 10
130.7133404735555
 20
187.3802191131225
 30
0.0
 10
130.7166585125318
 20
187.3274833831497
 30
0.0
 10
130.7173921501295
 20
187.3009567084868
 30
0.0
 10
130.7171715582749
 20
187.2742657766402
 30
0.0
  0
SPLINE
  5
E1
330
1F
100
AcDbEntity
  8
1
  6
Continuous
 62
   155
370
    25
100
AcDbSpline
210
0.0
220
0.0
230
1.0
 70
     8
 71
     3
 72
    22
 73
    18
 74
     0
 42
0.000000001
 43
0.0000000001
 40
0.0
 40
0.0
 40
0.0
 40
0.0
 40
0.1250000000000027
 40
0.1250000000000027
 40
0.1875000000000042
 40
0.1875000000000042
 40
0.2500000000000058
 40
0.2500000000000058
 40
0.3750000000000052
 40
0.3750000000000052
 40
0.5000000000000046
 40
0.5000000000000046
 40
0.7500000000000031
 40
0.7500000000000031
 40
0.8750000000000016
 40
0.8750000000000016
 40
1.0
 40
1.0
 40
1.0
 40
1.0
 10
130.7179870053333
 20
187.1808247989729
 30
0.0
 10
130.7193608475261
 20
187.1274166365739
 30
0.0
 10
130.7169045363009
 20
187.0752809825937
 30
0.0
 10
130.7081173083966
 20
186.9987524174696
 30
0.0
 10
130.7043328824026
 20
186.9735232664803
 30
0.0
 10
130.6951100775254
 20
186.9235993117265
 30
0.0
 10
130.6896384402808
 20
186.8988050042328
 30
0.0
 10
130.6712339446659
 20
186.8267658417527
 30
0.0
 10
130.6562685395858
 20
186.781351236853
 30
0.0
 10
130.62179539731
 20
186.6946959629409
 30
0.0
 10
130.6021656872503
 20
186.6533219488831
 30
0.0
 10
130.5388587578488
 20
186.5375349459005
 30
0.0
 10
130.4904479589601
 20
186.4700406631281
 30
0.0
 10
130.41011236827
 20
186.3793109406397
 30
0.0
 10
130.3820139775324
 20
186.3508855053499
 30
0.0
 10
130.324007161989
 20
186.2979906641095
 30
0.0
 10
130.2940114290793
 20
186.273419916393
 30
0.0
 10
130.2630501123677
 20
186.2505898937507
 30
0.0
  0
SPLINE
  5
E2
330
1F
100
AcDbEntity
  8
1
  6
Continuous
 62
   155
370
    25
100
AcDbSpline
210
0.0
220
0.0
230
1.0
 70
    24
 71
     3
 72
     8
 73
     4
 74
     0
 42
0.000000001
 43
0.0000000001
 40
0.0
 40
0.0
 40
0.0
 40
0.0
 40
1.0
 40
1.0
 40
1.0
 40
1.0
 10
130.2630501123677
 20
186.2505898937507
 30
0.0
 10
130.2295093947646
 20
186.2258578918965
 30
0.0
 10
130.1960018536978
 20
186.2011503535069
 30
0.0
 10
130.162524137777
 20
186.1764648073589
 30
0.0
  0
SPLINE
  5
E3
330
1F
100
AcDbEntity
  8
1
  6
Continuous
 62
   155
370
    25
100
AcDbSpline
210
0.0
220
0.0
230
1.0
 70
     8
 71
     3
 72
    30
 73
    26
 74
     0
 42
0.000000001
 43
0.0000000001
 40
0.0
 40
0.0
 40
0.0
 40
0.0
 40
0.1250000000000012
 40
0.1250000000000012
 40
0.1875000000000004
 40
0.1875000000000004
 40
0.2499999999999995
 40
0.2499999999999995
 40
0.3124999999999986
 40
0.3124999999999986
 40
0.3749999999999978
 40
0.3749999999999978
 40
0.4374999999999969
 40
0.4374999999999969
 40
0.4999999999999961
 40
0.4999999999999961
 40
0.5624999999999952
 40
0.5624999999999952
 40
0.6249999999999944
 40
0.6249999999999944
 40
0.7499999999999963
 40
0.7499999999999963
 40
0.8749999999999982
 40
0.8749999999999982
 40
1.0
 40
1.0
 40
1.0
 40
1.0
 10
130.162524137777
 20
186.1764648073589
 30
0.0
 10
130.1389230441834
 20
186.1590620106321
 30
0.0
 10
130.1175876620151
 20
186.1382796200438
 30
0.0
 10
130.0896500648067
 20
186.1012208867535
 30
0.0
 10
130.0809753048574
 20
186.0877664780826
 30
0.0
 10
130.0656536121475
 20
186.0591995717534
 30
0.0
 10
130.0589722619671
 20
186.0440769748092
 30
0.0
 10
130.0478845404547
 20
186.0119147669897
 30
0.0
 10
130.0434539145887
 20
185.9946915652275
 30
0.0
 10
130.0376435717141
 20
185.9590868213251
 30
0.0
 10
130.036216636887
 20
185.9406846585595
 30
0.0
 10
130.0368799520991
 20
185.902475194799
 30
0.0
 10
130.039013499035
 20
185.8828905684124
 30
0.0
 10
130.0471062633696
 20
185.8441745872406
 30
0.0
 10
130.0532033498476
 20
185.824591130631
 30
0.0
 10
130.0688647342161
 20
185.7876008697793
 30
0.0
 10
130.0785136539736
 20
185.7698573170986
 30
0.0
 10
130.1008924460668
 20
185.7367630269181
 30
0.0
 10
130.1133175474455
 20
185.7217977585549
 30
0.0
 10
130.1538485701775
 20
185.6810921426245
 30
0.0
 10
130.1844410806709
 20
185.660503151739
 30
0.0
 10
130.2462477161313
 20
185.6316432531251
 30
0.0
 10
130.2776008799364
 20
185.6231165009395
 30
0.0
 10
130.3393761354261
 20
185.6154838416346
 30
0.0
 10
130.3692368759735
 20
185.6164053067871
 30
0.0
 10
130.3981783433271
 20
185.6212982896973
 30
0.0
  0
SPLINE
  5
E4
330
1F
100
AcDbEntity
  8
1
  6
Continuous
 62
   155
370
    25
100
AcDbSpline
210
0.0
220
0.0
230
1.0
 70
    24
 71
     3
 72
     8
 73
     4
 74
     0
 42
0.000000001
 43
0.0000000001
 40
0.0
 40
0.0
 40
0.0
 40
0.0
 40
1.0
 40
1.0
 40
1.0
 40
1.0
 10
130.3981783433271
 20
185.6212982896973
 30
0.0
 10
130.4391912147527
 20
185.6282321219225
 30
0.0
 10
130.4802406243603
 20
185.6351721314676
 30
0.0
 10
130.5213306778703
 20
185.6421190124652
 30
0.0
  0
SPLINE
  5
E5
330
1F
100
AcDbEntity
  8
1
  6
Continuous
 62
   155
370
    25
100
AcDbSpline
210
0.0
220
0.0
230
1.0
 70
     8
 71
     3
 72
    22
 73
    18
 74
     0
 42
0.000000001
 43
0.0000000001
 40
0.0
 40
0.0
 40
0.0
 40
0.0
 40
0.2500000000000008
 40
0.2500000000000008
 40
0.3750000000000012
 40
0.3750000000000012
 40
0.5000000000000016
 40
0.5000000000000016
 40
0.6250000000000018
 40
0.6250000000000018
 40
0.7500000000000021
 40
0.7500000000000021
 40
0.8750000000000023
 40
0.8750000000000023
 40
0.9375000000000012
 40
0.9375000000000012
 40
1.0
 40
1.0
 40
1.0
 40
1.0
 10
130.5213306778703
 20
185.6421190124652
 30
0.0
 10
130.597127749134
 20
185.6549336279027
 30
0.0
 10
130.6746869634253
 20
185.6601503021986
 30
0.0
 10
130.7946207808587
 20
185.6551549004851
 30
0.0
 10
130.835206657051
 20
185.651333141302
 30
0.0
 10
130.9179353087053
 20
185.6387407749205
 30
0.0
 10
130.9603477352785
 20
185.6298912739301
 30
0.0
 10
131.0454819464648
 20
185.6066568045684
 30
0.0
 10
131.088253403974
 20
185.5923054131781
 30
0.0
 10
131.1744910277884
 20
185.5570972818382
 30
0.0
 10
131.2183200388331
 20
185.5360098077889
 30
0.0
 10
131.3041208037364
 20
185.4872714811038
 30
0.0
 10
131.3463077382934
 20
185.4595927905361
 30
0.0
 10
131.4084122173854
 20
185.4121748731022
 30
0.0
 10
131.4288825320214
 20
185.395388719215
 30
0.0
 10
131.4685184597356
 20
185.3604451638578
 30
0.0
 10
131.4877942680551
 20
185.3422068444164
 30
0.0
 10
131.50651138959
 20
185.323177762812
 30
0.0
  0
SPLINE
  5
E6
330
1F
100
AcDbEntity
  8
1
  6
Continuous
 62
   155
370
    25
100
AcDbSpline
210
0.0
220
0.0
230
1.0
 70
     8
 71
     3
 72
    22
 73
    18
 74
     0
 42
0.000000001
 43
0.0000000001
 40
0.0
 40
0.0
 40
0.0
 40
0.0
 40
0.1250000000000031
 40
0.1250000000000031
 40
0.187500000000003
 40
0.187500000000003
 40
0.2500000000000029
 40
0.2500000000000029
 40
0.3750000000000028
 40
0.3750000000000028
 40
0.5000000000000027
 40
0.5000000000000027
 40
0.7500000000000016
 40
0.7500000000000016
 40
0.8750000000000008
 40
0.8750000000000008
 40
1.0
 40
1.0
 40
1.0
 40
1.0
 10
131.5731607466839
 20
185.2576816220074
 30
0.0
 10
131.6118965082953
 20
185.2208887182403
 30
0.0
 10
131.6470249230131
 20
185.1822867906845
 30
0.0
 10
131.694925602058
 20
185.1219591784346
 30
0.0
 10
131.7100895217345
 20
185.1014432583773
 30
0.0
 10
131.7388701325998
 20
185.0596194304421
 30
0.0
 10
131.7525333557892
 20
185.0382180978487
 30
0.0
 10
131.790458351952
 20
184.9742655637372
 30
0.0
 10
131.8119892449655
 20
184.9315705188611
 30
0.0
 10
131.8488879032173
 20
184.8459191925667
 30
0.0
 10
131.8642633965214
 20
184.802783148491
 30
0.0
 10
131.90137218151
 20
184.6761457453194
 30
0.0
 10
131.9148665380055
 20
184.5941881515697
 30
0.0
 10
131.9222164133148
 20
184.4732251894093
 30
0.0
 10
131.9224476379282
 20
184.4332569968925
 30
0.0
 10
131.9188329352594
 20
184.354837895117
 30
0.0
 10
131.9149969015538
 20
184.3162535647844
 30
0.0
 10
131.9092471942351
 20
184.2782172504004
 30
0.0
  0
SPLINE
  5
E7
330
1F
100
AcDbEntity
  8
1
  6
Continuous
 62
   155
370
    25
100
AcDbSpline
210
0.0
220
0.0
230
1.0
 70
    24
 71
     3
 72
     8
 73
     4
 74
     0
 42
0.000000001
 43
0.0000000001
 40
0.0
 40
0.0
 40
0.0
 40
0.0
 40
1.0
 40
1.0
 40
1.0
 40
1.0
 10
131.9092471942351
 20
184.2782172504004
 30
0.0
 10
131.9030184915955
 20
184.237012215314
 30
0.0
 10
131.896795950028
 20
184.195847937863
 30
0.0
 10
131.8905789471602
 20
184.1547203008383
 30
0.0
  0
SPLINE
  5
E8
330
1F
100
AcDbEntity
  8
1
  6
Continuous
 62
   155
370
    25
100
AcDbSpline
210
0.0
220
0.0
230
1.0
 70
     8
 71
     3
 72
    30
 73
    26
 74
     0
 42
0.000000001
 43
0.0000000001
 40
0.0
 40
0.0
 40
0.0
 40
0.0
 40
0.1249999999999941
 40
0.1249999999999941
 40
0.1874999999999935
 40
0.1874999999999935
 40
0.2499999999999928
 40
0.2499999999999928
 40
0.3124999999999922
 40
0.3124999999999922
 40
0.3749999999999915
 40
0.3749999999999915
 40
0.4374999999999909
 40
0.4374999999999909
 40
0.4999999999999902
 40
0.4999999999999902
 40
0.5624999999999897
 40
0.5624999999999897
 40
0.6249999999999889
 40
0.6249999999999889
 40
0.7499999999999926
 40
0.7499999999999926
 40
0.8749999999999963
 40
0.8749999999999963
 40
1.0
 40
1.0
 40
1.0
 40
1.0
 10
131.8905789471602
 20
184.1547203008383
 30
0.0
 10
131.8861958765394
 20
184.1257247636987
 30
0.0
 10
131.8858052401571
 20
184.0959426201917
 30
0.0
 10
131.8922547527317
 20
184.0499848342301
 30
0.0
 10
131.8956342991361
 20
184.0343376522407
 30
0.0
 10
131.9050005294623
 20
184.0033023851155
 30
0.0
 10
131.9109696003646
 20
183.987884467045
 30
0.0
 10
131.9258713296738
 20
183.9573027878003
 30
0.0
 10
131.9349167180458
 20
183.9419917065117
 30
0.0
 10
131.955985431386
 20
183.9127057461167
 30
0.0
 10
131.9679888772955
 20
183.8986845783727
 30
0.0
 10
131.9954747376759
 20
183.872136838147
 30
0.0
 10
132.0108333470936
 20
183.8597958186421
 30
0.0
 10
132.0439318338033
 20
183.8381423325814
 30
0.0
 10
132.0620905372023
 20
183.8286061416915
 30
0.0
 10
132.0993219994671
 20
183.8135240973033
 30
0.0
 10
132.1186892992616
 20
183.8078009874982
 30
0.0
 10
132.1579165884685
 20
183.8002237226628
 30
0.0
 10
132.177284532692
 20
183.7984277672523
 30
0.0
 10
132.234725320692
 20
183.7983045041495
 30
0.0
 10
132.2709171009135
 20
183.8053779647684
 30
0.0
 10
132.3350296387158
 20
183.8286757515008
 30
0.0
 10
132.3632268037874
 20
183.8448153828325
 30
0.0
 10
132.4123069192697
 20
183.8831012025227
 30
0.0
 10
132.4327695530003
 20
183.904867472944
 30
0.0
 10
132.4497736432461
 20
183.9287909782716
 30
0.0
  0
SPLINE
  5
E9
330
1F
100
AcDbEntity
  8
1
  6
Continuous
 62
   155
370
    25
100
AcDbSpline
210
0.0
220
0.0
230
1.0
 70
    24
 71
     3
 72
     8
 73
     4
 74
     0
 42
0.000000001
 43
0.0000000001
 40
0.0
 40
0.0
 40
0.0
 40
0.0
 40
1.0
 40
1.0
 40
1.0
 40
1.0
 10
132.4497736432461
 20
183.9287909782716
 30
0.0
 10
132.473871162961
 20
183.9626944175587
 30
0.0
 10
132.4979901510474
 20
183.9966280612667
 30
0.0
 10
132.5221330198621
 20
184.0305953034045
 30
0.0
  0
SPLINE
  5
EA
330
1F
100
AcDbEntity
  8
1
  6
Continuous
 62
   155
370
    25
100
AcDbSpline
210
0.0
220
0.0
230
1.0
 70
     8
 71
     3
 72
    22
 73
    18
 74
     0
 42
0.000000001
 43
0.0000000001
 40
0.0
 40
0.0
 40
0.0
 40
0.0
 40
0.2499999999999983
 40
0.2499999999999983
 40
0.3749999999999986
 40
0.3749999999999986
 40
0.4999999999999989
 40
0.4999999999999989
 40
0.6249999999999992
 40
0.6249999999999992
 40
0.7499999999999994
 40
0.7499999999999994
 40
0.8749999999999998
 40
0.8749999999999998
 40
0.9374999999999999
 40
0.9374999999999999
 40
1.0
 40
1.0
 40
1.0
 40
1.0
 10
132.5221330198621
 20
184.0305953034045
 30
0.0
 10
132.5666681178382
 20
184.093252913326
 30
0.0
 10
132.6178218430516
 20
184.1517842016605
 30
0.0
 10
132.7061601559901
 20
184.2330580255511
 30
0.0
 10
132.7375611480414
 20
184.2590542537207
 30
0.0
 10
132.8049635480246
 20
184.3086483124132
 30
0.0
 10
132.8412113473209
 20
184.3323809598945
 30
0.0
 10
132.9178391903303
 20
184.3761504792919
 30
0.0
 10
132.958231039372
 20
184.3962464798315
 30
0.0
 10
133.0441062588576
 20
184.4323298589823
 30
0.0
 10
133.0900091219993
 20
184.4484105479574
 30
0.0
 10
133.1851421541209
 20
184.4746175739121
 30
0.0
 10
133.2345445798822
 20
184.4848765084975
 30
0.0
 10
133.3119890391191
 20
184.4952615730073
 30
0.0
 10
133.338333165761
 20
184.4978666602063
 30
0.0
 10
133.3910688957338
 20
184.5011846991827
 30
0.0
 10
133.4175955703967
 20
184.5019183367804
 30
0.0
 10
133.4442865022433
 20
184.5016977449258
 30
0.0
  0
SPLINE
  5
EB
330
1F
100
AcDbEntity
  8
1
  6
Continuous
 62
   155
370
    25
100
AcDbSpline
210
0.0
220
0.0
230
1.0
 70
     8
 71
     3
 72
    22
 73
    18
 74
     0
 42
0.000000001
 43
0.0000000001
 40
0.0
 40
0.0
 40
0.0
 40
0.0
 40
0.1250000000000027
 40
0.1250000000000027
 40
0.1875000000000042
 40
0.1875000000000042
 40
0.2500000000000058
 40
0.2500000000000058
 40
0.3750000000000052
 40
0.3750000000000052
 40
0.5000000000000046
 40
0.5000000000000046
 40
0.7500000000000033
 40
0.7500000000000033
 40
0.8750000000000017
 40
0.8750000000000017
 40
1.0
 40
1.0
 40
1.0
 40
1.0
 10
133.5377274799106
 20
184.5025131919841
 30
0.0
 10
133.5911356423096
 20
184.503887034177
 30
0.0
 10
133.6432712962898
 20
184.5014307229518
 30
0.0
 10
133.7197998614139
 20
184.4926434950474
 30
0.0
 10
133.7450290124032
 20
184.4888590690534
 30
0.0
 10
133.794952967157
 20
184.4796362641762
 30
0.0
 10
133.8197472746507
 20
184.4741646269317
 30
0.0
 10
133.8917864371308
 20
184.4557601313168
 30
0.0
 10
133.9372010420305
 20
184.4407947262366
 30
0.0
 10
134.0238563159426
 20
184.4063215839608
 30
0.0
 10
134.0652303300004
 20
184.3866918739011
 30
0.0
 10
134.181017332983
 20
184.3233849444996
 30
0.0
 10
134.2485116157553
 20
184.2749741456109
 30
0.0
 10
134.3392413382438
 20
184.1946385549208
 30
0.0
 10
134.3676667735336
 20
184.1665401641832
 30
0.0
 10
134.420561614774
 20
184.1085333486398
 30
0.0
 10
134.4451323624905
 20
184.0785376157301
 30
0.0
 10
134.4679623851328
 20
184.0475762990185
 30
0.0
  0
SPLINE
  5
EC
330
1F
100
AcDbEntity
  8
1
  6
Continuous
 62
   155
370
    25
100
AcDbSpline
210
0.0
220
0.0
230
1.0
 70
    24
 71
     3
 72
     8
 73
     4
 74
     0
 42
0.000000001
 43
0.0000000001
 40
0.0
 40
0.0
 40
0.0
 40
0.0
 40
1.0
 40
1.0
 40
1.0
 40
1.0
 10
134.4679623851328
 20
184.0475762990185
 30
0.0
 10
134.492694386987
 20
184.0140355814154
 30
0.0
 10
134.5174019253766
 20
183.9805280403486
 30
0.0
 10
134.5420874715246
 20
183.9470503244278
 30
0.0
  0
SPLINE
  5
ED
330
1F
100
AcDbEntity
  8
1
  6
Continuous
 62
   155
370
    25
100
AcDbSpline
210
0.0
220
0.0
230
1.0
 70
     8
 71
     3
 72
    30
 73
    26
 74
     0
 42
0.000000001
 43
0.0000000001
 40
0.0
 40
0.0
 40
0.0
 40
0.0
 40
0.1249999999999983
 40
0.1249999999999983
 40
0.1874999999999976
 40
0.1874999999999976
 40
0.249999999999997
 40
0.249999999999997
 40
0.3124999999999963
 40
0.3124999999999963
 40
0.3749999999999957
 40
0.3749999999999957
 40
0.4374999999999951
 40
0.4374999999999951
 40
0.4999999999999944
 40
0.4999999999999944
 40
0.5624999999999938
 40
0.5624999999999938
 40
0.6249999999999931
 40
0.6249999999999931
 40
0.7499999999999954
 40
0.7499999999999954
 40
0.8749999999999977
 40
0.8749999999999977
 40
1.0
 40
1.0
 40
1.0
 40
1.0
 10
134.5420874715246
 20
183.9470503244278
 30
0.0
 10
134.5594902682514
 20
183.9234492308342
 30
0.0
 10
134.5802726588396
 20
183.9021138486659
 30
0.0
 10
134.61733139213
 20
183.8741762514575
 30
0.0
 10
134.6307858008009
 20
183.8655014915082
 30
0.0
 10
134.6593527071302
 20
183.8501797987983
 30
0.0
 10
134.6744753040743
 20
183.8434984486179
 30
0.0
 10
134.7066375118938
 20
183.8324107271055
 30
0.0
 10
134.723860713656
 20
183.8279801012395
 30
0.0
 10
134.7594654575584
 20
183.8221697583649
 30
0.0
 10
134.7778676203241
 20
183.8207428235378
 30
0.0
 10
134.8160770840845
 20
183.8214061387499
 30
0.0
 10
134.835661710471
 20
183.8235396856859
 30
0.0
 10
134.8743776916429
 20
183.8316324500204
 30
0.0
 10
134.8939611482525
 20
183.8377295364984
 30
0.0
 10
134.9309514091042
 20
183.853390920867
 30
0.0
 10
134.9486949617849
 20
183.8630398406244
 30
0.0
 10
134.9817892519654
 20
183.8854186327176
 30
0.0
 10
134.9967545203286
 20
183.8978437340963
 30
0.0
 10
135.037460136259
 20
183.9383747568283
 30
0.0
 10
135.0580491271445
 20
183.9689672673217
 30
0.0
 10
135.0869090257584
 20
184.0307739027821
 30
0.0
 10
135.095435777944
 20
184.0621270665872
 30
0.0
 10
135.1030684372489
 20
184.1239023220769
 30
0.0
 10
135.1021469720964
 20
184.1537630626243
 30
0.0
 10
135.0972539891862
 20
184.182704529978
 30
0.0
  0
SPLINE
  5
EE
330
1F
100
AcDbEntity
  8
1
  6
Continuous
 62
   155
370
    25
100
AcDbSpline
210
0.0
220
0.0
230
1.0
 70
    24
 71
     3
 72
     8
 73
     4
 74
     0
 42
0.000000001
 43
0.0000000001
 40
0.0
 40
0.0
 40
0.0
 40
0.0
 40
1.0
 40
1.0
 40
1.0
 40
1.0
 10
135.0972539891862
 20
184.182704529978
 30
0.0
 10
135.090320156961
 20
184.2237174014035
 30
0.0
 10
135.0833801474159
 20
184.2647668110111
 30
0.0
 10
135.0764332664183
 20
184.3058568645211
 30
0.0
  0
SPLINE
  5
EF
330
1F
100
AcDbEntity
  8
1
  6
Continuous
 62
   155
370
    25
100
AcDbSpline
210
0.0
220
0.0
230
1.0
 70
     8
 71
     3
 72
    22
 73
    18
 74
     0
 42
0.000000001
 43
0.0000000001
 40
0.0
 40
0.0
 40
0.0
 40
0.0
 40
0.2499999999999998
 40
0.2499999999999998
 40
0.3749999999999998
 40
0.3749999999999998
 40
0.4999999999999999
 40
0.4999999999999999
 40
0.6249999999999999
 40
0.6249999999999999
 40
0.7499999999999999
 40
0.7499999999999999
 40
0.875
 40
0.875
 40
0.9374999999999999
 40
0.9374999999999999
 40
1.0
 40
1.0
 40
1.0
 40
1.0
 10
135.0764332664183
 20
184.3058568645211
 30
0.0
 10
135.0636186514927
 20
184.3816539327569
 30
0.0
 10
135.0584019771129
 20
184.4592131438846
 30
0.0
 10
135.0633973775858
 20
184.5791469562322
 30
0.0
 10
135.0672191361665
 20
184.6197328306712
 30
0.0
 10
135.0798115008507
 20
184.7024614786438
 30
0.0
 10
135.0886610007305
 20
184.7448739032912
 30
0.0
 10
135.1118954674001
 20
184.8300081109431
 30
0.0
 10
135.1262468571711
 20
184.8727795666509
 30
0.0
 10
135.1614549844826
 20
184.9590171867387
 30
0.0
 10
135.1825424561465
 20
185.0028461960046
 30
0.0
 10
135.2312807776824
 20
185.0886469581714
 30
0.0
 10
135.2589594653101
 20
185.1308338914225
 30
0.0
 10
135.3063773775214
 20
185.1929383686981
 30
0.0
 10
135.3231635300566
 20
185.2134086836994
 30
0.0
 10
135.3581070932969
 20
185.2530446231244
 30
0.0
 10
135.3763454208926
 20
185.2723204413539
 30
0.0
 10
135.3953745160715
 20
185.2910375762408
 30
0.0
  0
SPLINE
  5
F0
330
1F
100
AcDbEntity
  8
1
  6
Continuous
 62
   155
370
    25
100
AcDbSpline
210
0.0
220
0.0
230
1.0
 70
     8
 71
     3
 72
    22
 73
    18
 74
     0
 42
0.000000001
 43
0.0000000001
 40
0.0
 40
0.0
 40
0.0
 40
0.0
 40
0.1249999999999982
 40
0.1249999999999982
 40
0.1874999999999989
 40
0.1874999999999989
 40
0.2499999999999996
 40
0.2499999999999996
 40
0.3749999999999997
 40
0.3749999999999997
 40
0.4999999999999998
 40
0.4999999999999998
 40
0.75
 40
0.75
 40
0.875
 40
0.875
 40
1.0
 40
1.0
 40
1.0
 40
1.0
 10
135.4608706568761
 20
185.3576869333347
 30
0.0
 10
135.4976635606432
 20
185.3964226949461
 30
0.0
 10
135.5362654881989
 20
185.431551109664
 30
0.0
 10
135.5965931004489
 20
185.4794517887088
 30
0.0
 10
135.6171090205061
 20
185.4946157083853
 30
0.0
 10
135.6589328484414
 20
185.5233963192506
 30
0.0
 10
135.6803341810348
 20
185.53705954244
 30
0.0
 10
135.7442867151462
 20
185.5749845386028
 30
0.0
 10
135.7869817600224
 20
185.5965154316163
 30
0.0
 10
135.8726330863168
 20
185.6334140898681
 30
0.0
 10
135.9157691303925
 20
185.6487895831722
 30
0.0
 10
136.0424065335641
 20
185.6858983681608
 30
0.0
 10
136.1243641273138
 20
185.6993927246563
 30
0.0
 10
136.2453270894742
 20
185.7067425999656
 30
0.0
 10
136.285295281991
 20
185.706973824579
 30
0.0
 10
136.3637143837665
 20
185.7033591219102
 30
0.0
 10
136.4022987140991
 20
185.6995230882046
 30
0.0
 10
136.4403350284831
 20
185.6937733808859
 30
0.0
  0
SPLINE
  5
F1
330
1F
100
AcDbEntity
  8
1
  6
Continuous
 62
   155
370
    25
100
AcDbSpline
210
0.0
220
0.0
230
1.0
 70
    24
 71
     3
 72
     8
 73
     4
 74
     0
 42
0.000000001
 43
0.0000000001
 40
0.0
 40
0.0
 40
0.0
 40
0.0
 40
1.0
 40
1.0
 40
1.0
 40
1.0
 10
136.4403350284831
 20
185.6937733808859
 30
0.0
 10
136.4815400635695
 20
185.6875446782463
 30
0.0
 10
136.5227043410204
 20
185.6813221366788
 30
0.0
 10
136.5638319780452
 20
185.6751051338111
 30
0.0
  0
SPLINE
  5
F2
330
1F
100
AcDbEntity
  8
1
  6
Continuous
 62
   155
370
    25
100
AcDbSpline
210
0.0
220
0.0
230
1.0
 70
     8
 71
     3
 72
    30
 73
    26
 74
     0
 42
0.000000001
 43
0.0000000001
 40
0.0
 40
0.0
 40
0.0
 40
0.0
 40
0.1250000000000001
 40
0.1250000000000001
 40
0.1875000000000012
 40
0.1875000000000012
 40
0.2500000000000023
 40
0.2500000000000023
 40
0.3125000000000034
 40
0.3125000000000034
 40
0.3750000000000045
 40
0.3750000000000045
 40
0.4375000000000056
 40
0.4375000000000056
 40
0.5000000000000067
 40
0.5000000000000067
 40
0.5625000000000077
 40
0.5625000000000077
 40
0.6250000000000088
 40
0.6250000000000088
 40
0.7500000000000059
 40
0.7500000000000059
 40
0.8750000000000029
 40
0.8750000000000029
 40
1.0
 40
1.0
 40
1.0
 40
1.0
 10
136.5638319780452
 20
185.6751051338111
 30
0.0
 10
136.5928275151848
 20
185.6707220631902
 30
0.0
 10
136.6226096586917
 20
185.6703314268079
 30
0.0
 10
136.6685674446533
 20
185.6767809393826
 30
0.0
 10
136.6842146266428
 20
185.6801604857869
 30
0.0
 10
136.7152498937679
 20
185.6895267161131
 30
0.0
 10
136.7306678118385
 20
185.6954957870154
 30
0.0
 10
136.7612494910832
 20
185.7103975163247
 30
0.0
 10
136.7765605723717
 20
185.7194429046966
 30
0.0
 10
136.8058465327668
 20
185.7405116180368
 30
0.0
 10
136.8198677005107
 20
185.7525150639463
 30
0.0
 10
136.8464154407365
 20
185.7800009243267
 30
0.0
 10
136.8587564602414
 20
185.7953595337444
 30
0.0
 10
136.8804099463021
 20
185.8284580204541
 30
0.0
 10
136.889946137192
 20
185.8466167238531
 30
0.0
 10
136.9050281815802
 20
185.8838481861179
 30
0.0
 10
136.9107512913853
 20
185.9032154859124
 30
0.0
 10
136.9183285562207
 20
185.9424427751193
 30
0.0
 10
136.9201245116312
 20
185.9618107193428
 30
0.0
 10
136.920247774734
 20
186.0192515073428
 30
0.0
 10
136.9131743141151
 20
186.0554432875643
 30
0.0
 10
136.8898765273827
 20
186.1195558253667
 30
0.0
 10
136.873736896051
 20
186.1477529904382
 30
0.0
 10
136.8354510763608
 20
186.1968331059205
 30
0.0
 10
136.8136848059395
 20
186.2172957396511
 30
0.0
 10
136.7897613006118
 20
186.234299829897
 30
0.0
  0
SPLINE
  5
F3
330
1F
100
AcDbEntity
  8
1
  6
Continuous
 62
   155
370
    25
100
AcDbSpline
210
0.0
220
0.0
230
1.0
 70
    24
 71
     3
 72
     8
 73
     4
 74
     0
 42
0.000000001
 43
0.0000000001
 40
0.0
 40
0.0
 40
0.0
 40
0.0
 40
1.0
 40
1.0
 40
1.0
 40
1.0
 10
136.7897613006118
 20
186.234299829897
 30
0.0
 10
136.7558578613248
 20
186.2583973496118
 30
0.0
 10
136.7219242176168
 20
186.2825163376983
 30
0.0
 10
136.687956975479
 20
186.306659206513
 30
0.0
  0
SPLINE
  5
F4
330
1F
100
AcDbEntity
  8
1
  6
Continuous
 62
   155
370
    25
100
AcDbSpline
210
0.0
220
0.0
230
1.0
 70
     8
 71
     3
 72
    22
 73
    18
 74
     0
 42
0.000000001
 43
0.0000000001
 40
0.0
 40
0.0
 40
0.0
 40
0.0
 40
0.2499999999999976
 40
0.2499999999999976
 40
0.3749999999999979
 40
0.3749999999999979
 40
0.4999999999999982
 40
0.4999999999999982
 40
0.6249999999999987
 40
0.6249999999999987
 40
0.7499999999999991
 40
0.7499999999999991
 40
0.8749999999999996
 40
0.8749999999999996
 40
0.9374999999999998
 40
0.9374999999999998
 40
1.0
 40
1.0
 40
1.0
 40
1.0
 10
136.687956975479
 20
186.306659206513
 30
0.0
 10
136.6252993655575
 20
186.351194304489
 30
0.0
 10
136.566768077223
 20
186.4023480297025
 30
0.0
 10
136.4854942533323
 20
186.4906863426409
 30
0.0
 10
136.4594980251628
 20
186.5220873346922
 30
0.0
 10
136.4099039664703
 20
186.5894897346755
 30
0.0
 10
136.3861713189891
 20
186.6257375339717
 30
0.0
 10
136.3424017995916
 20
186.7023653769811
 30
0.0
 10
136.3223057990519
 20
186.7427572260228
 30
0.0
 10
136.2862224199012
 20
186.8286324455084
 30
0.0
 10
136.2701417309261
 20
186.8745353086501
 30
0.0
 10
136.2439347049714
 20
186.9696683407717
 30
0.0
 10
136.233675770386
 20
187.019070766533
 30
0.0
 10
136.2232907058762
 20
187.0965152257699
 30
0.0
 10
136.2206856186772
 20
187.1228593524119
 30
0.0
 10
136.2173675797008
 20
187.1755950823846
 30
0.0
 10
136.2166339421031
 20
187.2021217570475
 30
0.0
 10
136.2168545339577
 20
187.2288126888941
 30
0.0
  0
SPLINE
  5
F5
330
1F
100
AcDbEntity
  8
1
  6
Continuous
 62
   155
370
    25
100
AcDbSpline
210
0.0
220
0.0
230
1.0
 70
     8
 71
     3
 72
    22
 73
    18
 74
     0
 42
0.000000001
 43
0.0000000001
 40
0.0
 40
0.0
 40
0.0
 40
0.0
 40
0.1249999999999977
 40
0.1249999999999977
 40
0.1874999999999965
 40
0.1874999999999965
 40
0.2499999999999953
 40
0.2499999999999953
 40
0.3749999999999961
 40
0.3749999999999961
 40
0.4999999999999969
 40
0.4999999999999969
 40
0.7499999999999986
 40
0.7499999999999986
 40
0.8749999999999992
 40
0.8749999999999992
 40
1.0
 40
1.0
 40
1.0
 40
1.0
 10
136.2160390868994
 20
187.3222536665614
 30
0.0
 10
136.2146652447065
 20
187.3756618289604
 30
0.0
 10
136.2171215559317
 20
187.4277974829407
 30
0.0
 10
136.2259087838361
 20
187.5043260480647
 30
0.0
 10
136.2296932098301
 20
187.529555199054
 30
0.0
 10
136.2389160147073
 20
187.5794791538078
 30
0.0
 10
136.2443876519518
 20
187.6042734613015
 30
0.0
 10
136.2627921475667
 20
187.6763126237817
 30
0.0
 10
136.2777575526468
 20
187.7217272286813
 30
0.0
 10
136.3122306949227
 20
187.8083825025934
 30
0.0
 10
136.3318604049824
 20
187.8497565166512
 30
0.0
 10
136.3951673343839
 20
187.9655435196339
 30
0.0
 10
136.4435781332726
 20
188.0330378024062
 30
0.0
 10
136.5239137239627
 20
188.1237675248946
 30
0.0
 10
136.5520121147003
 20
188.1521929601844
 30
0.0
 10
136.6100189302437
 20
188.2050878014248
 30
0.0
 10
136.6400146631534
 20
188.2296585491413
 30
0.0
 10
136.6709759798649
 20
188.2524885717837
 30
0.0
  0
SPLINE
  5
F6
330
1F
100
AcDbEntity
  8
1
  6
Continuous
 62
   155
370
    25
100
AcDbSpline
210
0.0
220
0.0
230
1.0
 70
    24
 71
     3
 72
     8
 73
     4
 74
     0
 42
0.000000001
 43
0.0000000001
 40
0.0
 40
0.0
 40
0.0
 40
0.0
 40
1.0
 40
1.0
 40
1.0
 40
1.0
 10
136.6709759798649
 20
188.2524885717837
 30
0.0
 10
136.7045166974681
 20
188.2772205736378
 30
0.0
 10
136.7380242385349
 20
188.3019281120274
 30
0.0
 10
136.7715019544557
 20
188.3266136581754
 30
0.0
  0
SPLINE
  5
F7
330
1F
100
AcDbEntity
  8
1
  6
Continuous
 62
   155
370
    25
100
AcDbSpline
210
0.0
220
0.0
230
1.0
 70
     8
 71
     3
 72
    30
 73
    26
 74
     0
 42
0.000000001
 43
0.0000000001
 40
0.0
 40
0.0
 40
0.0
 40
0.0
 40
0.1250000000000001
 40
0.1250000000000001
 40
0.1874999999999993
 40
0.1874999999999993
 40
0.2499999999999984
 40
0.2499999999999984
 40
0.3124999999999976
 40
0.3124999999999976
 40
0.3749999999999968
 40
0.3749999999999968
 40
0.437499999999996
 40
0.437499999999996
 40
0.4999999999999952
 40
0.4999999999999952
 40
0.5624999999999943
 40
0.5624999999999943
 40
0.6249999999999934
 40
0.6249999999999934
 40
0.7499999999999957
 40
0.7499999999999957
 40
0.8749999999999978
 40
0.8749999999999978
 40
1.0
 40
1.0
 40
1.0
 40
1.0
 10
136.7715019544557
 20
188.3266136581754
 30
0.0
 10
136.7951030480493
 20
188.3440164549022
 30
0.0
 10
136.8164384302176
 20
188.3647988454905
 30
0.0
 10
136.844376027426
 20
188.4018575787808
 30
0.0
 10
136.8530507873753
 20
188.4153119874517
 30
0.0
 10
136.8683724800852
 20
188.443878893781
 30
0.0
 10
136.8750538302656
 20
188.4590014907251
 30
0.0
 10
136.886141551778
 20
188.4911636985446
 30
0.0
 10
136.8905721776439
 20
188.5083869003068
 30
0.0
 10
136.8963825205186
 20
188.5439916442093
 30
0.0
 10
136.8978094553457
 20
188.5623938069749
 30
0.0
 10
136.8971461401336
 20
188.6006032707353
 30
0.0
 10
136.8950125931976
 20
188.6201878971219
 30
0.0
 10
136.8869198288631
 20
188.6589038782937
 30
0.0
 10
136.8808227423851
 20
188.6784873349033
 30
0.0
 10
136.8651613580165
 20
188.7154775957551
 30
0.0
 10
136.8555124382591
 20
188.7332211484357
 30
0.0
 10
136.8331336461659
 20
188.7663154386162
 30
0.0
 10
136.8207085447872
 20
188.7812807069794
 30
0.0
 10
136.7801775220552
 20
188.8219863229099
 30
0.0
 10
136.7495850115617
 20
188.8425753137953
 30
0.0
 10
136.6877783761014
 20
188.8714352124092
 30
0.0
 10
136.6564252122963
 20
188.8799619645948
 30
0.0
 10
136.5946499568066
 20
188.8875946238998
 30
0.0
 10
136.5647892162592
 20
188.8866731587472
 30
0.0
 10
136.5358477489055
 20
188.881780175837
 30
0.0
  0
SPLINE
  5
F8
330
1F
100
AcDbEntity
  8
1
  6
Continuous
 62
   155
370
    25
100
AcDbSpline
210
0.0
220
0.0
230
1.0
 70
    24
 71
     3
 72
     8
 73
     4
 74
     0
 42
0.000000001
 43
0.0000000001
 40
0.0
 40
0.0
 40
0.0
 40
0.0
 40
1.0
 40
1.0
 40
1.0
 40
1.0
 10
136.5358477489055
 20
188.881780175837
 30
0.0
 10
136.49483487748
 20
188.8748463436118
 30
0.0
 10
136.4537854678724
 20
188.8679063340667
 30
0.0
 10
136.4126954143624
 20
188.8609594530691
 30
0.0
  0
SPLINE
  5
F9
330
1F
100
AcDbEntity
  8
1
  6
Continuous
 62
   155
370
    25
100
AcDbSpline
210
0.0
220
0.0
230
1.0
 70
     8
 71
     3
 72
    22
 73
    18
 74
     0
 42
0.000000001
 43
0.0000000001
 40
0.0
 40
0.0
 40
0.0
 40
0.0
 40
0.2499999999999995
 40
0.2499999999999995
 40
0.3749999999999991
 40
0.3749999999999991
 40
0.4999999999999987
 40
0.4999999999999987
 40
0.6249999999999984
 40
0.6249999999999984
 40
0.7499999999999982
 40
0.7499999999999982
 40
0.8749999999999979
 40
0.8749999999999979
 40
0.937499999999999
 40
0.937499999999999
 40
1.0
 40
1.0
 40
1.0
 40
1.0
 10
136.4126954143624
 20
188.8609594530691
 30
0.0
 10
136.3368983430987
 20
188.8481448376316
 30
0.0
 10
136.2593391288073
 20
188.8429281633357
 30
0.0
 10
136.139405311374
 20
188.8479235650493
 30
0.0
 10
136.0988194351816
 20
188.8517453242323
 30
0.0
 10
136.0160907835273
 20
188.8643376906138
 30
0.0
 10
135.9736783569541
 20
188.8731871916042
 30
0.0
 10
135.8885441457679
 20
188.8964216609659
 30
0.0
 10
135.8457726882587
 20
188.9107730523563
 30
0.0
 10
135.7595350644443
 20
188.9459811836961
 30
0.0
 10
135.7157060533996
 20
188.9670686577454
 30
0.0
 10
135.6299052884963
 20
189.0158069844306
 30
0.0
 10
135.5877183539392
 20
189.0434856749982
 30
0.0
 10
135.5256138748473
 20
189.0909035924321
 30
0.0
 10
135.5051435602112
 20
189.1076897463193
 30
0.0
 10
135.4655076324971
 20
189.1426333016765
 30
0.0
 10
135.4462318241775
 20
189.1608716211179
 30
0.0
 10
135.4275147026427
 20
189.1799007027223
 30
0.0
  0
SPLINE
  5
FA
330
1F
100
AcDbEntity
  8
1
  6
Continuous
 62
   155
370
    25
100
AcDbSpline
210
0.0
220
0.0
230
1.0
 70
     8
 71
     3
 72
    22
 73
    18
 74
     0
 42
0.000000001
 43
0.0000000001
 40
0.0
 40
0.0
 40
0.0
 40
0.0
 40
0.1250000000000014
 40
0.1250000000000014
 40
0.1875000000000004
 40
0.1875000000000004
 40
0.2499999999999995
 40
0.2499999999999995
 40
0.3749999999999994
 40
0.3749999999999994
 40
0.4999999999999994
 40
0.4999999999999994
 40
0.7499999999999996
 40
0.7499999999999996
 40
0.8749999999999999
 40
0.8749999999999999
 40
1.0
 40
1.0
 40
1.0
 40
1.0
 10
135.3608653455487
 20
189.2453968435269
 30
0.0
 10
135.3221295839374
 20
189.282189747294
 30
0.0
 10
135.2870011692195
 20
189.3207916748498
 30
0.0
 10
135.2391004901747
 20
189.3811192870997
 30
0.0
 10
135.2239365704982
 20
189.401635207157
 30
0.0
 10
135.1951559596329
 20
189.4434590350922
 30
0.0
 10
135.1814927364435
 20
189.4648603676856
 30
0.0
 10
135.1435677402807
 20
189.5288129017971
 30
0.0
 10
135.1220368472672
 20
189.5715079466733
 30
0.0
 10
135.0851381890154
 20
189.6571592729676
 30
0.0
 10
135.0697626957113
 20
189.7002953170434
 30
0.0
 10
135.0326539107227
 20
189.826932720215
 30
0.0
 10
135.0191595542272
 20
189.9088903139647
 30
0.0
 10
135.0118096789179
 20
190.029853276125
 30
0.0
 10
135.0115784543045
 20
190.0698214686418
 30
0.0
 10
135.0151931569733
 20
190.1482405704174
 30
0.0
 10
135.0190291906789
 20
190.1868249007499
 30
0.0
 10
135.0247788979976
 20
190.2248612151339
 30
0.0
  0
SPLINE
  5
FB
330
1F
100
AcDbEntity
  8
1
  6
Continuous
 62
   155
370
    25
100
AcDbSpline
210
0.0
220
0.0
230
1.0
 70
    24
 71
     3
 72
     8
 73
     4
 74
     0
 42
0.000000001
 43
0.0000000001
 40
0.0
 40
0.0
 40
0.0
 40
0.0
 40
1.0
 40
1.0
 40
1.0
 40
1.0
 10
135.0247788979976
 20
190.2248612151339
 30
0.0
 10
135.0310076006372
 20
190.2660662502203
 30
0.0
 10
135.0372301422047
 20
190.3072305276713
 30
0.0
 10
135.0434471450724
 20
190.348358164696
 30
0.0
  0
SPLINE
  5
FC
330
1F
100
AcDbEntity
  8
1
  6
Continuous
 62
   155
370
    25
100
AcDbSpline
210
0.0
220
0.0
230
1.0
 70
     8
 71
     3
 72
    30
 73
    26
 74
     0
 42
0.000000001
 43
0.0000000001
 40
0.0
 40
0.0
 40
0.0
 40
0.0
 40
0.1250000000000022
 40
0.1250000000000022
 40
0.1875000000000011
 40
0.1875000000000011
 40
0.2499999999999999
 40
0.2499999999999999
 40
0.3124999999999987
 40
0.3124999999999987
 40
0.3749999999999976
 40
0.3749999999999976
 40
0.4374999999999964
 40
0.4374999999999964
 40
0.4999999999999952
 40
0.4999999999999952
 40
0.562499999999994
 40
0.562499999999994
 40
0.6249999999999928
 40
0.6249999999999928
 40
0.7499999999999952
 40
0.7499999999999952
 40
0.8749999999999977
 40
0.8749999999999977
 40
1.0
 40
1.0
 40
1.0
 40
1.0
 10
135.0434471450724
 20
190.348358164696
 30
0.0
 10
135.0478302156933
 20
190.3773537018356
 30
0.0
 10
135.0482208520756
 20
190.4071358453426
 30
0.0
 10
135.0417713395009
 20
190.4530936313041
 30
0.0
 10
135.0383917930966
 20
190.4687408132936
 30
0.0
 10
135.0290255627704
 20
190.4997760804188
 30
0.0
 10
135.0230564918681
 20
190.5151939984893
 30
0.0
 10
135.0081547625588
 20
190.545775677734
 30
0.0
 10
134.9991093741869
 20
190.5610867590226
 30
0.0
 10
134.9780406608467
 20
190.5903727194176
 30
0.0
 10
134.9660372149372
 20
190.6043938871616
 30
0.0
 10
134.9385513545568
 20
190.6309416273874
 30
0.0
 10
134.9231927451391
 20
190.6432826468922
 30
0.0
 10
134.8900942584294
 20
190.664936132953
 30
0.0
 10
134.8719355550304
 20
190.6744723238428
 30
0.0
 10
134.8347040927656
 20
190.6895543682311
 30
0.0
 10
134.8153367929711
 20
190.6952774780361
 30
0.0
 10
134.7761095037642
 20
190.7028547428715
 30
0.0
 10
134.7567415595407
 20
190.704650698282
 30
0.0
 10
134.6993007715407
 20
190.7047739613849
 30
0.0
 10
134.6631089913192
 20
190.6977005007659
 30
0.0
 10
134.5989964535168
 20
190.6744027140336
 30
0.0
 10
134.5707992884453
 20
190.6582630827018
 30
0.0
 10
134.521719172963
 20
190.6199772630116
 30
0.0
 10
134.5012565392324
 20
190.5982109925903
 30
0.0
 10
134.4842524489865
 20
190.5742874872627
 30
0.0
  0
SPLINE
  5
FD
330
1F
100
AcDbEntity
  8
1
  6
Continuous
 62
   155
370
    25
100
AcDbSpline
210
0.0
220
0.0
230
1.0
 70
    24
 71
     3
 72
     8
 73
     4
 74
     0
 42
0.000000001
 43
0.0000000001
 40
0.0
 40
0.0
 40
0.0
 40
0.0
 40
1.0
 40
1.0
 40
1.0
 40
1.0
 10
134.4842524489865
 20
190.5742874872627
 30
0.0
 10
134.4601549292717
 20
190.5403840479756
 30
0.0
 10
134.4360359411852
 20
190.5064504042676
 30
0.0
 10
134.4118930723705
 20
190.4724831621299
 30
0.0
  0
SPLINE
  5
FE
330
1F
100
AcDbEntity
  8
1
  6
Continuous
 62
   155
370
    25
100
AcDbSpline
210
0.0
220
0.0
230
1.0
 70
     8
 71
     3
 72
    22
 73
    18
 74
     0
 42
0.000000001
 43
0.0000000001
 40
0.0
 40
0.0
 40
0.0
 40
0.0
 40
0.2499999999999981
 40
0.2499999999999981
 40
0.3749999999999983
 40
0.3749999999999983
 40
0.4999999999999986
 40
0.4999999999999986
 40
0.6249999999999989
 40
0.6249999999999989
 40
0.7499999999999992
 40
0.7499999999999992
 40
0.8749999999999997
 40
0.8749999999999997
 40
0.9374999999999998
 40
0.9374999999999998
 40
1.0
 40
1.0
 40
1.0
 40
1.0
 10
134.4118930723705
 20
190.4724831621299
 30
0.0
 10
134.3673579743945
 20
190.4098255522083
 30
0.0
 10
134.316204249181
 20
190.3512942638738
 30
0.0
 10
134.2278659362426
 20
190.2700204399832
 30
0.0
 10
134.1964649441913
 20
190.2440242118136
 30
0.0
 10
134.129062544208
 20
190.1944301531211
 30
0.0
 10
134.0928147449117
 20
190.1706975056399
 30
0.0
 10
134.0161869019024
 20
190.1269279862424
 30
0.0
 10
133.9757950528607
 20
190.1068319857028
 30
0.0
 10
133.8899198333751
 20
190.070748606552
 30
0.0
 10
133.8440169702334
 20
190.0546679175769
 30
0.0
 10
133.7488839381118
 20
190.0284608916222
 30
0.0
 10
133.6994815123505
 20
190.0182019570368
 30
0.0
 10
133.6220370531136
 20
190.007816892527
 30
0.0
 10
133.5956929264717
 20
190.005211805328
 30
0.0
 10
133.5429571964989
 20
190.0018937663517
 30
0.0
 10
133.516430521836
 20
190.001160128754
 30
0.0
 10
133.4897395899894
 20
190.0013807206086
 30
0.0
  0
SPLINE
  5
FF
330
1F
100
AcDbEntity
  8
1
  6
Continuous
 62
   155
370
    25
100
AcDbSpline
210
0.0
220
0.0
230
1.0
 70
     8
 71
     3
 72
    22
 73
    18
 74
     0
 42
0.000000001
 43
0.0000000001
 40
0.0
 40
0.0
 40
0.0
 40
0.0
 40
0.1249999999999967
 40
0.1249999999999967
 40
0.1874999999999949
 40
0.1874999999999949
 40
0.249999999999993
 40
0.249999999999993
 40
0.3749999999999939
 40
0.3749999999999939
 40
0.4999999999999949
 40
0.4999999999999949
 40
0.7499999999999966
 40
0.7499999999999966
 40
0.8749999999999982
 40
0.8749999999999982
 40
1.0
 40
1.0
 40
1.0
 40
1.0
 10
133.3962986123221
 20
190.0005652735502
 30
0.0
 10
133.3428904499231
 20
189.9991914313574
 30
0.0
 10
133.2907547959429
 20
190.0016477425825
 30
0.0
 10
133.2142262308188
 20
190.0104349704869
 30
0.0
 10
133.1889970798295
 20
190.014219396481
 30
0.0
 10
133.1390731250757
 20
190.0234422013582
 30
0.0
 10
133.114278817582
 20
190.0289138386026
 30
0.0
 10
133.0422396551018
 20
190.0473183342176
 30
0.0
 10
132.9968250502022
 20
190.0622837392977
 30
0.0
 10
132.9101697762901
 20
190.0967568815735
 30
0.0
 10
132.8687957622323
 20
190.1163865916332
 30
0.0
 10
132.7530087592496
 20
190.1796935210347
 30
0.0
 10
132.6855144764773
 20
190.2281043199234
 30
0.0
 10
132.5947847539888
 20
190.3084399106135
 30
0.0
 10
132.5663593186991
 20
190.3365383013511
 30
0.0
 10
132.5134644774587
 20
190.3945451168945
 30
0.0
 10
132.4888937297422
 20
190.4245408498042
 30
0.0
 10
132.4660637070998
 20
190.4555021665158
 30
0.0
  0
SPLINE
  5
100
330
1F
100
AcDbEntity
  8
1
  6
Continuous
 62
   155
370
    25
100
AcDbSpline
210
0.0
220
0.0
230
1.0
 70
    24
 71
     3
 72
     8
 73
     4
 74
     0
 42
0.000000001
 43
0.0000000001
 40
0.0
 40
0.0
 40
0.0
 40
0.0
 40
1.0
 40
1.0
 40
1.0
 40
1.0
 10
132.4660637070998
 20
190.4555021665158
 30
0.0
 10
132.4413317052457
 20
190.4890428841189
 30
0.0
 10
132.4166241668561
 20
190.5225504251857
 30
0.0
 10
132.3919386207081
 20
190.5560281411065
 30
0.0
  0
SPLINE
  5
101
330
1F
100
AcDbEntity
  8
1
  6
Continuous
 62
   155
370
    25
100
AcDbSpline
210
0.0
220
0.0
230
1.0
 70
     8
 71
     3
 72
    30
 73
    26
 74
     0
 42
0.000000001
 43
0.0000000001
 40
0.0
 40
0.0
 40
0.0
 40
0.0
 40
0.1249999999999964
 40
0.1249999999999964
 40
0.1874999999999959
 40
0.1874999999999959
 40
0.2499999999999954
 40
0.2499999999999954
 40
0.3124999999999949
 40
0.3124999999999949
 40
0.3749999999999944
 40
0.3749999999999944
 40
0.4374999999999939
 40
0.4374999999999939
 40
0.4999999999999934
 40
0.4999999999999934
 40
0.5624999999999929
 40
0.5624999999999929
 40
0.6249999999999923
 40
0.6249999999999923
 40
0.7499999999999949
 40
0.7499999999999949
 40
0.8749999999999974
 40
0.8749999999999974
 40
1.0
 40
1.0
 40
1.0
 40
1.0
 10
132.3919386207081
 20
190.5560281411065
 30
0.0
 10
132.3745358239813
 20
190.5796292347001
 30
0.0
 10
132.353753433393
 20
190.6009646168684
 30
0.0
 10
132.3166947001027
 20
190.6289022140768
 30
0.0
 10
132.3032402914318
 20
190.6375769740261
 30
0.0
 10
132.2746733851025
 20
190.652898666736
 30
0.0
 10
132.2595507881584
 20
190.6595800169164
 30
0.0
 10
132.2273885803389
 20
190.6706677384288
 30
0.0
 10
132.2101653785767
 20
190.6750983642948
 30
0.0
 10
132.1745606346743
 20
190.6809087071694
 30
0.0
 10
132.1561584719086
 20
190.6823356419965
 30
0.0
 10
132.1179490081482
 20
190.6816723267844
 30
0.0
 10
132.0983643817616
 20
190.6795387798485
 30
0.0
 10
132.0596484005898
 20
190.6714460155139
 30
0.0
 10
132.0400649439802
 20
190.6653489290359
 30
0.0
 10
132.0030746831284
 20
190.6496875446674
 30
0.0
 10
131.9853311304477
 20
190.6400386249099
 30
0.0
 10
131.9522368402673
 20
190.6176598328167
 30
0.0
 10
131.9372715719041
 20
190.605234731438
 30
0.0
 10
131.8965659559736
 20
190.564703708706
 30
0.0
 10
131.8759769650882
 20
190.5341111982126
 30
0.0
 10
131.8471170664743
 20
190.4723045627522
 30
0.0
 10
131.8385903142887
 20
190.4409513989471
 30
0.0
 10
131.8309576549837
 20
190.3791761434574
 30
0.0
 10
131.8318791201363
 20
190.34931540291
 30
0.0
 10
131.8367721030465
 20
190.3203739355563
 30
0.0
  0
SPLINE
  5
102
330
1F
100
AcDbEntity
  8
1
  6
Continuous
 62
   155
370
    25
100
AcDbSpline
210
0.0
220
0.0
230
1.0
 70
    24
 71
     3
 72
     8
 73
     4
 74
     0
 42
0.000000001
 43
0.0000000001
 40
0.0
 40
0.0
 40
0.0
 40
0.0
 40
1.0
 40
1.0
 40
1.0
 40
1.0
 10
131.8367721030465
 20
190.3203739355563
 30
0.0
 10
131.8437059352717
 20
190.2793610641308
 30
0.0
 10
131.8506459448168
 20
190.2383116545232
 30
0.0
 10
131.8575928258144
 20
190.1972216010132
 30
0.0
  0
SPLINE
  5
103
330
1F
100
AcDbEntity
  8
1
  6
Continuous
 62
   155
370
    25
100
AcDbSpline
210
0.0
220
0.0
230
1.0
 70
     8
 71
     3
 72
    22
 73
    18
 74
     0
 42
0.000000001
 43
0.0000000001
 40
0.0
 40
0.0
 40
0.0
 40
0.0
 40
0.2499999999999998
 40
0.2499999999999998
 40
0.3749999999999998
 40
0.3749999999999998
 40
0.4999999999999999
 40
0.4999999999999999
 40
0.6249999999999999
 40
0.6249999999999999
 40
0.7499999999999999
 40
0.7499999999999999
 40
0.875
 40
0.875
 40
0.9375
 40
0.9375
 40
1.0
 40
1.0
 40
1.0
 40
1.0
 10
131.8575928258144
 20
190.1972216010132
 30
0.0
 10
131.87040744074
 20
190.1214245327774
 30
0.0
 10
131.8756241151198
 20
190.0438653216497
 30
0.0
 10
131.8706287146469
 20
189.9239315093021
 30
0.0
 10
131.8668069560662
 20
189.8833456348631
 30
0.0
 10
131.8542145913819
 20
189.8006169868905
 30
0.0
 10
131.8453650915021
 20
189.7582045622431
 30
0.0
 10
131.8221306248326
 20
189.6730703545912
 30
0.0
 10
131.8077792350616
 20
189.6302988988834
 30
0.0
 10
131.7725711077501
 20
189.5440612787956
 30
0.0
 10
131.7514836360861
 20
189.5002322695297
 30
0.0
 10
131.7027453145502
 20
189.4144315073629
 30
0.0
 10
131.6750666269226
 20
189.3722445741118
 30
0.0
 10
131.6276487147113
 20
189.3101400968362
 30
0.0
 10
131.610862562176
 20
189.2896697818349
 30
0.0
 10
131.5759189989358
 20
189.2500338424099
 30
0.0
 10
131.5576806713401
 20
189.2307580241804
 30
0.0
 10
131.5386515761612
 20
189.2120408892935
 30
0.0
  0
SPLINE
  5
104
102
{ACAD_REACTORS
330
193
102
}
330
1F
100
AcDbEntity
  8
256
  6
Continuous
 62
     7
370
    13
100
AcDbSpline
210
0.0
220
0.0
230
1.0
 70
    11
 71
     3
 72
    17
 73
    13
 74
     0
 42
0.000000001
 43
0.0000000001
 40
0.0
 40
0.0
 40
0.0
 40
0.0
 40
0.2500749063670416
 40
0.2500749063670416
 40
0.2500749063670416
 40
0.4999999999999989
 40
0.4999999999999989
 40
0.4999999999999989
 40
0.7500749063670404
 40
0.7500749063670404
 40
0.7500749063670404
 40
1.0
 40
1.0
 40
1.0
 40
1.0
 10
55.95917372413066
 20
11.85614106663957
 30
0.0
 10
54.42564587546997
 20
11.85614106663957
 30
0.0
 10
52.89211802680927
 20
11.85614106663957
 30
0.0
 10
51.35859017814857
 20
11.85614106663957
 30
0.0
 10
51.35859017814857
 20
13.3887502225648
 30
0.0
 10
51.35859017814857
 20
14.92135937849003
 30
0.0
 10
51.35859017814857
 20
16.45396853441526
 30
0.0
 10
52.89211802680927
 20
16.45396853441526
 30
0.0
 10
54.42564587546997
 20
16.45396853441526
 30
0.0
 10
55.95917372413066
 20
16.45396853441526
 30
0.0
 10
55.95917372413066
 20
14.92135937849003
 30
0.0
 10
55.95917372413066
 20
13.3887502225648
 30
0.0
 10
55.95917372413066
 20
11.85614106663957
 30
0.0
  0
SPLINE
  5
105
102
{ACAD_REACTORS
330
193
102
}
330
1F
100
AcDbEntity
  8
256
  6
Continuous
 62
     7
370
    13
100
AcDbSpline
210
0.0
220
0.0
230
1.0
 70
    11
 71
     3
 72
    41
 73
    37
 74
     0
 42
0.000000001
 43
0.0000000001
 40
0.0
 40
0.0
 40
0.0
 40
0.0
 40
0.0833333333333333
 40
0.0833333333333333
 40
0.0833333333333333
 40
0.1666666666666667
 40
0.1666666666666667
 40
0.1666666666666667
 40
0.25
 40
0.25
 40
0.25
 40
0.3333333333333333
 40
0.3333333333333333
 40
0.3333333333333333
 40
0.4166666666666667
 40
0.4166666666666667
 40
0.4166666666666667
 40
0.5
 40
0.5
 40
0.5
 40
0.5833333333333334
 40
0.5833333333333334
 40
0.5833333333333334
 40
0.6666666666666666
 40
0.6666666666666666
 40
0.6666666666666666
 40
0.75
 40
0.75
 40
0.75
 40
0.8333333333333334
 40
0.8333333333333334
 40
0.8333333333333334
 40
0.9166666666666666
 40
0.9166666666666666
 40
0.9166666666666666
 40
1.0
 40
1.0
 40
1.0
 40
1.0
 10
44.39623471328623
 20
8.727305110428638
 30
0.0
 10
44.82961316214747
 20
8.429474581683005
 30
0.0
 10
45.53344663409908
 20
8.090993726963271
 30
0.0
 10
46.04814423913854
 20
8.090993726963271
 30
0.0
 10
47.00932651360984
 20
8.090993726963271
 30
0.0
 10
47.55106813604937
 20
8.700259265458792
 30
0.0
 10
47.55106813604937
 20
9.444917145842206
 30
0.0
 10
47.53745999990542
 20
11.31353816976063
 30
0.0
 10
43.70565001861249
 20
10.51461999968931
 30
0.0
 10
43.70565001861249
 20
13.71012042508668
 30
0.0
 10
43.70565001861249
 20
15.24026059428534
 30
0.0
 10
44.95139736789142
 20
16.43174765387639
 30
0.0
 10
46.83345427306585
 20
16.43174765387639
 30
0.0
 10
47.76776478502507
 20
16.43174765387639
 30
0.0
 10
48.67485902469639
 20
16.10670268041273
 30
0.0
 10
49.47361308602012
 20
15.64644135906617
 30
0.0
 10
49.47360162773157
 20
15.64643320030638
 30
0.0
 10
48.74255909224894
 20
14.40068274680042
 30
0.0
 10
48.74255055156664
 20
14.4006934180556
 30
0.0
 10
48.1739418106888
 20
14.71212710798984
 30
0.0
 10
47.64580832439333
 20
15.02356394530955
 30
0.0
 10
46.9688466149538
 20
15.02356394530955
 30
0.0
 10
46.18353658102649
 20
15.02356394530955
 30
0.0
 10
45.43887870064302
 20
14.60377878350193
 30
0.0
 10
45.43887870064302
 20
13.76438071477455
 30
0.0
 10
45.43887870064302
 20
11.92280370825615
 30
0.0
 10
49.36542887027986
 20
12.50502522935168
 30
0.0
 10
49.36542887027986
 20
9.512613316786153
 30
0.0
 10
49.36542887027986
 20
7.914949231531418
 30
0.0
 10
48.079029367457
 20
6.682810018396404
 30
0.0
 10
46.26466863322639
 20
6.682810018396404
 30
0.0
 10
45.3575743935551
 20
6.682810018396404
 30
0.0
 10
44.50456818868381
 20
6.940158820916148
 30
0.0
 10
43.71907888079861
 20
7.400592083519152
 30
0.0
 10
43.71908887943025
 20
7.400600963125905
 30
0.0
 10
44.3962244106452
 20
8.727312190709236
 30
0.0
 10
44.39623471328623
 20
8.727305110428638
 30
0.0
  0
SPLINE
  5
106
102
{ACAD_REACTORS
330
193
102
}
330
1F
100
AcDbEntity
  8
256
  6
Continuous
 62
     7
370
    13
100
AcDbSpline
210
0.0
220
0.0
230
1.0
 70
    11
 71
     3
 72
    17
 73
    13
 74
     0
 42
0.000000001
 43
0.0000000001
 40
0.0
 40
0.0
 40
0.0
 40
0.0
 40
0.2499153546639537
 40
0.2499153546639537
 40
0.2499153546639537
 40
0.4999999999999934
 40
0.4999999999999934
 40
0.4999999999999934
 40
0.749915354663955
 40
0.749915354663955
 40
0.749915354663955
 40
1.0
 40
1.0
 40
1.0
 40
1.0
 10
55.69459021631917
 20
11.0089915279568
 30
0.0
 10
55.69459021631917
 20
9.652771377239228
 30
0.0
 10
55.69459021631917
 20
8.296551226521624
 30
0.0
 10
55.69459021631917
 20
6.940331075804048
 30
0.0
 10
54.3374513728661
 20
6.940331075804048
 30
0.0
 10
52.98031252941303
 20
6.940331075804048
 30
0.0
 10
51.62317368596007
 20
6.940331075804048
 30
0.0
 10
51.62317368596007
 20
8.296551226521652
 30
0.0
 10
51.62317368596007
 20
9.652771377239228
 30
0.0
 10
51.62317368596007
 20
11.0089915279568
 30
0.0
 10
52.98031252941303
 20
11.0089915279568
 30
0.0
 10
54.3374513728661
 20
11.0089915279568
 30
0.0
 10
55.69459021631917
 20
11.0089915279568
 30
0.0
  0
SPLINE
  5
107
330
1F
100
AcDbEntity
  8
1
  6
Continuous
 62
   163
 60
     1
370
    18
100
AcDbSpline
210
0.0
220
0.0
230
1.0
 70
    11
 71
     3
 72
    53
 73
    49
 74
     0
 42
0.000000001
 43
0.0000000001
 40
0.0
 40
0.0
 40
0.0
 40
0.0
 40
0.024233419787787
 40
0.024233419787787
 40
0.024233419787787
 40
0.1280418012427934
 40
0.1280418012427934
 40
0.1280418012427934
 40
0.1284086704647148
 40
0.1284086704647148
 40
0.1284086704647148
 40
0.2309459700568215
 40
0.2309459700568215
 40
0.2309459700568215
 40
0.2557435253627113
 40
0.2557435253627113
 40
0.2557435253627113
 40
0.3573149299809463
 40
0.3573149299809463
 40
0.3573149299809463
 40
0.3576817992028669
 40
0.3576817992028669
 40
0.3576817992028669
 40
0.4624443157722517
 40
0.4624443157722517
 40
0.4624443157722517
 40
0.4860156317106226
 40
0.4860156317106226
 40
0.4860156317106226
 40
0.6156754647053586
 40
0.6156754647053586
 40
0.6156754647053586
 40
0.6406552862488913
 40
0.6406552862488913
 40
0.6406552862488913
 40
0.7430727925756138
 40
0.7430727925756138
 40
0.7430727925756138
 40
0.7434419985441709
 40
0.7434419985441709
 40
0.7434419985441709
 40
0.8467092888241766
 40
0.8467092888241766
 40
0.8467092888241766
 40
0.8713245778924228
 40
0.8713245778924228
 40
0.8713245778924228
 40
1.0
 40
1.0
 40
1.0
 40
1.0
 10
23.1392776780207
 20
15.99852661081272
 30
0.0
 10
23.71696315373489
 20
16.14293362516728
 30
0.0
 10
24.29464862944909
 20
16.28734063952184
 30
0.0
 10
24.87233410516333
 20
16.43174765387639
 30
0.0
 10
25.45909167164015
 20
13.94938246437707
 30
0.0
 10
26.04584923811703
 20
11.46701727487778
 30
0.0
 10
26.63260680459385
 20
8.984652085378494
 30
0.0
 10
26.64162147706051
 20
8.984652085378494
 30
0.0
 10
26.65063614952717
 20
8.984652085378494
 30
0.0
 10
26.65965082199384
 20
8.984652085378494
 30
0.0
 10
27.36377138542528
 20
11.40379973101924
 30
0.0
 10
28.06789194885667
 20
13.82294737665993
 30
0.0
 10
28.77201251228806
 20
16.24209502230062
 30
0.0
 10
29.38133546907952
 20
16.24209502230062
 30
0.0
 10
29.99065842587103
 20
16.24209502230062
 30
0.0
 10
30.59998138266255
 20
16.24209502230062
 30
0.0
 10
31.21378296653936
 20
13.82294737665993
 30
0.0
 10
31.82758455041622
 20
11.40379973101924
 30
0.0
 10
32.44138613429308
 20
8.984652085378494
 30
0.0
 10
32.45040080675975
 20
8.984652085378494
 30
0.0
 10
32.45941547922641
 20
8.984652085378494
 30
0.0
 10
32.46843015169307
 20
8.984652085378494
 30
0.0
 10
33.14992790651385
 20
11.46701727487778
 30
0.0
 10
33.83142566133463
 20
13.9493824643771
 30
0.0
 10
34.51292341615542
 20
16.43174765387639
 30
0.0
 10
35.07263696523225
 20
16.28280459414052
 30
0.0
 10
35.63235051430908
 20
16.13386153440465
 30
0.0
 10
36.19206406338597
 20
15.98491847466878
 30
0.0
 10
35.23070953402672
 20
12.94743319976991
 30
0.0
 10
34.26935500466752
 20
9.909947924871071
 30
0.0
 10
33.30800047530832
 20
6.872462649972229
 30
0.0
 10
32.69419889143145
 20
6.872462649972229
 30
0.0
 10
32.08039730755465
 20
6.872462649972229
 30
0.0
 10
31.46659572367778
 20
6.872462649972229
 30
0.0
 10
30.85727276688633
 20
9.31417568592756
 30
0.0
 10
30.24794981009481
 20
11.75588872188289
 30
0.0
 10
29.63862685330335
 20
14.19760175783825
 30
0.0
 10
29.62955476254072
 20
14.19760175783825
 30
0.0
 10
29.62048267177803
 20
14.19760175783825
 30
0.0
 10
29.61141058101541
 20
14.19760175783825
 30
0.0
 10
28.92089815372796
 20
11.75588872188289
 30
0.0
 10
28.23038572644052
 20
9.31417568592756
 30
0.0
 10
27.53987329915307
 20
6.872462649972229
 30
0.0
 10
26.9350289694469
 20
6.872462649972229
 30
0.0
 10
26.33018463974079
 20
6.872462649972229
 30
0.0
 10
25.72534031003462
 20
6.872462649972229
 30
0.0
 10
24.86331943269667
 20
9.914483970252357
 30
0.0
 10
24.00129855535866
 20
12.95650529053254
 30
0.0
 10
23.1392776780207
 20
15.99852661081272
 30
0.0
  0
SPLINE
  5
108
330
1F
100
AcDbEntity
  8
1
  6
Continuous
 62
   163
 60
     1
370
    18
100
AcDbSpline
210
0.0
220
0.0
230
1.0
 70
    11
 71
     3
 72
    41
 73
    37
 74
     0
 42
0.000000001
 43
0.0000000001
 40
0.0
 40
0.0
 40
0.0
 40
0.0
 40
0.0833333333333333
 40
0.0833333333333333
 40
0.0833333333333333
 40
0.1666666666666667
 40
0.1666666666666667
 40
0.1666666666666667
 40
0.25
 40
0.25
 40
0.25
 40
0.3333333333333333
 40
0.3333333333333333
 40
0.3333333333333333
 40
0.4166666666666667
 40
0.4166666666666667
 40
0.4166666666666667
 40
0.5
 40
0.5
 40
0.5
 40
0.5833333333333334
 40
0.5833333333333334
 40
0.5833333333333334
 40
0.6666666666666666
 40
0.6666666666666666
 40
0.6666666666666666
 40
0.75
 40
0.75
 40
0.75
 40
0.8333333333333334
 40
0.8333333333333334
 40
0.8333333333333334
 40
0.9166666666666666
 40
0.9166666666666666
 40
0.9166666666666666
 40
1.0
 40
1.0
 40
1.0
 40
1.0
 10
37.62644536308606
 20
8.727305110896895
 30
0.0
 10
38.05982381286489
 20
8.429474581683005
 30
0.0
 10
38.76382953970435
 20
8.090993726963271
 30
0.0
 10
39.27835488985593
 20
8.090993726963271
 30
0.0
 10
40.23970941921513
 20
8.090993726963271
 30
0.0
 10
40.78127878676671
 20
8.700259265458792
 30
0.0
 10
40.78127878676671
 20
9.444917145842206
 30
0.0
 10
40.76767065062276
 20
11.31353816976063
 30
0.0
 10
36.93603292421776
 20
10.51461999968931
 30
0.0
 10
36.93603292421776
 20
13.71012042508668
 30
0.0
 10
36.93603292421776
 20
15.24026059428534
 30
0.0
 10
38.18160801860884
 20
16.43174765387639
 30
0.0
 10
40.06383717867121
 20
16.43174765387639
 30
0.0
 10
40.99814769063042
 20
16.43174765387639
 30
0.0
 10
41.90506967541384
 20
16.10670268041273
 30
0.0
 10
42.70399599466541
 20
15.64644135862842
 30
0.0
 10
42.70398453274984
 20
15.6464332013328
 30
0.0
 10
41.97276974205371
 20
14.4006827459659
 30
0.0
 10
41.97276120276902
 20
14.4006934186719
 30
0.0
 10
41.4043247162941
 20
14.71212710798984
 30
0.0
 10
40.87619122999857
 20
15.02356394530955
 30
0.0
 10
40.1992295205591
 20
15.02356394530955
 30
0.0
 10
39.41374723174383
 20
15.02356394530955
 30
0.0
 10
38.66908935136038
 20
14.60377878350193
 30
0.0
 10
38.66908935136038
 20
13.76438071477455
 30
0.0
 10
38.66908935136038
 20
11.92280370825615
 30
0.0
 10
42.59581177588515
 20
12.50502522935168
 30
0.0
 10
42.59581177588515
 20
9.512613316786153
 30
0.0
 10
42.59581177588515
 20
7.914949231531418
 30
0.0
 10
41.30924001817434
 20
6.682810018396404
 30
0.0
 10
39.49505153883169
 20
6.682810018396404
 30
0.0
 10
38.58778504427252
 20
6.682810018396404
 30
0.0
 10
37.73477883940117
 20
6.940158820916148
 30
0.0
 10
36.94946178950815
 20
7.400592083187442
 30
0.0
 10
36.94947178431599
 20
7.400600964059331
 30
0.0
 10
37.626435060445
 20
8.727312191177512
 30
0.0
 10
37.62644536308606
 20
8.727305110896895
 30
0.0
  0
SPLINE
  5
109
330
1F
100
AcDbEntity
  8
1
  6
Continuous
 62
   163
 60
     1
370
    18
100
AcDbSpline
210
0.0
220
0.0
230
1.0
 70
    11
 71
     3
 72
    41
 73
    37
 74
     0
 42
0.000000001
 43
0.0000000001
 40
0.0
 40
0.0
 40
0.0
 40
0.0
 40
0.0833333333333333
 40
0.0833333333333333
 40
0.0833333333333333
 40
0.1666666666666667
 40
0.1666666666666667
 40
0.1666666666666667
 40
0.25
 40
0.25
 40
0.25
 40
0.3333333333333333
 40
0.3333333333333333
 40
0.3333333333333333
 40
0.4166666666666667
 40
0.4166666666666667
 40
0.4166666666666667
 40
0.5
 40
0.5
 40
0.5
 40
0.5833333333333334
 40
0.5833333333333334
 40
0.5833333333333334
 40
0.6666666666666666
 40
0.6666666666666666
 40
0.6666666666666666
 40
0.75
 40
0.75
 40
0.75
 40
0.8333333333333334
 40
0.8333333333333334
 40
0.8333333333333334
 40
0.9166666666666666
 40
0.9166666666666666
 40
0.9166666666666666
 40
1.0
 40
1.0
 40
1.0
 40
1.0
 10
44.39623471328623
 20
8.727305110428638
 30
0.0
 10
44.82961316214747
 20
8.429474581683005
 30
0.0
 10
45.53344663409908
 20
8.090993726963271
 30
0.0
 10
46.04814423913854
 20
8.090993726963271
 30
0.0
 10
47.00932651360984
 20
8.090993726963271
 30
0.0
 10
47.55106813604937
 20
8.700259265458792
 30
0.0
 10
47.55106813604937
 20
9.444917145842206
 30
0.0
 10
47.53745999990542
 20
11.31353816976063
 30
0.0
 10
43.70565001861249
 20
10.51461999968931
 30
0.0
 10
43.70565001861249
 20
13.71012042508668
 30
0.0
 10
43.70565001861249
 20
15.24026059428534
 30
0.0
 10
44.95139736789142
 20
16.43174765387639
 30
0.0
 10
46.83345427306585
 20
16.43174765387639
 30
0.0
 10
47.76776478502507
 20
16.43174765387639
 30
0.0
 10
48.67485902469639
 20
16.10670268041273
 30
0.0
 10
49.47361308602012
 20
15.64644135906617
 30
0.0
 10
49.47360162773157
 20
15.64643320030638
 30
0.0
 10
48.74255909224894
 20
14.40068274680042
 30
0.0
 10
48.74255055156664
 20
14.4006934180556
 30
0.0
 10
48.1739418106888
 20
14.71212710798984
 30
0.0
 10
47.64580832439333
 20
15.02356394530955
 30
0.0
 10
46.9688466149538
 20
15.02356394530955
 30
0.0
 10
46.18353658102649
 20
15.02356394530955
 30
0.0
 10
45.43887870064302
 20
14.60377878350193
 30
0.0
 10
45.43887870064302
 20
13.76438071477455
 30
0.0
 10
45.43887870064302
 20
11.92280370825615
 30
0.0
 10
49.36542887027986
 20
12.50502522935168
 30
0.0
 10
49.36542887027986
 20
9.512613316786153
 30
0.0
 10
49.36542887027986
 20
7.914949231531418
 30
0.0
 10
48.079029367457
 20
6.682810018396404
 30
0.0
 10
46.26466863322639
 20
6.682810018396404
 30
0.0
 10
45.3575743935551
 20
6.682810018396404
 30
0.0
 10
44.50456818868381
 20
6.940158820916148
 30
0.0
 10
43.71907888079861
 20
7.400592083519152
 30
0.0
 10
43.71908887943025
 20
7.400600963125905
 30
0.0
 10
44.3962244106452
 20
8.727312190709236
 30
0.0
 10
44.39623471328623
 20
8.727305110428638
 30
0.0
  0
SPLINE
  5
10A
330
1F
100
AcDbEntity
  8
1
  6
Continuous
 62
   163
 60
     1
370
    18
100
AcDbSpline
210
0.0
220
0.0
230
1.0
 70
    11
 71
     3
 72
    17
 73
    13
 74
     0
 42
0.000000001
 43
0.0000000001
 40
0.0
 40
0.0
 40
0.0
 40
0.0
 40
0.2500749063670416
 40
0.2500749063670416
 40
0.2500749063670416
 40
0.4999999999999989
 40
0.4999999999999989
 40
0.4999999999999989
 40
0.7500749063670404
 40
0.7500749063670404
 40
0.7500749063670404
 40
1.0
 40
1.0
 40
1.0
 40
1.0
 10
55.95917372413066
 20
11.85614106663957
 30
0.0
 10
54.42564587546997
 20
11.85614106663957
 30
0.0
 10
52.89211802680927
 20
11.85614106663957
 30
0.0
 10
51.35859017814857
 20
11.85614106663957
 30
0.0
 10
51.35859017814857
 20
13.3887502225648
 30
0.0
 10
51.35859017814857
 20
14.92135937849003
 30
0.0
 10
51.35859017814857
 20
16.45396853441526
 30
0.0
 10
52.89211802680927
 20
16.45396853441526
 30
0.0
 10
54.42564587546997
 20
16.45396853441526
 30
0.0
 10
55.95917372413066
 20
16.45396853441526
 30
0.0
 10
55.95917372413066
 20
14.92135937849003
 30
0.0
 10
55.95917372413066
 20
13.3887502225648
 30
0.0
 10
55.95917372413066
 20
11.85614106663957
 30
0.0
  0
SPLINE
  5
10B
330
1F
100
AcDbEntity
  8
1
  6
Continuous
 62
   163
 60
     1
370
    18
100
AcDbSpline
210
0.0
220
0.0
230
1.0
 70
    11
 71
     3
 72
    17
 73
    13
 74
     0
 42
0.000000001
 43
0.0000000001
 40
0.0
 40
0.0
 40
0.0
 40
0.0
 40
0.2500749063670398
 40
0.2500749063670398
 40
0.2500749063670398
 40
0.5000000000000023
 40
0.5000000000000023
 40
0.5000000000000023
 40
0.7500749063670421
 40
0.7500749063670421
 40
0.7500749063670421
 40
1.0
 40
1.0
 40
1.0
 40
1.0
 10
61.1392227130018
 20
6.675747567992611
 30
0.0
 10
59.6056948643411
 20
6.675747567992611
 30
0.0
 10
58.07216701568041
 20
6.675747567992611
 30
0.0
 10
56.53863916701982
 20
6.675747567992611
 30
0.0
 10
56.53863916701982
 20
8.20835672391784
 30
0.0
 10
56.53863916701982
 20
9.740965879843069
 30
0.0
 10
56.53863916701982
 20
11.2735750357683
 30
0.0
 10
58.07216701568041
 20
11.2735750357683
 30
0.0
 10
59.6056948643411
 20
11.2735750357683
 30
0.0
 10
61.1392227130018
 20
11.2735750357683
 30
0.0
 10
61.1392227130018
 20
9.740965879843069
 30
0.0
 10
61.1392227130018
 20
8.20835672391784
 30
0.0
 10
61.1392227130018
 20
6.675747567992611
 30
0.0
  0
SPLINE
  5
10C
330
1F
100
AcDbEntity
  8
1
  6
Continuous
 62
   163
 60
     1
370
    18
100
AcDbSpline
210
0.0
220
0.0
230
1.0
 70
    11
 71
     3
 72
    17
 73
    13
 74
     0
 42
0.000000001
 43
0.0000000001
 40
0.0
 40
0.0
 40
0.0
 40
0.0
 40
0.2500749063670398
 40
0.2500749063670398
 40
0.2500749063670398
 40
0.5000000000000023
 40
0.5000000000000023
 40
0.5000000000000023
 40
0.7500749063670421
 40
0.7500749063670421
 40
0.7500749063670421
 40
1.0
 40
1.0
 40
1.0
 40
1.0
 10
61.1392227130018
 20
16.45396853441526
 30
0.0
 10
59.6056948643411
 20
16.45396853441526
 30
0.0
 10
58.07216701568041
 20
16.45396853441526
 30
0.0
 10
56.53863916701982
 20
16.45396853441526
 30
0.0
 10
56.53863916701982
 20
14.92135937849003
 30
0.0
 10
56.53863916701982
 20
13.3887502225648
 30
0.0
 10
56.53863916701982
 20
11.85614106663957
 30
0.0
 10
58.07216701568041
 20
11.85614106663957
 30
0.0
 10
59.6056948643411
 20
11.85614106663957
 30
0.0
 10
61.1392227130018
 20
11.85614106663957
 30
0.0
 10
61.1392227130018
 20
13.3887502225648
 30
0.0
 10
61.1392227130018
 20
14.92135937849003
 30
0.0
 10
61.1392227130018
 20
16.45396853441526
 30
0.0
  0
SPLINE
  5
10D
330
1F
100
AcDbEntity
  8
1
  6
Continuous
 62
   163
 60
     1
370
    18
100
AcDbSpline
210
0.0
220
0.0
230
1.0
 70
    11
 71
     3
 72
    17
 73
    13
 74
     0
 42
0.000000001
 43
0.0000000001
 40
0.0
 40
0.0
 40
0.0
 40
0.0
 40
0.2499153546639589
 40
0.2499153546639589
 40
0.2499153546639589
 40
0.4999999999999987
 40
0.4999999999999987
 40
0.4999999999999987
 40
0.7499153546639602
 40
0.7499153546639602
 40
0.7499153546639602
 40
1.0
 40
1.0
 40
1.0
 40
1.0
 10
60.87463920519031
 20
16.18938502660379
 30
0.0
 10
60.87463920519031
 20
14.83316487588619
 30
0.0
 10
60.87463920519031
 20
13.47694472516864
 30
0.0
 10
60.87463920519031
 20
12.12072457445104
 30
0.0
 10
59.51750036173735
 20
12.12072457445104
 30
0.0
 10
58.16036151828428
 20
12.12072457445104
 30
0.0
 10
56.8032226748312
 20
12.12072457445104
 30
0.0
 10
56.8032226748312
 20
13.47694472516864
 30
0.0
 10
56.8032226748312
 20
14.83316487588619
 30
0.0
 10
56.8032226748312
 20
16.18938502660379
 30
0.0
 10
58.16036151828428
 20
16.18938502660379
 30
0.0
 10
59.51750036173735
 20
16.18938502660379
 30
0.0
 10
60.87463920519031
 20
16.18938502660379
 30
0.0
  0
SPLINE
  5
10E
330
1F
100
AcDbEntity
  8
1
  6
Continuous
 62
   163
 60
     1
370
    18
100
AcDbSpline
210
0.0
220
0.0
230
1.0
 70
    11
 71
     3
 72
    17
 73
    13
 74
     0
 42
0.000000001
 43
0.0000000001
 40
0.0
 40
0.0
 40
0.0
 40
0.0
 40
0.2500749063670416
 40
0.2500749063670416
 40
0.2500749063670416
 40
0.4999999999999989
 40
0.4999999999999989
 40
0.4999999999999989
 40
0.7500749063670404
 40
0.7500749063670404
 40
0.7500749063670404
 40
1.0
 40
1.0
 40
1.0
 40
1.0
 10
55.95917372413066
 20
11.2735750357683
 30
0.0
 10
54.42564587546997
 20
11.2735750357683
 30
0.0
 10
52.89211802680927
 20
11.2735750357683
 30
0.0
 10
51.35859017814857
 20
11.2735750357683
 30
0.0
 10
51.35859017814857
 20
9.740965879843069
 30
0.0
 10
51.35859017814857
 20
8.20835672391784
 30
0.0
 10
51.35859017814857
 20
6.675747567992611
 30
0.0
 10
52.89211802680927
 20
6.675747567992611
 30
0.0
 10
54.42564587546997
 20
6.675747567992611
 30
0.0
 10
55.95917372413066
 20
6.675747567992611
 30
0.0
 10
55.95917372413066
 20
8.20835672391784
 30
0.0
 10
55.95917372413066
 20
9.740965879843069
 30
0.0
 10
55.95917372413066
 20
11.2735750357683
 30
0.0
  0
SPLINE
  5
10F
330
1F
100
AcDbEntity
  8
1
  6
Continuous
 62
   163
 60
     1
370
    18
100
AcDbSpline
210
0.0
220
0.0
230
1.0
 70
    11
 71
     3
 72
    17
 73
    13
 74
     0
 42
0.000000001
 43
0.0000000001
 40
0.0
 40
0.0
 40
0.0
 40
0.0
 40
0.2499153546639537
 40
0.2499153546639537
 40
0.2499153546639537
 40
0.4999999999999934
 40
0.4999999999999934
 40
0.4999999999999934
 40
0.749915354663955
 40
0.749915354663955
 40
0.749915354663955
 40
1.0
 40
1.0
 40
1.0
 40
1.0
 10
55.69459021631917
 20
11.0089915279568
 30
0.0
 10
55.69459021631917
 20
9.652771377239228
 30
0.0
 10
55.69459021631917
 20
8.296551226521624
 30
0.0
 10
55.69459021631917
 20
6.940331075804048
 30
0.0
 10
54.3374513728661
 20
6.940331075804048
 30
0.0
 10
52.98031252941303
 20
6.940331075804048
 30
0.0
 10
51.62317368596007
 20
6.940331075804048
 30
0.0
 10
51.62317368596007
 20
8.296551226521652
 30
0.0
 10
51.62317368596007
 20
9.652771377239228
 30
0.0
 10
51.62317368596007
 20
11.0089915279568
 30
0.0
 10
52.98031252941303
 20
11.0089915279568
 30
0.0
 10
54.3374513728661
 20
11.0089915279568
 30
0.0
 10
55.69459021631917
 20
11.0089915279568
 30
0.0
  0
SPLINE
  5
110
102
{ACAD_REACTORS
330
193
102
}
330
1F
100
AcDbEntity
  8
256
  6
Continuous
 62
     7
370
    13
100
AcDbSpline
210
0.0
220
0.0
230
1.0
 70
    11
 71
     3
 72
    17
 73
    13
 74
     0
 42
0.000000001
 43
0.0000000001
 40
0.0
 40
0.0
 40
0.0
 40
0.0
 40
0.2500749063670416
 40
0.2500749063670416
 40
0.2500749063670416
 40
0.4999999999999989
 40
0.4999999999999989
 40
0.4999999999999989
 40
0.7500749063670404
 40
0.7500749063670404
 40
0.7500749063670404
 40
1.0
 40
1.0
 40
1.0
 40
1.0
 10
55.95917372413066
 20
11.85614106663957
 30
0.0
 10
54.42564587546997
 20
11.85614106663957
 30
0.0
 10
52.89211802680927
 20
11.85614106663957
 30
0.0
 10
51.35859017814857
 20
11.85614106663957
 30
0.0
 10
51.35859017814857
 20
13.3887502225648
 30
0.0
 10
51.35859017814857
 20
14.92135937849003
 30
0.0
 10
51.35859017814857
 20
16.45396853441526
 30
0.0
 10
52.89211802680927
 20
16.45396853441526
 30
0.0
 10
54.42564587546997
 20
16.45396853441526
 30
0.0
 10
55.95917372413066
 20
16.45396853441526
 30
0.0
 10
55.95917372413066
 20
14.92135937849003
 30
0.0
 10
55.95917372413066
 20
13.3887502225648
 30
0.0
 10
55.95917372413066
 20
11.85614106663957
 30
0.0
  0
SPLINE
  5
111
102
{ACAD_REACTORS
330
193
102
}
330
1F
100
AcDbEntity
  8
256
  6
Continuous
 62
     7
370
    13
100
AcDbSpline
210
0.0
220
0.0
230
1.0
 70
    11
 71
     3
 72
    17
 73
    13
 74
     0
 42
0.000000001
 43
0.0000000001
 40
0.0
 40
0.0
 40
0.0
 40
0.0
 40
0.2500749063670398
 40
0.2500749063670398
 40
0.2500749063670398
 40
0.5000000000000023
 40
0.5000000000000023
 40
0.5000000000000023
 40
0.7500749063670421
 40
0.7500749063670421
 40
0.7500749063670421
 40
1.0
 40
1.0
 40
1.0
 40
1.0
 10
61.1392227130018
 20
6.675747567992611
 30
0.0
 10
59.6056948643411
 20
6.675747567992611
 30
0.0
 10
58.07216701568041
 20
6.675747567992611
 30
0.0
 10
56.53863916701982
 20
6.675747567992611
 30
0.0
 10
56.53863916701982
 20
8.20835672391784
 30
0.0
 10
56.53863916701982
 20
9.740965879843069
 30
0.0
 10
56.53863916701982
 20
11.2735750357683
 30
0.0
 10
58.07216701568041
 20
11.2735750357683
 30
0.0
 10
59.6056948643411
 20
11.2735750357683
 30
0.0
 10
61.1392227130018
 20
11.2735750357683
 30
0.0
 10
61.1392227130018
 20
9.740965879843069
 30
0.0
 10
61.1392227130018
 20
8.20835672391784
 30
0.0
 10
61.1392227130018
 20
6.675747567992611
 30
0.0
  0
SPLINE
  5
112
102
{ACAD_REACTORS
330
193
102
}
330
1F
100
AcDbEntity
  8
256
  6
Continuous
 62
     7
370
    13
100
AcDbSpline
210
0.0
220
0.0
230
1.0
 70
    11
 71
     3
 72
    17
 73
    13
 74
     0
 42
0.000000001
 43
0.0000000001
 40
0.0
 40
0.0
 40
0.0
 40
0.0
 40
0.2500749063670416
 40
0.2500749063670416
 40
0.2500749063670416
 40
0.4999999999999989
 40
0.4999999999999989
 40
0.4999999999999989
 40
0.7500749063670404
 40
0.7500749063670404
 40
0.7500749063670404
 40
1.0
 40
1.0
 40
1.0
 40
1.0
 10
55.95917372413066
 20
11.2735750357683
 30
0.0
 10
54.42564587546997
 20
11.2735750357683
 30
0.0
 10
52.89211802680927
 20
11.2735750357683
 30
0.0
 10
51.35859017814857
 20
11.2735750357683
 30
0.0
 10
51.35859017814857
 20
9.740965879843069
 30
0.0
 10
51.35859017814857
 20
8.20835672391784
 30
0.0
 10
51.35859017814857
 20
6.675747567992611
 30
0.0
 10
52.89211802680927
 20
6.675747567992611
 30
0.0
 10
54.42564587546997
 20
6.675747567992611
 30
0.0
 10
55.95917372413066
 20
6.675747567992611
 30
0.0
 10
55.95917372413066
 20
8.20835672391784
 30
0.0
 10
55.95917372413066
 20
9.740965879843069
 30
0.0
 10
55.95917372413066
 20
11.2735750357683
 30
0.0
  0
SPLINE
  5
113
102
{ACAD_REACTORS
330
193
102
}
330
1F
100
AcDbEntity
  8
256
  6
Continuous
 62
     7
370
    13
100
AcDbSpline
210
0.0
220
0.0
230
1.0
 70
    11
 71
     3
 72
    53
 73
    49
 74
     0
 42
0.000000001
 43
0.0000000001
 40
0.0
 40
0.0
 40
0.0
 40
0.0
 40
0.024233419787787
 40
0.024233419787787
 40
0.024233419787787
 40
0.1280418012427934
 40
0.1280418012427934
 40
0.1280418012427934
 40
0.1284086704647148
 40
0.1284086704647148
 40
0.1284086704647148
 40
0.2309459700568215
 40
0.2309459700568215
 40
0.2309459700568215
 40
0.2557435253627113
 40
0.2557435253627113
 40
0.2557435253627113
 40
0.3573149299809463
 40
0.3573149299809463
 40
0.3573149299809463
 40
0.3576817992028669
 40
0.3576817992028669
 40
0.3576817992028669
 40
0.4624443157722517
 40
0.4624443157722517
 40
0.4624443157722517
 40
0.4860156317106226
 40
0.4860156317106226
 40
0.4860156317106226
 40
0.6156754647053586
 40
0.6156754647053586
 40
0.6156754647053586
 40
0.6406552862488913
 40
0.6406552862488913
 40
0.6406552862488913
 40
0.7430727925756138
 40
0.7430727925756138
 40
0.7430727925756138
 40
0.7434419985441709
 40
0.7434419985441709
 40
0.7434419985441709
 40
0.8467092888241766
 40
0.8467092888241766
 40
0.8467092888241766
 40
0.8713245778924228
 40
0.8713245778924228
 40
0.8713245778924228
 40
1.0
 40
1.0
 40
1.0
 40
1.0
 10
23.1392776780207
 20
15.99852661081272
 30
0.0
 10
23.71696315373489
 20
16.14293362516728
 30
0.0
 10
24.29464862944909
 20
16.28734063952184
 30
0.0
 10
24.87233410516333
 20
16.43174765387639
 30
0.0
 10
25.45909167164015
 20
13.94938246437707
 30
0.0
 10
26.04584923811703
 20
11.46701727487778
 30
0.0
 10
26.63260680459385
 20
8.984652085378494
 30
0.0
 10
26.64162147706051
 20
8.984652085378494
 30
0.0
 10
26.65063614952717
 20
8.984652085378494
 30
0.0
 10
26.65965082199384
 20
8.984652085378494
 30
0.0
 10
27.36377138542528
 20
11.40379973101924
 30
0.0
 10
28.06789194885667
 20
13.82294737665993
 30
0.0
 10
28.77201251228806
 20
16.24209502230062
 30
0.0
 10
29.38133546907952
 20
16.24209502230062
 30
0.0
 10
29.99065842587103
 20
16.24209502230062
 30
0.0
 10
30.59998138266255
 20
16.24209502230062
 30
0.0
 10
31.21378296653936
 20
13.82294737665993
 30
0.0
 10
31.82758455041622
 20
11.40379973101924
 30
0.0
 10
32.44138613429308
 20
8.984652085378494
 30
0.0
 10
32.45040080675975
 20
8.984652085378494
 30
0.0
 10
32.45941547922641
 20
8.984652085378494
 30
0.0
 10
32.46843015169307
 20
8.984652085378494
 30
0.0
 10
33.14992790651385
 20
11.46701727487778
 30
0.0
 10
33.83142566133463
 20
13.9493824643771
 30
0.0
 10
34.51292341615542
 20
16.43174765387639
 30
0.0
 10
35.07263696523225
 20
16.28280459414052
 30
0.0
 10
35.63235051430908
 20
16.13386153440465
 30
0.0
 10
36.19206406338597
 20
15.98491847466878
 30
0.0
 10
35.23070953402672
 20
12.94743319976991
 30
0.0
 10
34.26935500466752
 20
9.909947924871071
 30
0.0
 10
33.30800047530832
 20
6.872462649972229
 30
0.0
 10
32.69419889143145
 20
6.872462649972229
 30
0.0
 10
32.08039730755465
 20
6.872462649972229
 30
0.0
 10
31.46659572367778
 20
6.872462649972229
 30
0.0
 10
30.85727276688633
 20
9.31417568592756
 30
0.0
 10
30.24794981009481
 20
11.75588872188289
 30
0.0
 10
29.63862685330335
 20
14.19760175783825
 30
0.0
 10
29.62955476254072
 20
14.19760175783825
 30
0.0
 10
29.62048267177803
 20
14.19760175783825
 30
0.0
 10
29.61141058101541
 20
14.19760175783825
 30
0.0
 10
28.92089815372796
 20
11.75588872188289
 30
0.0
 10
28.23038572644052
 20
9.31417568592756
 30
0.0
 10
27.53987329915307
 20
6.872462649972229
 30
0.0
 10
26.9350289694469
 20
6.872462649972229
 30
0.0
 10
26.33018463974079
 20
6.872462649972229
 30
0.0
 10
25.72534031003462
 20
6.872462649972229
 30
0.0
 10
24.86331943269667
 20
9.914483970252357
 30
0.0
 10
24.00129855535866
 20
12.95650529053254
 30
0.0
 10
23.1392776780207
 20
15.99852661081272
 30
0.0
  0
SPLINE
  5
114
102
{ACAD_REACTORS
330
193
102
}
330
1F
100
AcDbEntity
  8
256
  6
Continuous
 62
     7
370
    13
100
AcDbSpline
210
0.0
220
0.0
230
1.0
 70
    11
 71
     3
 72
    17
 73
    13
 74
     0
 42
0.000000001
 43
0.0000000001
 40
0.0
 40
0.0
 40
0.0
 40
0.0
 40
0.2500749063670398
 40
0.2500749063670398
 40
0.2500749063670398
 40
0.5000000000000023
 40
0.5000000000000023
 40
0.5000000000000023
 40
0.7500749063670421
 40
0.7500749063670421
 40
0.7500749063670421
 40
1.0
 40
1.0
 40
1.0
 40
1.0
 10
61.1392227130018
 20
16.45396853441526
 30
0.0
 10
59.6056948643411
 20
16.45396853441526
 30
0.0
 10
58.07216701568041
 20
16.45396853441526
 30
0.0
 10
56.53863916701982
 20
16.45396853441526
 30
0.0
 10
56.53863916701982
 20
14.92135937849003
 30
0.0
 10
56.53863916701982
 20
13.3887502225648
 30
0.0
 10
56.53863916701982
 20
11.85614106663957
 30
0.0
 10
58.07216701568041
 20
11.85614106663957
 30
0.0
 10
59.6056948643411
 20
11.85614106663957
 30
0.0
 10
61.1392227130018
 20
11.85614106663957
 30
0.0
 10
61.1392227130018
 20
13.3887502225648
 30
0.0
 10
61.1392227130018
 20
14.92135937849003
 30
0.0
 10
61.1392227130018
 20
16.45396853441526
 30
0.0
  0
SPLINE
  5
115
102
{ACAD_REACTORS
330
193
102
}
330
1F
100
AcDbEntity
  8
256
  6
Continuous
 62
     7
370
    13
100
AcDbSpline
210
0.0
220
0.0
230
1.0
 70
    11
 71
     3
 72
    41
 73
    37
 74
     0
 42
0.000000001
 43
0.0000000001
 40
0.0
 40
0.0
 40
0.0
 40
0.0
 40
0.0833333333333333
 40
0.0833333333333333
 40
0.0833333333333333
 40
0.1666666666666667
 40
0.1666666666666667
 40
0.1666666666666667
 40
0.25
 40
0.25
 40
0.25
 40
0.3333333333333333
 40
0.3333333333333333
 40
0.3333333333333333
 40
0.4166666666666667
 40
0.4166666666666667
 40
0.4166666666666667
 40
0.5
 40
0.5
 40
0.5
 40
0.5833333333333334
 40
0.5833333333333334
 40
0.5833333333333334
 40
0.6666666666666666
 40
0.6666666666666666
 40
0.6666666666666666
 40
0.75
 40
0.75
 40
0.75
 40
0.8333333333333334
 40
0.8333333333333334
 40
0.8333333333333334
 40
0.9166666666666666
 40
0.9166666666666666
 40
0.9166666666666666
 40
1.0
 40
1.0
 40
1.0
 40
1.0
 10
37.62644536308606
 20
8.727305110896895
 30
0.0
 10
38.05982381286489
 20
8.429474581683005
 30
0.0
 10
38.76382953970435
 20
8.090993726963271
 30
0.0
 10
39.27835488985593
 20
8.090993726963271
 30
0.0
 10
40.23970941921513
 20
8.090993726963271
 30
0.0
 10
40.78127878676671
 20
8.700259265458792
 30
0.0
 10
40.78127878676671
 20
9.444917145842206
 30
0.0
 10
40.76767065062276
 20
11.31353816976063
 30
0.0
 10
36.93603292421776
 20
10.51461999968931
 30
0.0
 10
36.93603292421776
 20
13.71012042508668
 30
0.0
 10
36.93603292421776
 20
15.24026059428534
 30
0.0
 10
38.18160801860884
 20
16.43174765387639
 30
0.0
 10
40.06383717867121
 20
16.43174765387639
 30
0.0
 10
40.99814769063042
 20
16.43174765387639
 30
0.0
 10
41.90506967541384
 20
16.10670268041273
 30
0.0
 10
42.70399599466541
 20
15.64644135862842
 30
0.0
 10
42.70398453274984
 20
15.6464332013328
 30
0.0
 10
41.97276974205371
 20
14.4006827459659
 30
0.0
 10
41.97276120276902
 20
14.4006934186719
 30
0.0
 10
41.4043247162941
 20
14.71212710798984
 30
0.0
 10
40.87619122999857
 20
15.02356394530955
 30
0.0
 10
40.1992295205591
 20
15.02356394530955
 30
0.0
 10
39.41374723174383
 20
15.02356394530955
 30
0.0
 10
38.66908935136038
 20
14.60377878350193
 30
0.0
 10
38.66908935136038
 20
13.76438071477455
 30
0.0
 10
38.66908935136038
 20
11.92280370825615
 30
0.0
 10
42.59581177588515
 20
12.50502522935168
 30
0.0
 10
42.59581177588515
 20
9.512613316786153
 30
0.0
 10
42.59581177588515
 20
7.914949231531418
 30
0.0
 10
41.30924001817434
 20
6.682810018396404
 30
0.0
 10
39.49505153883169
 20
6.682810018396404
 30
0.0
 10
38.58778504427252
 20
6.682810018396404
 30
0.0
 10
37.73477883940117
 20
6.940158820916148
 30
0.0
 10
36.94946178950815
 20
7.400592083187442
 30
0.0
 10
36.94947178431599
 20
7.400600964059331
 30
0.0
 10
37.626435060445
 20
8.727312191177512
 30
0.0
 10
37.62644536308606
 20
8.727305110896895
 30
0.0
  0
SPLINE
  5
116
102
{ACAD_REACTORS
330
193
102
}
330
1F
100
AcDbEntity
  8
256
  6
Continuous
 62
     7
370
    13
100
AcDbSpline
210
0.0
220
0.0
230
1.0
 70
    11
 71
     3
 72
    17
 73
    13
 74
     0
 42
0.000000001
 43
0.0000000001
 40
0.0
 40
0.0
 40
0.0
 40
0.0
 40
0.2499153546639589
 40
0.2499153546639589
 40
0.2499153546639589
 40
0.4999999999999987
 40
0.4999999999999987
 40
0.4999999999999987
 40
0.7499153546639602
 40
0.7499153546639602
 40
0.7499153546639602
 40
1.0
 40
1.0
 40
1.0
 40
1.0
 10
60.87463920519031
 20
16.18938502660379
 30
0.0
 10
60.87463920519031
 20
14.83316487588619
 30
0.0
 10
60.87463920519031
 20
13.47694472516864
 30
0.0
 10
60.87463920519031
 20
12.12072457445104
 30
0.0
 10
59.51750036173735
 20
12.12072457445104
 30
0.0
 10
58.16036151828428
 20
12.12072457445104
 30
0.0
 10
56.8032226748312
 20
12.12072457445104
 30
0.0
 10
56.8032226748312
 20
13.47694472516864
 30
0.0
 10
56.8032226748312
 20
14.83316487588619
 30
0.0
 10
56.8032226748312
 20
16.18938502660379
 30
0.0
 10
58.16036151828428
 20
16.18938502660379
 30
0.0
 10
59.51750036173735
 20
16.18938502660379
 30
0.0
 10
60.87463920519031
 20
16.18938502660379
 30
0.0
  0
LEADER
  5
11B
330
1F
100
AcDbEntity
  8
1
  6
Continuous
 62
    35
370
    13
100
AcDbLeader
  3
Standard
 73
     2
 76
     3
 10
133.467013
 20
187.251539
 30
0.0
 10
128.289449
 20
208.411664
 30
0.0
 10
134.289449
 20
208.411664
 30
0.0
340
11E
212
134.2894490417146
222
208.4116636978577
232
0.0
1001
ACAD
1000
DSTYLE
1002
{
1070
   341
1005
118
1070
    41
1040
8.0
1002
}
  0
INSERT
  5
11E
102
{ACAD_REACTORS
330
11B
102
}
330
1F
100
AcDbEntity
  8
1
  6
Continuous
 62
    35
370
    13
100
AcDbBlockReference
  2
LABLE3D_1
 10
0.0
 20
0.0
 30
0.0
  0
MTEXT
  5
121
102
{ACAD_REACTORS
330
195
102
}
330
1F
100
AcDbEntity
  8
256
  6
Continuous
 62
     1
370
    13
100
AcDbMText
 10
140.252831
 20
26.032512
 30
0.0
 40
1.8
 41
0.0
 71
     7
 72
     5
  1
\W1.0000;Kunde:
  7
ISOCPEUR
 73
     2
 44
0.60241
  0
MTEXT
  5
122
102
{ACAD_REACTORS
330
195
102
}
330
1F
100
AcDbEntity
  8
256
  6
Continuous
 62
     1
370
    13
100
AcDbMText
 10
140.338651
 20
20.025128
 30
0.0
 40
1.8
 41
0.0
 71
     7
 72
     5
  1
\W1.0000;Obj.:
  7
ISOCPEUR
 73
     2
 44
0.60241
  0
MTEXT
  5
123
102
{ACAD_REACTORS
330
195
102
}
330
1F
100
AcDbEntity
  8
256
  6
Continuous
 62
     1
370
    13
100
AcDbMText
 10
68.475407
 20
25.544246
 30
0.0
 40
1.8
 41
0.0
 71
     7
 72
     5
  1
\W1.0000;Ident- Nr.:
  7
ISOCPEUR
 73
     2
 44
0.60241
  0
MTEXT
  5
124
102
{ACAD_REACTORS
330
195
102
}
330
1F
100
AcDbEntity
  8
256
  6
Continuous
 62
     1
370
    13
100
AcDbMText
 10
68.034306
 20
5.784298
 30
0.0
 40
1.8
 41
0.0
 71
     7
 72
     5
  1
\W1.0000;Serie 200
  7
ISOCPEUR
 73
     2
 44
0.60241
  0
MTEXT
  5
125
102
{ACAD_REACTORS
330
195
102
}
330
1F
100
AcDbEntity
  8
256
  6
Continuous
 62
     1
370
    13
100
AcDbMText
 10
140.338651
 20
14.532663
 30
0.0
 40
1.8
 41
0.0
 71
     7
 72
     5
  1
\W1.0000;Bestell- Nr.:
  7
ISOCPEUR
 73
     2
 44
0.60241
  0
MTEXT
  5
126
102
{ACAD_REACTORS
330
195
102
}
330
1F
100
AcDbEntity
  8
256
  6
Continuous
 62
     1
370
    13
100
AcDbMText
 10
22.312209
 20
20.102235
 30
0.0
 40
1.8
 41
0.0
 71
     7
 72
     5
  1
\W1.0000;Datum:
  7
ISOCPEUR
 73
     2
 44
0.60241
  0
MTEXT
  5
127
102
{ACAD_REACTORS
330
195
102
}
330
1F
100
AcDbEntity
  8
256
  6
Continuous
 62
     1
370
    13
100
AcDbMText
 10
22.203121
 20
25.836315
 30
0.0
 40
1.8
 41
0.0
 71
     7
 72
     5
  1
\W1.0000;Ersteller:
  7
ISOCPEUR
 73
     2
 44
0.60241
  0
MTEXT
  5
128
102
{ACAD_REACTORS
330
195
102
}
330
1F
100
AcDbEntity
  8
256
  6
Continuous
 62
     1
370
    13
100
AcDbMText
 10
175.595795
 20
14.566103
 30
0.0
 40
1.8
 41
0.0
 71
     7
 72
     5
  1
\W1.0000;Pos.:
  7
ISOCPEUR
 73
     2
 44
0.60241
  0
MTEXT
  5
129
102
{ACAD_REACTORS
330
195
102
}
330
1F
100
AcDbEntity
  8
256
  6
Continuous
 62
     1
370
    13
100
AcDbMText
 10
81.289248
 20
25.334284
 30
0.0
 40
2.5
 41
0.0
 71
     7
 72
     5
  1
\W1.0000;108409
  7
ISOCPEUR
 73
     2
 44
0.60241
  0
MTEXT
  5
12A
102
{ACAD_REACTORS
330
195
102
}
330
1F
100
AcDbEntity
  8
256
  6
Continuous
 62
     1
370
    18
100
AcDbMText
 10
103.53529
 20
25.16909
 30
0.0
 40
2.5
 41
0.0
 71
     7
 72
     5
  1
\fISOCPEUR|b1|i0;\W1.0000;01
  7
ISOCPEUR
 73
     2
 44
0.60241
  0
MTEXT
  5
12B
102
{ACAD_REACTORS
330
195
102
}
330
1F
100
AcDbEntity
  8
256
  6
Continuous
 62
     1
370
    13
100
AcDbMText
 10
140.167012
 20
10.241675
 30
0.0
 40
1.8
 41
0.0
 71
     7
 72
     5
  1
\W1.0000;Änderung:
  7
ISOCPEUR
 73
     2
 44
0.60241
  0
LINE
  5
12C
330
1F
100
AcDbEntity
  8
1
  6
CENTER
 62
   203
370
    13
100
AcDbLine
 10
83.467013
 20
187.251539
 30
0.0
 11
99.467013
 21
187.251539
 31
0.0
  0
LINE
  5
12D
330
1F
100
AcDbEntity
  8
1
  6
CENTER
 62
   203
370
    13
100
AcDbLine
 10
91.467013
 20
179.251539
 30
0.0
 11
91.467013
 21
195.251539
 31
0.0
  0
LINE
  5
12E
330
1F
100
AcDbEntity
  8
1
  6
CENTER
 62
   203
370
    13
100
AcDbLine
 10
125.467013
 20
187.251539
 30
0.0
 11
141.467013
 21
187.251539
 31
0.0
  0
LINE
  5
12F
330
1F
100
AcDbEntity
  8
1
  6
CENTER
 62
   203
370
    13
100
AcDbLine
 10
133.467013
 20
179.251539
 30
0.0
 11
133.467013
 21
195.251539
 31
0.0
  0
SPLINE
  5
130
330
1F
100
AcDbEntity
  8
1
  6
CENTER
 62
   203
370
    13
100
AcDbSpline
210
0.0
220
0.0
230
1.0
 70
    24
 71
     1
 72
     5
 73
     3
 74
     0
 42
0.000000001
 43
0.0000000001
 40
0.0
 40
0.0
 40
0.875
 40
1.0
 40
1.0
 10
112.4670130461164
 20
203.2515392327672
 30
0.0
 10
112.4670130461163
 20
175.2515392327672
 30
0.0
 10
112.4670130461163
 20
171.2515392327672
 30
0.0
  0
MTEXT
  5
131
102
{ACAD_REACTORS
330
195
102
}
330
1F
100
AcDbEntity
  8
256
  6
Continuous
 62
     1
370
    13
100
AcDbMText
 10
154.841428
 20
14.532663
 30
0.0
 40
1.8
 41
0.0
 71
     7
 72
     5
  1
\W1.0000;
  7
ISOCPEUR
 73
     2
 44
0.60241
  0
MTEXT
  5
132
102
{ACAD_REACTORS
330
195
102
}
330
1F
100
AcDbEntity
  8
256
  6
Continuous
 62
     1
370
    13
100
AcDbMText
 10
35.997708
 20
25.836315
 30
0.0
 40
1.8
 41
0.0
 71
     7
 72
     5
  1
\W1.0000;KNICKT
  7
ISOCPEUR
 73
     2
 44
0.60241
  0
MTEXT
  5
133
102
{ACAD_REACTORS
330
195
102
}
330
1F
100
AcDbEntity
  8
256
  6
Continuous
 62
     1
370
    13
100
AcDbMText
 10
68.600925
 20
14.67194
 30
0.0
 40
3.5
 41
0.0
 71
     7
 72
     5
  1
\W0.9000;SBH 14.302.2400.426 62x24x3
  7
ISOCPEUR
 73
     2
 44
0.60241
  0
MTEXT
  5
134
102
{ACAD_REACTORS
330
195
102
}
330
1F
100
AcDbEntity
  8
256
  6
Continuous
 62
     1
370
    13
100
AcDbMText
 10
148.436109
 20
26.032512
 30
0.0
 40
1.8
 41
0.0
 71
     7
 72
     5
  1
\W0.8000;
  7
ISOCPEUR
 73
     2
 44
0.60241
  0
MTEXT
  5
135
102
{ACAD_REACTORS
330
195
102
}
330
1F
100
AcDbEntity
  8
256
  6
Continuous
 62
     1
370
    13
100
AcDbMText
 10
145.807848
 20
20.025128
 30
0.0
 40
1.8
 41
0.0
 71
     7
 72
     5
  1
\W1.0000;.
  7
ISOCPEUR
 73
     2
 44
0.60241
  0
MTEXT
  5
136
102
{ACAD_REACTORS
330
195
102
}
330
1F
100
AcDbEntity
  8
256
  6
Continuous
 62
    20
370
    13
100
AcDbMText
 10
535.689809
 20
15.244179
 30
0.0
 40
2.0
 41
0.0
 71
     7
 72
     5
  1
\W0.5852;\Q359.999790;\Q;
  7
ideas_iso
 73
     2
 44
0.60241
  0
MTEXT
  5
139
102
{ACAD_REACTORS
330
195
102
}
330
1F
100
AcDbEntity
  8
256
  6
Continuous
 62
    20
370
    13
100
AcDbMText
 10
535.452157
 20
10.519599
 30
0.0
 40
2.0
 41
0.0
 71
     7
 72
     5
  1
\W0.5852;\Q359.999790;\Q;
  7
ideas_iso
 73
     2
 44
0.60241
  0
MTEXT
  5
13A
102
{ACAD_REACTORS
330
195
102
}
330
1F
100
AcDbEntity
  8
256
  6
Continuous
 62
     1
370
    13
100
AcDbMText
 10
181.91213
 20
14.566103
 30
0.0
 40
1.8
 41
0.0
 71
     7
 72
     5
  1
\W1.0000;
  7
ISOCPEUR
 73
     2
 44
0.60241
  0
MTEXT
  5
13B
102
{ACAD_REACTORS
330
195
102
}
330
1F
100
AcDbEntity
  8
256
  6
Continuous
 62
     1
370
    13
100
AcDbMText
 10
96.761446
 20
25.544246
 30
0.0
 40
1.8
 41
0.0
 71
     7
 72
     5
  1
\W1.0000;Index:
  7
ISOCPEUR
 73
     2
 44
0.60241
  0
MTEXT
  5
13C
102
{ACAD_REACTORS
330
195
102
}
330
1F
100
AcDbEntity
  8
256
  6
Continuous
 62
     1
370
    13
100
AcDbMText
 10
109.542744
 20
24.922437
 30
0.0
 40
2.5
 41
0.0
 71
     7
 72
     5
  1
\W1.0000;Serienfreigabe
  7
ISOCPEUR
 73
     2
 44
0.60241
  0
MTEXT
  5
13D
102
{ACAD_REACTORS
330
195
102
}
330
1F
100
AcDbEntity
  8
256
  6
Continuous
 62
     1
370
    13
100
AcDbMText
 10
68.318349
 20
20.550442
 30
0.0
 40
1.8
 41
0.0
 71
     7
 72
     5
  1
\W1.0000;Bezeichnung:
  7
ISOCPEUR
 73
     2
 44
0.60241
  0
MTEXT
  5
13E
102
{ACAD_REACTORS
330
195
102
}
330
1F
100
AcDbEntity
  8
256
  6
Continuous
 62
     1
370
    13
100
AcDbMText
 10
68.314863
 20
10.031713
 30
0.0
 40
2.5
 41
0.0
 71
     7
 72
     5
  1
\W1.0000;Schliessbl. horiz. geschlossen
  7
ISOCPEUR
 73
     2
 44
0.60241
  0
MTEXT
  5
13F
102
{ACAD_REACTORS
330
195
102
}
330
1F
100
AcDbEntity
  8
256
  6
Continuous
 62
     1
370
    13
100
AcDbMText
 10
35.917402
 20
20.102235
 30
0.0
 40
1.8
 41
0.0
 71
     7
 72
     5
  1
\W1.0000;01.10.2012
  7
ISOCPEUR
 73
     2
 44
0.60241
  0
MTEXT
  5
140
102
{ACAD_REACTORS
330
195
102
}
330
1F
100
AcDbEntity
  8
256
  6
Continuous
 62
     1
370
    13
100
AcDbMText
 10
21.388756
 20
0.704258
 30
0.0
 40
1.0
 41
0.0
 71
     7
 72
     5
  1
\W1.0000;18.03.2019
  7
ISOCPEUR
 73
     2
 44
0.60241
  0
MTEXT
  5
141
102
{ACAD_REACTORS
330
195
102
}
330
1F
100
AcDbEntity
  8
256
  6
Continuous
 62
     1
370
    13
100
AcDbMText
 10
27.712006
 20
0.722997
 30
0.0
 40
1.0
 41
0.0
 71
     7
 72
     5
  1
\W1.0000;/
  7
ISOCPEUR
 73
     2
 44
0.60241
  0
MTEXT
  5
142
102
{ACAD_REACTORS
330
195
102
}
330
1F
100
AcDbEntity
  8
256
  6
Continuous
 62
     1
370
    13
100
AcDbMText
 10
28.590482
 20
0.704258
 30
0.0
 40
1.0
 41
0.0
 71
     7
 72
     5
  1
\W1.0000;Jung, Thorsten
  7
ISOCPEUR
 73
     2
 44
0.60241
  0
MTEXT
  5
143
102
{ACAD_REACTORS
330
195
102
}
330
1F
100
AcDbEntity
  8
256
  6
Continuous
 62
    87
370
    13
100
AcDbMText
 10
17.685762
 20
5.805962
 30
0.0
 40
1.8
 41
0.0
 71
     7
 72
     5
  3
\W0.9000;Diese Zeichnung entspricht dem Entwicklungsstand des Zeichnungsdatums bzw. der letzten\PAenderungseintragung. Aus der Benutzung der Zeichnung koennen keine Ansprueche, gleich welcher Art,\Peinschliesslich Schadensersatzansprueche, abgeleite
  3
t und gegen WSS geltend gemacht werden. Die\PZeichnung bleibt unser Eigentum und ist Dritten nur fuer die Vertragsdauer zur Benutzung ueberlassen.\PSaemtliche sich aus der Zeichnung ergebenden Ansprueche stehen ausschliesslich WSS zu. Ohne vorherige
  1
\PZustimmung von WSS darf diese Zeichnung weder vervielfaeltigt noch Dritten zugaenglich gemacht werden. 
  7
ISOCPEUR
 11
8.276882722183526E-15
 21
1.0
 31
0.0
 73
     1
 44
0.961482
  0
MTEXT
  5
144
102
{ACAD_REACTORS
330
195
102
}
330
1F
100
AcDbEntity
  8
256
  6
Continuous
 62
    87
370
    13
100
AcDbMText
 10
18.167109
 20
177.357362
 30
0.0
 40
1.8
 41
0.0
 71
     7
 72
     5
  3
\W0.9000;Zeichnung fuer Sonder- bzw. Objektkonstruktionen sind vom Anwender auf Richtigkeit sowie\PAus- und Durchfuehrbarkeit zu pruefen. Um eine einwandfreie Serienproduktion sicherzustellen ist die \PFertigung eines Musterelementes unbedingt erfor
  3
derlich. Die hierzu benoetigten Mustermengen sind\Prechtzeitig zu bestellen. Alle angegebenen Masse sind theoretisch ermittelt und vom Verarbeiter \Pverantwortlich zu ueberpruefen. Die Haftung WSS ist auf Vorsatz und grobe Fahrlaessigkeit beschraenk
  7
ISOCPEUR
 11
9.165061141883651E-15
 21
1.0
 31
0.0
 73
     1
 44
0.961482
  0
MTEXT
  5
145
330
1F
100
AcDbEntity
  8
1
  6
Continuous
 62
    35
370
    13
100
AcDbMText
 10
151.668476
 20
158.606165
 30
0.0
 40
3.5
 41
0.0
 71
     7
 72
     5
  1
\W1.0000;t=3
  7
ISOCPEUR
 73
     2
 44
0.85889
  0
SPLINE
  5
146
102
{ACAD_REACTORS
330
14F
102
}
330
1F
100
AcDbEntity
  8
1
  6
Continuous
 62
   163
 60
     1
370
    18
100
AcDbSpline
210
0.0
220
0.0
230
1.0
 70
    11
 71
     3
 72
    53
 73
    49
 74
     0
 42
0.000000001
 43
0.0000000001
 40
0.0
 40
0.0
 40
0.0
 40
0.0
 40
0.024233419787787
 40
0.024233419787787
 40
0.024233419787787
 40
0.1280418012427934
 40
0.1280418012427934
 40
0.1280418012427934
 40
0.1284086704647148
 40
0.1284086704647148
 40
0.1284086704647148
 40
0.2309459700568215
 40
0.2309459700568215
 40
0.2309459700568215
 40
0.2557435253627113
 40
0.2557435253627113
 40
0.2557435253627113
 40
0.3573149299809463
 40
0.3573149299809463
 40
0.3573149299809463
 40
0.3576817992028669
 40
0.3576817992028669
 40
0.3576817992028669
 40
0.4624443157722517
 40
0.4624443157722517
 40
0.4624443157722517
 40
0.4860156317106226
 40
0.4860156317106226
 40
0.4860156317106226
 40
0.6156754647053586
 40
0.6156754647053586
 40
0.6156754647053586
 40
0.6406552862488913
 40
0.6406552862488913
 40
0.6406552862488913
 40
0.7430727925756138
 40
0.7430727925756138
 40
0.7430727925756138
 40
0.7434419985441709
 40
0.7434419985441709
 40
0.7434419985441709
 40
0.8467092888241766
 40
0.8467092888241766
 40
0.8467092888241766
 40
0.8713245778924228
 40
0.8713245778924228
 40
0.8713245778924228
 40
1.0
 40
1.0
 40
1.0
 40
1.0
 10
23.1392776780207
 20
15.99852661081272
 30
0.0
 10
23.71696315373489
 20
16.14293362516728
 30
0.0
 10
24.29464862944909
 20
16.28734063952184
 30
0.0
 10
24.87233410516333
 20
16.43174765387639
 30
0.0
 10
25.45909167164015
 20
13.94938246437707
 30
0.0
 10
26.04584923811703
 20
11.46701727487778
 30
0.0
 10
26.63260680459385
 20
8.984652085378494
 30
0.0
 10
26.64162147706051
 20
8.984652085378494
 30
0.0
 10
26.65063614952717
 20
8.984652085378494
 30
0.0
 10
26.65965082199384
 20
8.984652085378494
 30
0.0
 10
27.36377138542528
 20
11.40379973101924
 30
0.0
 10
28.06789194885667
 20
13.82294737665993
 30
0.0
 10
28.77201251228806
 20
16.24209502230062
 30
0.0
 10
29.38133546907952
 20
16.24209502230062
 30
0.0
 10
29.99065842587103
 20
16.24209502230062
 30
0.0
 10
30.59998138266255
 20
16.24209502230062
 30
0.0
 10
31.21378296653936
 20
13.82294737665993
 30
0.0
 10
31.82758455041622
 20
11.40379973101924
 30
0.0
 10
32.44138613429308
 20
8.984652085378494
 30
0.0
 10
32.45040080675975
 20
8.984652085378494
 30
0.0
 10
32.45941547922641
 20
8.984652085378494
 30
0.0
 10
32.46843015169307
 20
8.984652085378494
 30
0.0
 10
33.14992790651385
 20
11.46701727487778
 30
0.0
 10
33.83142566133463
 20
13.9493824643771
 30
0.0
 10
34.51292341615542
 20
16.43174765387639
 30
0.0
 10
35.07263696523225
 20
16.28280459414052
 30
0.0
 10
35.63235051430908
 20
16.13386153440465
 30
0.0
 10
36.19206406338597
 20
15.98491847466878
 30
0.0
 10
35.23070953402672
 20
12.94743319976991
 30
0.0
 10
34.26935500466752
 20
9.909947924871071
 30
0.0
 10
33.30800047530832
 20
6.872462649972229
 30
0.0
 10
32.69419889143145
 20
6.872462649972229
 30
0.0
 10
32.08039730755465
 20
6.872462649972229
 30
0.0
 10
31.46659572367778
 20
6.872462649972229
 30
0.0
 10
30.85727276688633
 20
9.31417568592756
 30
0.0
 10
30.24794981009481
 20
11.75588872188289
 30
0.0
 10
29.63862685330335
 20
14.19760175783825
 30
0.0
 10
29.62955476254072
 20
14.19760175783825
 30
0.0
 10
29.62048267177803
 20
14.19760175783825
 30
0.0
 10
29.61141058101541
 20
14.19760175783825
 30
0.0
 10
28.92089815372796
 20
11.75588872188289
 30
0.0
 10
28.23038572644052
 20
9.31417568592756
 30
0.0
 10
27.53987329915307
 20
6.872462649972229
 30
0.0
 10
26.9350289694469
 20
6.872462649972229
 30
0.0
 10
26.33018463974079
 20
6.872462649972229
 30
0.0
 10
25.72534031003462
 20
6.872462649972229
 30
0.0
 10
24.86331943269667
 20
9.914483970252357
 30
0.0
 10
24.00129855535866
 20
12.95650529053254
 30
0.0
 10
23.1392776780207
 20
15.99852661081272
 30
0.0
  0
SPLINE
  5
147
102
{ACAD_REACTORS
330
14F
102
}
330
1F
100
AcDbEntity
  8
1
  6
Continuous
 62
   163
 60
     1
370
    18
100
AcDbSpline
210
0.0
220
0.0
230
1.0
 70
    11
 71
     3
 72
    41
 73
    37
 74
     0
 42
0.000000001
 43
0.0000000001
 40
0.0
 40
0.0
 40
0.0
 40
0.0
 40
0.0833333333333333
 40
0.0833333333333333
 40
0.0833333333333333
 40
0.1666666666666667
 40
0.1666666666666667
 40
0.1666666666666667
 40
0.25
 40
0.25
 40
0.25
 40
0.3333333333333333
 40
0.3333333333333333
 40
0.3333333333333333
 40
0.4166666666666667
 40
0.4166666666666667
 40
0.4166666666666667
 40
0.5
 40
0.5
 40
0.5
 40
0.5833333333333334
 40
0.5833333333333334
 40
0.5833333333333334
 40
0.6666666666666666
 40
0.6666666666666666
 40
0.6666666666666666
 40
0.75
 40
0.75
 40
0.75
 40
0.8333333333333334
 40
0.8333333333333334
 40
0.8333333333333334
 40
0.9166666666666666
 40
0.9166666666666666
 40
0.9166666666666666
 40
1.0
 40
1.0
 40
1.0
 40
1.0
 10
37.62644536308606
 20
8.727305110896895
 30
0.0
 10
38.05982381286489
 20
8.429474581683005
 30
0.0
 10
38.76382953970435
 20
8.090993726963271
 30
0.0
 10
39.27835488985593
 20
8.090993726963271
 30
0.0
 10
40.23970941921513
 20
8.090993726963271
 30
0.0
 10
40.78127878676671
 20
8.700259265458792
 30
0.0
 10
40.78127878676671
 20
9.444917145842206
 30
0.0
 10
40.76767065062276
 20
11.31353816976063
 30
0.0
 10
36.93603292421776
 20
10.51461999968931
 30
0.0
 10
36.93603292421776
 20
13.71012042508668
 30
0.0
 10
36.93603292421776
 20
15.24026059428534
 30
0.0
 10
38.18160801860884
 20
16.43174765387639
 30
0.0
 10
40.06383717867121
 20
16.43174765387639
 30
0.0
 10
40.99814769063042
 20
16.43174765387639
 30
0.0
 10
41.90506967541384
 20
16.10670268041273
 30
0.0
 10
42.70399599466541
 20
15.64644135862842
 30
0.0
 10
42.70398453274984
 20
15.6464332013328
 30
0.0
 10
41.97276974205371
 20
14.4006827459659
 30
0.0
 10
41.97276120276902
 20
14.4006934186719
 30
0.0
 10
41.4043247162941
 20
14.71212710798984
 30
0.0
 10
40.87619122999857
 20
15.02356394530955
 30
0.0
 10
40.1992295205591
 20
15.02356394530955
 30
0.0
 10
39.41374723174383
 20
15.02356394530955
 30
0.0
 10
38.66908935136038
 20
14.60377878350193
 30
0.0
 10
38.66908935136038
 20
13.76438071477455
 30
0.0
 10
38.66908935136038
 20
11.92280370825615
 30
0.0
 10
42.59581177588515
 20
12.50502522935168
 30
0.0
 10
42.59581177588515
 20
9.512613316786153
 30
0.0
 10
42.59581177588515
 20
7.914949231531418
 30
0.0
 10
41.30924001817434
 20
6.682810018396404
 30
0.0
 10
39.49505153883169
 20
6.682810018396404
 30
0.0
 10
38.58778504427252
 20
6.682810018396404
 30
0.0
 10
37.73477883940117
 20
6.940158820916148
 30
0.0
 10
36.94946178950815
 20
7.400592083187442
 30
0.0
 10
36.94947178431599
 20
7.400600964059331
 30
0.0
 10
37.626435060445
 20
8.727312191177512
 30
0.0
 10
37.62644536308606
 20
8.727305110896895
 30
0.0
  0
SPLINE
  5
148
102
{ACAD_REACTORS
330
14F
102
}
330
1F
100
AcDbEntity
  8
1
  6
Continuous
 62
   163
 60
     1
370
    18
100
AcDbSpline
210
0.0
220
0.0
230
1.0
 70
    11
 71
     3
 72
    41
 73
    37
 74
     0
 42
0.000000001
 43
0.0000000001
 40
0.0
 40
0.0
 40
0.0
 40
0.0
 40
0.0833333333333333
 40
0.0833333333333333
 40
0.0833333333333333
 40
0.1666666666666667
 40
0.1666666666666667
 40
0.1666666666666667
 40
0.25
 40
0.25
 40
0.25
 40
0.3333333333333333
 40
0.3333333333333333
 40
0.3333333333333333
 40
0.4166666666666667
 40
0.4166666666666667
 40
0.4166666666666667
 40
0.5
 40
0.5
 40
0.5
 40
0.5833333333333334
 40
0.5833333333333334
 40
0.5833333333333334
 40
0.6666666666666666
 40
0.6666666666666666
 40
0.6666666666666666
 40
0.75
 40
0.75
 40
0.75
 40
0.8333333333333334
 40
0.8333333333333334
 40
0.8333333333333334
 40
0.9166666666666666
 40
0.9166666666666666
 40
0.9166666666666666
 40
1.0
 40
1.0
 40
1.0
 40
1.0
 10
44.39623471328623
 20
8.727305110428638
 30
0.0
 10
44.82961316214747
 20
8.429474581683005
 30
0.0
 10
45.53344663409908
 20
8.090993726963271
 30
0.0
 10
46.04814423913854
 20
8.090993726963271
 30
0.0
 10
47.00932651360984
 20
8.090993726963271
 30
0.0
 10
47.55106813604937
 20
8.700259265458792
 30
0.0
 10
47.55106813604937
 20
9.444917145842206
 30
0.0
 10
47.53745999990542
 20
11.31353816976063
 30
0.0
 10
43.70565001861249
 20
10.51461999968931
 30
0.0
 10
43.70565001861249
 20
13.71012042508668
 30
0.0
 10
43.70565001861249
 20
15.24026059428534
 30
0.0
 10
44.95139736789142
 20
16.43174765387639
 30
0.0
 10
46.83345427306585
 20
16.43174765387639
 30
0.0
 10
47.76776478502507
 20
16.43174765387639
 30
0.0
 10
48.67485902469639
 20
16.10670268041273
 30
0.0
 10
49.47361308602012
 20
15.64644135906617
 30
0.0
 10
49.47360162773157
 20
15.64643320030638
 30
0.0
 10
48.74255909224894
 20
14.40068274680042
 30
0.0
 10
48.74255055156664
 20
14.4006934180556
 30
0.0
 10
48.1739418106888
 20
14.71212710798984
 30
0.0
 10
47.64580832439333
 20
15.02356394530955
 30
0.0
 10
46.9688466149538
 20
15.02356394530955
 30
0.0
 10
46.18353658102649
 20
15.02356394530955
 30
0.0
 10
45.43887870064302
 20
14.60377878350193
 30
0.0
 10
45.43887870064302
 20
13.76438071477455
 30
0.0
 10
45.43887870064302
 20
11.92280370825615
 30
0.0
 10
49.36542887027986
 20
12.50502522935168
 30
0.0
 10
49.36542887027986
 20
9.512613316786153
 30
0.0
 10
49.36542887027986
 20
7.914949231531418
 30
0.0
 10
48.079029367457
 20
6.682810018396404
 30
0.0
 10
46.26466863322639
 20
6.682810018396404
 30
0.0
 10
45.3575743935551
 20
6.682810018396404
 30
0.0
 10
44.50456818868381
 20
6.940158820916148
 30
0.0
 10
43.71907888079861
 20
7.400592083519152
 30
0.0
 10
43.71908887943025
 20
7.400600963125905
 30
0.0
 10
44.3962244106452
 20
8.727312190709236
 30
0.0
 10
44.39623471328623
 20
8.727305110428638
 30
0.0
  0
SPLINE
  5
149
102
{ACAD_REACTORS
330
14F
102
}
330
1F
100
AcDbEntity
  8
1
  6
Continuous
 62
   163
 60
     1
370
    18
100
AcDbSpline
210
0.0
220
0.0
230
1.0
 70
    11
 71
     3
 72
    17
 73
    13
 74
     0
 42
0.000000001
 43
0.0000000001
 40
0.0
 40
0.0
 40
0.0
 40
0.0
 40
0.2500749063670416
 40
0.2500749063670416
 40
0.2500749063670416
 40
0.4999999999999989
 40
0.4999999999999989
 40
0.4999999999999989
 40
0.7500749063670404
 40
0.7500749063670404
 40
0.7500749063670404
 40
1.0
 40
1.0
 40
1.0
 40
1.0
 10
55.95917372413066
 20
11.85614106663957
 30
0.0
 10
54.42564587546997
 20
11.85614106663957
 30
0.0
 10
52.89211802680927
 20
11.85614106663957
 30
0.0
 10
51.35859017814857
 20
11.85614106663957
 30
0.0
 10
51.35859017814857
 20
13.3887502225648
 30
0.0
 10
51.35859017814857
 20
14.92135937849003
 30
0.0
 10
51.35859017814857
 20
16.45396853441526
 30
0.0
 10
52.89211802680927
 20
16.45396853441526
 30
0.0
 10
54.42564587546997
 20
16.45396853441526
 30
0.0
 10
55.95917372413066
 20
16.45396853441526
 30
0.0
 10
55.95917372413066
 20
14.92135937849003
 30
0.0
 10
55.95917372413066
 20
13.3887502225648
 30
0.0
 10
55.95917372413066
 20
11.85614106663957
 30
0.0
  0
SPLINE
  5
14A
102
{ACAD_REACTORS
330
14F
102
}
330
1F
100
AcDbEntity
  8
1
  6
Continuous
 62
   163
 60
     1
370
    18
100
AcDbSpline
210
0.0
220
0.0
230
1.0
 70
    11
 71
     3
 72
    17
 73
    13
 74
     0
 42
0.000000001
 43
0.0000000001
 40
0.0
 40
0.0
 40
0.0
 40
0.0
 40
0.2500749063670398
 40
0.2500749063670398
 40
0.2500749063670398
 40
0.5000000000000023
 40
0.5000000000000023
 40
0.5000000000000023
 40
0.7500749063670421
 40
0.7500749063670421
 40
0.7500749063670421
 40
1.0
 40
1.0
 40
1.0
 40
1.0
 10
61.1392227130018
 20
6.675747567992611
 30
0.0
 10
59.6056948643411
 20
6.675747567992611
 30
0.0
 10
58.07216701568041
 20
6.675747567992611
 30
0.0
 10
56.53863916701982
 20
6.675747567992611
 30
0.0
 10
56.53863916701982
 20
8.20835672391784
 30
0.0
 10
56.53863916701982
 20
9.740965879843069
 30
0.0
 10
56.53863916701982
 20
11.2735750357683
 30
0.0
 10
58.07216701568041
 20
11.2735750357683
 30
0.0
 10
59.6056948643411
 20
11.2735750357683
 30
0.0
 10
61.1392227130018
 20
11.2735750357683
 30
0.0
 10
61.1392227130018
 20
9.740965879843069
 30
0.0
 10
61.1392227130018
 20
8.20835672391784
 30
0.0
 10
61.1392227130018
 20
6.675747567992611
 30
0.0
  0
SPLINE
  5
14B
102
{ACAD_REACTORS
330
14F
102
}
330
1F
100
AcDbEntity
  8
1
  6
Continuous
 62
   163
 60
     1
370
    18
100
AcDbSpline
210
0.0
220
0.0
230
1.0
 70
    11
 71
     3
 72
    17
 73
    13
 74
     0
 42
0.000000001
 43
0.0000000001
 40
0.0
 40
0.0
 40
0.0
 40
0.0
 40
0.2500749063670398
 40
0.2500749063670398
 40
0.2500749063670398
 40
0.5000000000000023
 40
0.5000000000000023
 40
0.5000000000000023
 40
0.7500749063670421
 40
0.7500749063670421
 40
0.7500749063670421
 40
1.0
 40
1.0
 40
1.0
 40
1.0
 10
61.1392227130018
 20
16.45396853441526
 30
0.0
 10
59.6056948643411
 20
16.45396853441526
 30
0.0
 10
58.07216701568041
 20
16.45396853441526
 30
0.0
 10
56.53863916701982
 20
16.45396853441526
 30
0.0
 10
56.53863916701982
 20
14.92135937849003
 30
0.0
 10
56.53863916701982
 20
13.3887502225648
 30
0.0
 10
56.53863916701982
 20
11.85614106663957
 30
0.0
 10
58.07216701568041
 20
11.85614106663957
 30
0.0
 10
59.6056948643411
 20
11.85614106663957
 30
0.0
 10
61.1392227130018
 20
11.85614106663957
 30
0.0
 10
61.1392227130018
 20
13.3887502225648
 30
0.0
 10
61.1392227130018
 20
14.92135937849003
 30
0.0
 10
61.1392227130018
 20
16.45396853441526
 30
0.0
  0
SPLINE
  5
14C
102
{ACAD_REACTORS
330
14F
102
}
330
1F
100
AcDbEntity
  8
1
  6
Continuous
 62
   163
 60
     1
370
    18
100
AcDbSpline
210
0.0
220
0.0
230
1.0
 70
    11
 71
     3
 72
    17
 73
    13
 74
     0
 42
0.000000001
 43
0.0000000001
 40
0.0
 40
0.0
 40
0.0
 40
0.0
 40
0.2499153546639589
 40
0.2499153546639589
 40
0.2499153546639589
 40
0.4999999999999987
 40
0.4999999999999987
 40
0.4999999999999987
 40
0.7499153546639602
 40
0.7499153546639602
 40
0.7499153546639602
 40
1.0
 40
1.0
 40
1.0
 40
1.0
 10
60.87463920519031
 20
16.18938502660379
 30
0.0
 10
60.87463920519031
 20
14.83316487588619
 30
0.0
 10
60.87463920519031
 20
13.47694472516864
 30
0.0
 10
60.87463920519031
 20
12.12072457445104
 30
0.0
 10
59.51750036173735
 20
12.12072457445104
 30
0.0
 10
58.16036151828428
 20
12.12072457445104
 30
0.0
 10
56.8032226748312
 20
12.12072457445104
 30
0.0
 10
56.8032226748312
 20
13.47694472516864
 30
0.0
 10
56.8032226748312
 20
14.83316487588619
 30
0.0
 10
56.8032226748312
 20
16.18938502660379
 30
0.0
 10
58.16036151828428
 20
16.18938502660379
 30
0.0
 10
59.51750036173735
 20
16.18938502660379
 30
0.0
 10
60.87463920519031
 20
16.18938502660379
 30
0.0
  0
SPLINE
  5
14D
102
{ACAD_REACTORS
330
14F
102
}
330
1F
100
AcDbEntity
  8
1
  6
Continuous
 62
   163
 60
     1
370
    18
100
AcDbSpline
210
0.0
220
0.0
230
1.0
 70
    11
 71
     3
 72
    17
 73
    13
 74
     0
 42
0.000000001
 43
0.0000000001
 40
0.0
 40
0.0
 40
0.0
 40
0.0
 40
0.2500749063670416
 40
0.2500749063670416
 40
0.2500749063670416
 40
0.4999999999999989
 40
0.4999999999999989
 40
0.4999999999999989
 40
0.7500749063670404
 40
0.7500749063670404
 40
0.7500749063670404
 40
1.0
 40
1.0
 40
1.0
 40
1.0
 10
55.95917372413066
 20
11.2735750357683
 30
0.0
 10
54.42564587546997
 20
11.2735750357683
 30
0.0
 10
52.89211802680927
 20
11.2735750357683
 30
0.0
 10
51.35859017814857
 20
11.2735750357683
 30
0.0
 10
51.35859017814857
 20
9.740965879843069
 30
0.0
 10
51.35859017814857
 20
8.20835672391784
 30
0.0
 10
51.35859017814857
 20
6.675747567992611
 30
0.0
 10
52.89211802680927
 20
6.675747567992611
 30
0.0
 10
54.42564587546997
 20
6.675747567992611
 30
0.0
 10
55.95917372413066
 20
6.675747567992611
 30
0.0
 10
55.95917372413066
 20
8.20835672391784
 30
0.0
 10
55.95917372413066
 20
9.740965879843069
 30
0.0
 10
55.95917372413066
 20
11.2735750357683
 30
0.0
  0
SPLINE
  5
14E
102
{ACAD_REACTORS
330
14F
102
}
330
1F
100
AcDbEntity
  8
1
  6
Continuous
 62
   163
 60
     1
370
    18
100
AcDbSpline
210
0.0
220
0.0
230
1.0
 70
    11
 71
     3
 72
    17
 73
    13
 74
     0
 42
0.000000001
 43
0.0000000001
 40
0.0
 40
0.0
 40
0.0
 40
0.0
 40
0.2499153546639537
 40
0.2499153546639537
 40
0.2499153546639537
 40
0.4999999999999934
 40
0.4999999999999934
 40
0.4999999999999934
 40
0.749915354663955
 40
0.749915354663955
 40
0.749915354663955
 40
1.0
 40
1.0
 40
1.0
 40
1.0
 10
55.69459021631917
 20
11.0089915279568
 30
0.0
 10
55.69459021631917
 20
9.652771377239228
 30
0.0
 10
55.69459021631917
 20
8.296551226521624
 30
0.0
 10
55.69459021631917
 20
6.940331075804048
 30
0.0
 10
54.3374513728661
 20
6.940331075804048
 30
0.0
 10
52.98031252941303
 20
6.940331075804048
 30
0.0
 10
51.62317368596007
 20
6.940331075804048
 30
0.0
 10
51.62317368596007
 20
8.296551226521652
 30
0.0
 10
51.62317368596007
 20
9.652771377239228
 30
0.0
 10
51.62317368596007
 20
11.0089915279568
 30
0.0
 10
52.98031252941303
 20
11.0089915279568
 30
0.0
 10
54.3374513728661
 20
11.0089915279568
 30
0.0
 10
55.69459021631917
 20
11.0089915279568
 30
0.0
  0
HATCH
  5
14F
102
{ACAD_REACTORS
330
193
102
}
330
1F
100
AcDbEntity
  8
256
  6
Continuous
 62
   155
370
    13
100
AcDbHatch
 10
0.0
 20
0.0
 30
0.0
210
0.0
220
0.0
230
1.0
  2
ANSI31
 70
     0
 71
     1
 91
        9
 92
        0
 93
        1
 72
     4
 94
        3
 73
     0
 74
     1
 95
       53
 96
       49
 40
0.0
 40
0.0
 40
0.0
 40
0.0
 40
0.024233419787787
 40
0.024233419787787
 40
0.024233419787787
 40
0.1280418012427934
 40
0.1280418012427934
 40
0.1280418012427934
 40
0.1284086704647148
 40
0.1284086704647148
 40
0.1284086704647148
 40
0.2309459700568215
 40
0.2309459700568215
 40
0.2309459700568215
 40
0.2557435253627113
 40
0.2557435253627113
 40
0.2557435253627113
 40
0.3573149299809463
 40
0.3573149299809463
 40
0.3573149299809463
 40
0.3576817992028669
 40
0.3576817992028669
 40
0.3576817992028669
 40
0.4624443157722517
 40
0.4624443157722517
 40
0.4624443157722517
 40
0.4860156317106226
 40
0.4860156317106226
 40
0.4860156317106226
 40
0.6156754647053586
 40
0.6156754647053586
 40
0.6156754647053586
 40
0.6406552862488913
 40
0.6406552862488913
 40
0.6406552862488913
 40
0.7430727925756138
 40
0.7430727925756138
 40
0.7430727925756138
 40
0.7434419985441709
 40
0.7434419985441709
 40
0.7434419985441709
 40
0.8467092888241766
 40
0.8467092888241766
 40
0.8467092888241766
 40
0.8713245778924228
 40
0.8713245778924228
 40
0.8713245778924228
 40
1.0
 40
1.0
 40
1.0
 40
1.0
 10
23.1392776780207
 20
15.99852661081272
 10
23.71696315373489
 20
16.14293362516728
 10
24.29464862944909
 20
16.28734063952184
 10
24.87233410516333
 20
16.43174765387639
 10
25.45909167164015
 20
13.94938246437707
 10
26.04584923811703
 20
11.46701727487778
 10
26.63260680459385
 20
8.984652085378494
 10
26.64162147706051
 20
8.984652085378494
 10
26.65063614952717
 20
8.984652085378494
 10
26.65965082199384
 20
8.984652085378494
 10
27.36377138542528
 20
11.40379973101924
 10
28.06789194885667
 20
13.82294737665993
 10
28.77201251228806
 20
16.24209502230062
 10
29.38133546907952
 20
16.24209502230062
 10
29.99065842587103
 20
16.24209502230062
 10
30.59998138266255
 20
16.24209502230062
 10
31.21378296653936
 20
13.82294737665993
 10
31.82758455041622
 20
11.40379973101924
 10
32.44138613429308
 20
8.984652085378494
 10
32.45040080675975
 20
8.984652085378494
 10
32.45941547922641
 20
8.984652085378494
 10
32.46843015169307
 20
8.984652085378494
 10
33.14992790651385
 20
11.46701727487778
 10
33.83142566133463
 20
13.9493824643771
 10
34.51292341615542
 20
16.43174765387639
 10
35.07263696523225
 20
16.28280459414052
 10
35.63235051430908
 20
16.13386153440465
 10
36.19206406338597
 20
15.98491847466878
 10
35.23070953402672
 20
12.94743319976991
 10
34.26935500466752
 20
9.909947924871071
 10
33.30800047530832
 20
6.872462649972229
 10
32.69419889143145
 20
6.872462649972229
 10
32.08039730755465
 20
6.872462649972229
 10
31.46659572367778
 20
6.872462649972229
 10
30.85727276688633
 20
9.31417568592756
 10
30.24794981009481
 20
11.75588872188289
 10
29.63862685330335
 20
14.19760175783825
 10
29.62955476254072
 20
14.19760175783825
 10
29.62048267177803
 20
14.19760175783825
 10
29.61141058101541
 20
14.19760175783825
 10
28.92089815372796
 20
11.75588872188289
 10
28.23038572644052
 20
9.31417568592756
 10
27.53987329915307
 20
6.872462649972229
 10
26.9350289694469
 20
6.872462649972229
 10
26.33018463974079
 20
6.872462649972229
 10
25.72534031003462
 20
6.872462649972229
 10
24.86331943269667
 20
9.914483970252357
 10
24.00129855535866
 20
12.95650529053254
 10
23.1392776780207
 20
15.99852661081272
 97
        1
330
146
 92
        0
 93
        1
 72
     4
 94
        3
 73
     0
 74
     1
 95
       41
 96
       37
 40
0.0
 40
0.0
 40
0.0
 40
0.0
 40
0.0833333333333333
 40
0.0833333333333333
 40
0.0833333333333333
 40
0.1666666666666667
 40
0.1666666666666667
 40
0.1666666666666667
 40
0.25
 40
0.25
 40
0.25
 40
0.3333333333333333
 40
0.3333333333333333
 40
0.3333333333333333
 40
0.4166666666666667
 40
0.4166666666666667
 40
0.4166666666666667
 40
0.5
 40
0.5
 40
0.5
 40
0.5833333333333334
 40
0.5833333333333334
 40
0.5833333333333334
 40
0.6666666666666666
 40
0.6666666666666666
 40
0.6666666666666666
 40
0.75
 40
0.75
 40
0.75
 40
0.8333333333333334
 40
0.8333333333333334
 40
0.8333333333333334
 40
0.9166666666666666
 40
0.9166666666666666
 40
0.9166666666666666
 40
1.0
 40
1.0
 40
1.0
 40
1.0
 10
37.62644536308606
 20
8.727305110896895
 10
38.05982381286489
 20
8.429474581683005
 10
38.76382953970435
 20
8.090993726963271
 10
39.27835488985593
 20
8.090993726963271
 10
40.23970941921513
 20
8.090993726963271
 10
40.78127878676671
 20
8.700259265458792
 10
40.78127878676671
 20
9.444917145842206
 10
40.76767065062276
 20
11.31353816976063
 10
36.93603292421776
 20
10.51461999968931
 10
36.93603292421776
 20
13.71012042508668
 10
36.93603292421776
 20
15.24026059428534
 10
38.18160801860884
 20
16.43174765387639
 10
40.06383717867121
 20
16.43174765387639
 10
40.99814769063042
 20
16.43174765387639
 10
41.90506967541384
 20
16.10670268041273
 10
42.70399599466541
 20
15.64644135862842
 10
42.70398453274984
 20
15.6464332013328
 10
41.97276974205371
 20
14.4006827459659
 10
41.97276120276902
 20
14.4006934186719
 10
41.4043247162941
 20
14.71212710798984
 10
40.87619122999857
 20
15.02356394530955
 10
40.1992295205591
 20
15.02356394530955
 10
39.41374723174383
 20
15.02356394530955
 10
38.66908935136038
 20
14.60377878350193
 10
38.66908935136038
 20
13.76438071477455
 10
38.66908935136038
 20
11.92280370825615
 10
42.59581177588515
 20
12.50502522935168
 10
42.59581177588515
 20
9.512613316786153
 10
42.59581177588515
 20
7.914949231531418
 10
41.30924001817434
 20
6.682810018396404
 10
39.49505153883169
 20
6.682810018396404
 10
38.58778504427252
 20
6.682810018396404
 10
37.73477883940117
 20
6.940158820916148
 10
36.94946178950815
 20
7.400592083187442
 10
36.94947178431599
 20
7.400600964059331
 10
37.626435060445
 20
8.727312191177512
 10
37.62644536308606
 20
8.727305110896895
 97
        1
330
147
 92
        0
 93
        1
 72
     4
 94
        3
 73
     0
 74
     1
 95
       41
 96
       37
 40
0.0
 40
0.0
 40
0.0
 40
0.0
 40
0.0833333333333333
 40
0.0833333333333333
 40
0.0833333333333333
 40
0.1666666666666667
 40
0.1666666666666667
 40
0.1666666666666667
 40
0.25
 40
0.25
 40
0.25
 40
0.3333333333333333
 40
0.3333333333333333
 40
0.3333333333333333
 40
0.4166666666666667
 40
0.4166666666666667
 40
0.4166666666666667
 40
0.5
 40
0.5
 40
0.5
 40
0.5833333333333334
 40
0.5833333333333334
 40
0.5833333333333334
 40
0.6666666666666666
 40
0.6666666666666666
 40
0.6666666666666666
 40
0.75
 40
0.75
 40
0.75
 40
0.8333333333333334
 40
0.8333333333333334
 40
0.8333333333333334
 40
0.9166666666666666
 40
0.9166666666666666
 40
0.9166666666666666
 40
1.0
 40
1.0
 40
1.0
 40
1.0
 10
44.39623471328623
 20
8.727305110428638
 10
44.82961316214747
 20
8.429474581683005
 10
45.53344663409908
 20
8.090993726963271
 10
46.04814423913854
 20
8.090993726963271
 10
47.00932651360984
 20
8.090993726963271
 10
47.55106813604937
 20
8.700259265458792
 10
47.55106813604937
 20
9.444917145842206
 10
47.53745999990542
 20
11.31353816976063
 10
43.70565001861249
 20
10.51461999968931
 10
43.70565001861249
 20
13.71012042508668
 10
43.70565001861249
 20
15.24026059428534
 10
44.95139736789142
 20
16.43174765387639
 10
46.83345427306585
 20
16.43174765387639
 10
47.76776478502507
 20
16.43174765387639
 10
48.67485902469639
 20
16.10670268041273
 10
49.47361308602012
 20
15.64644135906617
 10
49.47360162773157
 20
15.64643320030638
 10
48.74255909224894
 20
14.40068274680042
 10
48.74255055156664
 20
14.4006934180556
 10
48.1739418106888
 20
14.71212710798984
 10
47.64580832439333
 20
15.02356394530955
 10
46.9688466149538
 20
15.02356394530955
 10
46.18353658102649
 20
15.02356394530955
 10
45.43887870064302
 20
14.60377878350193
 10
45.43887870064302
 20
13.76438071477455
 10
45.43887870064302
 20
11.92280370825615
 10
49.36542887027986
 20
12.50502522935168
 10
49.36542887027986
 20
9.512613316786153
 10
49.36542887027986
 20
7.914949231531418
 10
48.079029367457
 20
6.682810018396404
 10
46.26466863322639
 20
6.682810018396404
 10
45.3575743935551
 20
6.682810018396404
 10
44.50456818868381
 20
6.940158820916148
 10
43.71907888079861
 20
7.400592083519152
 10
43.71908887943025
 20
7.400600963125905
 10
44.3962244106452
 20
8.727312190709236
 10
44.39623471328623
 20
8.727305110428638
 97
        1
330
148
 92
        0
 93
        1
 72
     4
 94
        3
 73
     0
 74
     1
 95
       17
 96
       13
 40
0.0
 40
0.0
 40
0.0
 40
0.0
 40
0.2500749063670416
 40
0.2500749063670416
 40
0.2500749063670416
 40
0.4999999999999989
 40
0.4999999999999989
 40
0.4999999999999989
 40
0.7500749063670404
 40
0.7500749063670404
 40
0.7500749063670404
 40
1.0
 40
1.0
 40
1.0
 40
1.0
 10
55.95917372413066
 20
11.85614106663957
 10
54.42564587546997
 20
11.85614106663957
 10
52.89211802680927
 20
11.85614106663957
 10
51.35859017814857
 20
11.85614106663957
 10
51.35859017814857
 20
13.3887502225648
 10
51.35859017814857
 20
14.92135937849003
 10
51.35859017814857
 20
16.45396853441526
 10
52.89211802680927
 20
16.45396853441526
 10
54.42564587546997
 20
16.45396853441526
 10
55.95917372413066
 20
16.45396853441526
 10
55.95917372413066
 20
14.92135937849003
 10
55.95917372413066
 20
13.3887502225648
 10
55.95917372413066
 20
11.85614106663957
 97
        1
330
149
 92
        0
 93
        1
 72
     4
 94
        3
 73
     0
 74
     1
 95
       17
 96
       13
 40
0.0
 40
0.0
 40
0.0
 40
0.0
 40
0.2500749063670398
 40
0.2500749063670398
 40
0.2500749063670398
 40
0.5000000000000023
 40
0.5000000000000023
 40
0.5000000000000023
 40
0.7500749063670421
 40
0.7500749063670421
 40
0.7500749063670421
 40
1.0
 40
1.0
 40
1.0
 40
1.0
 10
61.1392227130018
 20
6.675747567992611
 10
59.6056948643411
 20
6.675747567992611
 10
58.07216701568041
 20
6.675747567992611
 10
56.53863916701982
 20
6.675747567992611
 10
56.53863916701982
 20
8.20835672391784
 10
56.53863916701982
 20
9.740965879843069
 10
56.53863916701982
 20
11.2735750357683
 10
58.07216701568041
 20
11.2735750357683
 10
59.6056948643411
 20
11.2735750357683
 10
61.1392227130018
 20
11.2735750357683
 10
61.1392227130018
 20
9.740965879843069
 10
61.1392227130018
 20
8.20835672391784
 10
61.1392227130018
 20
6.675747567992611
 97
        1
330
14A
 92
        0
 93
        1
 72
     4
 94
        3
 73
     0
 74
     1
 95
       17
 96
       13
 40
0.0
 40
0.0
 40
0.0
 40
0.0
 40
0.2500749063670398
 40
0.2500749063670398
 40
0.2500749063670398
 40
0.5000000000000023
 40
0.5000000000000023
 40
0.5000000000000023
 40
0.7500749063670421
 40
0.7500749063670421
 40
0.7500749063670421
 40
1.0
 40
1.0
 40
1.0
 40
1.0
 10
61.1392227130018
 20
16.45396853441526
 10
59.6056948643411
 20
16.45396853441526
 10
58.07216701568041
 20
16.45396853441526
 10
56.53863916701982
 20
16.45396853441526
 10
56.53863916701982
 20
14.92135937849003
 10
56.53863916701982
 20
13.3887502225648
 10
56.53863916701982
 20
11.85614106663957
 10
58.07216701568041
 20
11.85614106663957
 10
59.6056948643411
 20
11.85614106663957
 10
61.1392227130018
 20
11.85614106663957
 10
61.1392227130018
 20
13.3887502225648
 10
61.1392227130018
 20
14.92135937849003
 10
61.1392227130018
 20
16.45396853441526
 97
        1
330
14B
 92
        0
 93
        1
 72
     4
 94
        3
 73
     0
 74
     1
 95
       17
 96
       13
 40
0.0
 40
0.0
 40
0.0
 40
0.0
 40
0.2499153546639589
 40
0.2499153546639589
 40
0.2499153546639589
 40
0.4999999999999987
 40
0.4999999999999987
 40
0.4999999999999987
 40
0.7499153546639602
 40
0.7499153546639602
 40
0.7499153546639602
 40
1.0
 40
1.0
 40
1.0
 40
1.0
 10
60.87463920519031
 20
16.18938502660379
 10
60.87463920519031
 20
14.83316487588619
 10
60.87463920519031
 20
13.47694472516864
 10
60.87463920519031
 20
12.12072457445104
 10
59.51750036173735
 20
12.12072457445104
 10
58.16036151828428
 20
12.12072457445104
 10
56.8032226748312
 20
12.12072457445104
 10
56.8032226748312
 20
13.47694472516864
 10
56.8032226748312
 20
14.83316487588619
 10
56.8032226748312
 20
16.18938502660379
 10
58.16036151828428
 20
16.18938502660379
 10
59.51750036173735
 20
16.18938502660379
 10
60.87463920519031
 20
16.18938502660379
 97
        1
330
14C
 92
        0
 93
        1
 72
     4
 94
        3
 73
     0
 74
     1
 95
       17
 96
       13
 40
0.0
 40
0.0
 40
0.0
 40
0.0
 40
0.2500749063670416
 40
0.2500749063670416
 40
0.2500749063670416
 40
0.4999999999999989
 40
0.4999999999999989
 40
0.4999999999999989
 40
0.7500749063670404
 40
0.7500749063670404
 40
0.7500749063670404
 40
1.0
 40
1.0
 40
1.0
 40
1.0
 10
55.95917372413066
 20
11.2735750357683
 10
54.42564587546997
 20
11.2735750357683
 10
52.89211802680927
 20
11.2735750357683
 10
51.35859017814857
 20
11.2735750357683
 10
51.35859017814857
 20
9.740965879843069
 10
51.35859017814857
 20
8.20835672391784
 10
51.35859017814857
 20
6.675747567992611
 10
52.89211802680927
 20
6.675747567992611
 10
54.42564587546997
 20
6.675747567992611
 10
55.95917372413066
 20
6.675747567992611
 10
55.95917372413066
 20
8.20835672391784
 10
55.95917372413066
 20
9.740965879843069
 10
55.95917372413066
 20
11.2735750357683
 97
        1
330
14D
 92
        0
 93
        1
 72
     4
 94
        3
 73
     0
 74
     1
 95
       17
 96
       13
 40
0.0
 40
0.0
 40
0.0
 40
0.0
 40
0.2499153546639537
 40
0.2499153546639537
 40
0.2499153546639537
 40
0.4999999999999934
 40
0.4999999999999934
 40
0.4999999999999934
 40
0.749915354663955
 40
0.749915354663955
 40
0.749915354663955
 40
1.0
 40
1.0
 40
1.0
 40
1.0
 10
55.69459021631917
 20
11.0089915279568
 10
55.69459021631917
 20
9.652771377239228
 10
55.69459021631917
 20
8.296551226521624
 10
55.69459021631917
 20
6.940331075804048
 10
54.3374513728661
 20
6.940331075804048
 10
52.98031252941303
 20
6.940331075804048
 10
51.62317368596007
 20
6.940331075804048
 10
51.62317368596007
 20
8.296551226521652
 10
51.62317368596007
 20
9.652771377239228
 10
51.62317368596007
 20
11.0089915279568
 10
52.98031252941303
 20
11.0089915279568
 10
54.3374513728661
 20
11.0089915279568
 10
55.69459021631917
 20
11.0089915279568
 97
        1
330
14E
 75
     0
 76
     1
 52
0.0
 41
0.1
 77
     0
 78
     1
 53
44.99999999999989
 43
0.0
 44
0.0
 45
-0.2245064030267284
 46
0.2245064030267293
 79
     0
 98
        0
  0
MTEXT
  5
150
102
{ACAD_REACTORS
330
194
102
}
330
1F
100
AcDbEntity
  8
1
  6
Continuous
 62
    35
370
    13
100
AcDbMText
 10
110.892013
 20
159.951732
 30
0.0
 40
3.5
 41
0.0
 71
     7
 72
     5
  1
\W1.0000;42
  7
ISOCPEUR
 73
     2
 44
1.115371
  0
LINE
  5
151
102
{ACAD_REACTORS
330
154
102
}
330
1F
100
AcDbEntity
  8
1
  6
Continuous
 62
    35
 60
     1
370
    18
100
AcDbLine
 10
91.467013
 20
159.251539
 30
0.0
 11
99.467009
 21
160.304759
 31
0.0
  0
LINE
  5
152
102
{ACAD_REACTORS
330
154
102
}
330
1F
100
AcDbEntity
  8
1
  6
Continuous
 62
    35
 60
     1
370
    18
100
AcDbLine
 10
99.467009
 20
160.304759
 30
0.0
 11
99.467017
 21
158.198319
 31
0.0
  0
LINE
  5
153
102
{ACAD_REACTORS
330
154
102
}
330
1F
100
AcDbEntity
  8
1
  6
Continuous
 62
    35
 60
     1
370
    18
100
AcDbLine
 10
99.467017
 20
158.198319
 30
0.0
 11
91.467013
 21
159.251539
 31
0.0
  0
HATCH
  5
154
102
{ACAD_REACTORS
330
194
102
}
330
1F
100
AcDbEntity
  8
1
  6
Continuous
 62
    35
370
    13
100
AcDbHatch
 10
0.0
 20
0.0
 30
0.0
210
0.0
220
0.0
230
1.0
  2
ANSI31
 70
     0
 71
     1
 91
        1
 92
        0
 93
        3
 72
     1
 10
91.46701304611632
 20
159.2515392327671
 11
99.46700917742331
 21
160.3047592134592
 72
     1
 10
99.46700917742331
 20
160.3047592134592
 11
99.46701691480934
 21
158.1983192520751
 72
     1
 10
99.46701691480934
 20
158.1983192520751
 11
91.46701304611632
 21
159.2515392327671
 97
        3
330
151
330
152
330
153
 75
     0
 76
     1
 52
0.0
 41
0.02
 77
     0
 78
     1
 53
44.99999999999944
 43
0.0
 44
0.0
 45
-0.0449012806053453
 46
0.0449012806053462
 79
     0
 98
        0
  0
LINE
  5
155
102
{ACAD_REACTORS
330
158
102
}
330
1F
100
AcDbEntity
  8
1
  6
Continuous
 62
    35
 60
     1
370
    18
100
AcDbLine
 10
133.467013
 20
159.251539
 30
0.0
 11
125.467017
 21
158.198319
 31
0.0
  0
LINE
  5
156
102
{ACAD_REACTORS
330
158
102
}
330
1F
100
AcDbEntity
  8
1
  6
Continuous
 62
    35
 60
     1
370
    18
100
AcDbLine
 10
125.467017
 20
158.198319
 30
0.0
 11
125.467009
 21
160.304759
 31
0.0
  0
LINE
  5
157
102
{ACAD_REACTORS
330
158
102
}
330
1F
100
AcDbEntity
  8
1
  6
Continuous
 62
    35
 60
     1
370
    18
100
AcDbLine
 10
125.467009
 20
160.304759
 30
0.0
 11
133.467013
 21
159.251539
 31
0.0
  0
HATCH
  5
158
102
{ACAD_REACTORS
330
194
102
}
330
1F
100
AcDbEntity
  8
1
  6
Continuous
 62
    35
370
    13
100
AcDbHatch
 10
0.0
 20
0.0
 30
0.0
210
0.0
220
0.0
230
1.0
  2
ANSI31
 70
     0
 71
     1
 91
        1
 92
        0
 93
        3
 72
     1
 10
133.4670130461163
 20
159.2515392327671
 11
125.4670169148093
 21
158.1983192520751
 72
     1
 10
125.4670169148093
 20
158.1983192520751
 11
125.4670091774233
 21
160.3047592134592
 72
     1
 10
125.4670091774233
 20
160.3047592134592
 11
133.4670130461163
 21
159.2515392327671
 97
        3
330
155
330
156
330
157
 75
     0
 76
     1
 52
0.0
 41
0.02
 77
     0
 78
     1
 53
44.99999999999942
 43
0.0
 44
0.0
 45
-0.0449012806053453
 46
0.0449012806053462
 79
     0
 98
        0
  0
INSERT
  5
160
330
1F
100
AcDbEntity
  8
1
  6
Continuous
 62
    35
370
    13
100
AcDbBlockReference
  2
_U0
 10
0.0
 20
0.0
 30
0.0
  0
INSERT
  5
16A
330
1F
100
AcDbEntity
  8
1
  6
Continuous
 62
    35
370
    13
100
AcDbBlockReference
  2
_U1
 10
0.0
 20
0.0
 30
0.0
  0
INSERT
  5
174
330
1F
100
AcDbEntity
  8
1
  6
Continuous
 62
    35
370
    13
100
AcDbBlockReference
  2
_U2
 10
0.0
 20
0.0
 30
0.0
  0
INSERT
  5
17E
330
1F
100
AcDbEntity
  8
1
  6
Continuous
 62
    35
370
    13
100
AcDbBlockReference
  2
_U3
 10
0.0
 20
0.0
 30
0.0
  0
INSERT
  5
188
330
1F
100
AcDbEntity
  8
1
  6
Continuous
 62
    35
370
    13
100
AcDbBlockReference
  2
_U4
 10
0.0
 20
0.0
 30
0.0
  0
ENDSEC
  0
SECTION
  2
OBJECTS
  0
DICTIONARY
  5
C
330
0
100
AcDbDictionary
281
     1
  3
ACAD_DETAILVIEWSTYLE
350
1E2
  3
ACAD_GROUP
350
D
  3
ACAD_LAYOUT
350
1A
  3
ACAD_MATERIAL
350
43
  3
ACAD_MLEADERSTYLE
350
1E1
  3
ACAD_MLINESTYLE
350
17
  3
ACAD_PLOTSETTINGS
350
19
  3
ACAD_PLOTSTYLENAME
350
E
  3
ACAD_SCALELIST
350
47
  3
ACAD_SECTIONVIEWSTYLE
350
1E3
  3
ACAD_TABLESTYLE
350
1E0
  3
ACAD_VISUALSTYLE
350
2A
  3
AcDbVariableDictionary
350
1A7
  0
DICTIONARY
  5
1E2
102
{ACAD_REACTORS
330
C
102
}
330
C
100
AcDbDictionary
281
     1
  0
DICTIONARY
  5
D
102
{ACAD_REACTORS
330
C
102
}
330
C
100
AcDbDictionary
281
     1
  3
DIMENSION
350
194
  3
Group1
350
193
  3
NXE_RSD
350
195
  0
DICTIONARY
  5
1A
102
{ACAD_REACTORS
330
C
102
}
330
C
100
AcDbDictionary
281
     1
  3
Layout1
350
1E
  3
Layout2
350
26
  3
Model
350
22
  0
DICTIONARY
  5
43
102
{ACAD_REACTORS
330
C
102
}
330
C
100
AcDbDictionary
281
     1
  3
ByBlock
350
45
  3
ByLayer
350
44
  3
Global
350
46
  0
DICTIONARY
  5
1E1
102
{ACAD_REACTORS
330
C
102
}
330
C
100
AcDbDictionary
281
     1
  0
DICTIONARY
  5
17
102
{ACAD_REACTORS
330
C
102
}
330
C
100
AcDbDictionary
281
     1
  3
Standard
350
18
  0
DICTIONARY
  5
19
102
{ACAD_REACTORS
330
C
102
}
330
C
100
AcDbDictionary
281
     1
  0
ACDBDICTIONARYWDFLT
  5
E
102
{ACAD_REACTORS
330
C
102
}
330
C
100
AcDbDictionary
281
     1
  3
Normal
350
F
100
AcDbDictionaryWithDefault
340
F
  0
DICTIONARY
  5
47
102
{ACAD_REACTORS
330
C
102
}
330
C
100
AcDbDictionary
281
     1
  3
A0
350
48
  3
A1
350
49
  3
A2
350
4A
  3
A3
350
4B
  3
A4
350
4C
  3
A5
350
4D
  3
A6
350
4E
  3
A7
350
4F
  3
A8
350
50
  3
A9
350
51
  3
B0
350
52
  3
B1
350
53
  3
B2
350
54
  3
B3
350
55
  3
B4
350
56
  3
B5
350
57
  3
B6
350
58
  3
B7
350
59
  3
B8
350
5A
  3
B9
350
5B
  3
C0
350
5C
  3
C1
350
5D
  3
C2
350
5E
  3
C3
350
5F
  3
C4
350
60
  3
C5
350
61
  3
C6
350
62
  3
C7
350
63
  3
C8
350
64
  3
C9
350
65
  3
D0
350
66
  3
D1
350
67
  3
D2
350
68
  0
DICTIONARY
  5
1E3
102
{ACAD_REACTORS
330
C
102
}
330
C
100
AcDbDictionary
281
     1
  0
DICTIONARY
  5
1E0
102
{ACAD_REACTORS
330
C
102
}
330
C
100
AcDbDictionary
281
     1
  0
DICTIONARY
  5
2A
102
{ACAD_REACTORS
330
C
102
}
330
C
100
AcDbDictionary
281
     1
  3
2dWireframe
350
2F
  3
Basic
350
32
  3
Brighten
350
36
  3
ColorChange
350
3A
  3
Conceptual
350
34
  3
Dim
350
35
  3
EdgeColorOff
350
3D
  3
Facepattern
350
39
  3
Flat
350
2B
  3
FlatWithEdges
350
2C
  3
Gouraud
350
2D
  3
GouraudWithEdges
350
2E
  3
Hidden
350
31
  3
JitterOff
350
3B
  3
Linepattern
350
38
  3
OverhangOff
350
3C
  3
Realistic
350
33
  3
Shaded
350
42
  3
Shaded with edges
350
41
  3
Shades of Gray
350
3E
  3
Sketchy
350
3F
  3
Thicken
350
37
  3
Wireframe
350
30
  3
X-Ray
350
40
  0
DICTIONARY
  5
1A7
102
{ACAD_REACTORS
330
C
102
}
330
C
100
AcDbDictionary
281
     1
  3
CANNOSCALE
350
1A8
  3
MSLTSCALE
350
1A9
  0
GROUP
  5
194
102
{ACAD_REACTORS
330
D
102
}
330
D
100
AcDbGroup
300

 70
     0
 71
     1
340
150
340
95
340
96
340
97
340
154
340
158
  0
GROUP
  5
193
102
{ACAD_REACTORS
330
D
102
}
330
D
100
AcDbGroup
300

 70
     0
 71
     1
340
104
340
105
340
106
340
14F
340
110
340
111
340
112
340
113
340
114
340
115
340
116
  0
GROUP
  5
195
102
{ACAD_REACTORS
330
D
102
}
330
D
100
AcDbGroup
300

 70
     0
 71
     1
340
8C
340
8D
340
8E
340
7F
340
8F
340
90
340
7E
340
91
340
92
340
93
340
94
340
143
340
144
340
80
340
7D
340
81
340
82
340
78
340
83
340
84
340
86
340
87
340
88
340
7B
340
7A
340
89
340
7C
340
8A
340
8B
340
121
340
122
340
12B
340
123
340
125
340
127
340
126
340
128
340
133
340
124
340
134
340
135
340
129
340
136
340
139
340
13A
340
13B
340
12A
340
13C
340
131
340
13D
340
13E
340
13F
340
132
340
140
340
141
340
142
  0
LAYOUT
  5
1E
102
{ACAD_REACTORS
330
1A
102
}
330
1A
100
AcDbPlotSettings
  1

  2
none_device
  4

  6

 40
0.0
 41
0.0
 42
0.0
 43
0.0
 44
0.0
 45
0.0
 46
0.0
 47
0.0
 48
0.0
 49
0.0
140
0.0
141
0.0
142
1.0
143
1.0
 70
   688
 72
     0
 73
     0
 74
     5
  7

 75
    16
 76
     0
 77
     2
 78
   300
147
1.0
148
0.0
149
0.0
100
AcDbLayout
  1
Layout1
 70
     1
 71
     1
 10
-0.5
 20
-0.5
 11
5.0
 21
5.0
 12
0.0
 22
0.0
 32
0.0
 14
-0.5
 24
-0.5
 34
-0.5
 15
5.0
 25
5.0
 35
5.0
146
0.0
 13
0.0
 23
0.0
 33
0.0
 16
1.0
 26
0.0
 36
0.0
 17
0.0
 27
1.0
 37
0.0
 76
     0
330
1B
  0
LAYOUT
  5
26
102
{ACAD_REACTORS
330
1A
102
}
330
1A
100
AcDbPlotSettings
  1

  2
none_device
  4

  6

 40
0.0
 41
0.0
 42
0.0
 43
0.0
 44
0.0
 45
0.0
 46
0.0
 47
0.0
 48
0.0
 49
0.0
140
0.0
141
0.0
142
1.0
143
1.0
 70
   688
 72
     0
 73
     0
 74
     5
  7

 75
    16
 76
     0
 77
     2
 78
   300
147
1.0
148
0.0
149
0.0
100
AcDbLayout
  1
Layout2
 70
     1
 71
     2
 10
0.0
 20
0.0
 11
0.0
 21
0.0
 12
0.0
 22
0.0
 32
0.0
 14
0.0
 24
0.0
 34
0.0
 15
0.0
 25
0.0
 35
0.0
146
0.0
 13
0.0
 23
0.0
 33
0.0
 16
1.0
 26
0.0
 36
0.0
 17
0.0
 27
1.0
 37
0.0
 76
     0
330
23
  0
LAYOUT
  5
22
102
{ACAD_REACTORS
330
1A
102
}
330
1A
100
AcDbPlotSettings
  1

  2
none_device
  4
Letter_(8.50_x_11.00_Inches)
  6

 40
6.35
 41
6.35
 42
6.350005
 43
6.350005
 44
215.9
 45
279.4
 46
0.0
 47
0.0
 48
0.0
 49
0.0
140
0.0
141
0.0
142
1.0
143
1.0
 70
  1712
 72
     0
 73
     0
 74
     0
  7

 75
     0
 76
     0
 77
     2
 78
   300
147
1.0
148
0.0
149
0.0
100
AcDbLayout
  1
Model
 70
     1
 71
     0
 10
-0.5
 20
-0.5
 11
5.0
 21
5.0
 12
0.0
 22
0.0
 32
0.0
 14
-0.5
 24
-0.5
 34
-0.5
 15
5.0
 25
5.0
 35
5.0
146
0.0
 13
0.0
 23
0.0
 33
0.0
 16
1.0
 26
0.0
 36
0.0
 17
0.0
 27
1.0
 37
0.0
 76
     0
330
1F
331
196
  0
MATERIAL
  5
45
102
{ACAD_REACTORS
330
43
102
}
102
{ACAD_XDICTIONARY
360
1DC
102
}
330
43
100
AcDbMaterial
  1
ByBlock
  0
MATERIAL
  5
44
102
{ACAD_REACTORS
330
43
102
}
102
{ACAD_XDICTIONARY
360
1DA
102
}
330
43
100
AcDbMaterial
  1
ByLayer
  0
MATERIAL
  5
46
102
{ACAD_REACTORS
330
43
102
}
102
{ACAD_XDICTIONARY
360
1DE
102
}
330
43
100
AcDbMaterial
  1
Global
  0
MLINESTYLE
  5
18
102
{ACAD_REACTORS
330
17
102
}
330
17
100
AcDbMlineStyle
  2
Standard
 70
     0
  3

 62
   256
 51
90.0
 52
90.0
 71
     2
 49
0.5
 62
   256
  6
BYLAYER
 49
-0.5
 62
   256
  6
BYLAYER
  0
ACDBPLACEHOLDER
  5
F
102
{ACAD_REACTORS
330
E
102
}
330
E
  0
SCALE
  5
48
102
{ACAD_REACTORS
330
47
102
}
330
47
100
AcDbScale
 70
     0
300
1:1
140
1.0
141
1.0
290
     1
  0
SCALE
  5
49
102
{ACAD_REACTORS
330
47
102
}
330
47
100
AcDbScale
 70
     0
300
1:2
140
1.0
141
2.0
290
     0
  0
SCALE
  5
4A
102
{ACAD_REACTORS
330
47
102
}
330
47
100
AcDbScale
 70
     0
300
1:4
140
1.0
141
4.0
290
     0
  0
SCALE
  5
4B
102
{ACAD_REACTORS
330
47
102
}
330
47
100
AcDbScale
 70
     0
300
1:5
140
1.0
141
5.0
290
     0
  0
SCALE
  5
4C
102
{ACAD_REACTORS
330
47
102
}
330
47
100
AcDbScale
 70
     0
300
1:8
140
1.0
141
8.0
290
     0
  0
SCALE
  5
4D
102
{ACAD_REACTORS
330
47
102
}
330
47
100
AcDbScale
 70
     0
300
1:10
140
1.0
141
10.0
290
     0
  0
SCALE
  5
4E
102
{ACAD_REACTORS
330
47
102
}
330
47
100
AcDbScale
 70
     0
300
1:16
140
1.0
141
16.0
290
     0
  0
SCALE
  5
4F
102
{ACAD_REACTORS
330
47
102
}
330
47
100
AcDbScale
 70
     0
300
1:20
140
1.0
141
20.0
290
     0
  0
SCALE
  5
50
102
{ACAD_REACTORS
330
47
102
}
330
47
100
AcDbScale
 70
     0
300
1:30
140
1.0
141
30.0
290
     0
  0
SCALE
  5
51
102
{ACAD_REACTORS
330
47
102
}
330
47
100
AcDbScale
 70
     0
300
1:40
140
1.0
141
40.0
290
     0
  0
SCALE
  5
52
102
{ACAD_REACTORS
330
47
102
}
330
47
100
AcDbScale
 70
     0
300
1:50
140
1.0
141
50.0
290
     0
  0
SCALE
  5
53
102
{ACAD_REACTORS
330
47
102
}
330
47
100
AcDbScale
 70
     0
300
1:100
140
1.0
141
100.0
290
     0
  0
SCALE
  5
54
102
{ACAD_REACTORS
330
47
102
}
330
47
100
AcDbScale
 70
     0
300
2:1
140
2.0
141
1.0
290
     0
  0
SCALE
  5
55
102
{ACAD_REACTORS
330
47
102
}
330
47
100
AcDbScale
 70
     0
300
4:1
140
4.0
141
1.0
290
     0
  0
SCALE
  5
56
102
{ACAD_REACTORS
330
47
102
}
330
47
100
AcDbScale
 70
     0
300
8:1
140
8.0
141
1.0
290
     0
  0
SCALE
  5
57
102
{ACAD_REACTORS
330
47
102
}
330
47
100
AcDbScale
 70
     0
300
10:1
140
10.0
141
1.0
290
     0
  0
SCALE
  5
58
102
{ACAD_REACTORS
330
47
102
}
330
47
100
AcDbScale
 70
     0
300
100:1
140
100.0
141
1.0
290
     0
  0
SCALE
  5
59
102
{ACAD_REACTORS
330
47
102
}
330
47
100
AcDbScale
 70
     0
300
1/128" = 1'-0"
140
0.007812
141
12.0
290
     0
  0
SCALE
  5
5A
102
{ACAD_REACTORS
330
47
102
}
330
47
100
AcDbScale
 70
     0
300
1/64" = 1'-0"
140
0.015625
141
12.0
290
     0
  0
SCALE
  5
5B
102
{ACAD_REACTORS
330
47
102
}
330
47
100
AcDbScale
 70
     0
300
1/32" = 1'-0"
140
0.03125
141
12.0
290
     0
  0
SCALE
  5
5C
102
{ACAD_REACTORS
330
47
102
}
330
47
100
AcDbScale
 70
     0
300
1/16" = 1'-0"
140
0.0625
141
12.0
290
     0
  0
SCALE
  5
5D
102
{ACAD_REACTORS
330
47
102
}
330
47
100
AcDbScale
 70
     0
300
3/32" = 1'-0"
140
0.09375
141
12.0
290
     0
  0
SCALE
  5
5E
102
{ACAD_REACTORS
330
47
102
}
330
47
100
AcDbScale
 70
     0
300
1/8" = 1'-0"
140
0.125
141
12.0
290
     0
  0
SCALE
  5
5F
102
{ACAD_REACTORS
330
47
102
}
330
47
100
AcDbScale
 70
     0
300
3/16" = 1'-0"
140
0.1875
141
12.0
290
     0
  0
SCALE
  5
60
102
{ACAD_REACTORS
330
47
102
}
330
47
100
AcDbScale
 70
     0
300
1/4" = 1'-0"
140
0.25
141
12.0
290
     0
  0
SCALE
  5
61
102
{ACAD_REACTORS
330
47
102
}
330
47
100
AcDbScale
 70
     0
300
3/8" = 1'-0"
140
0.375
141
12.0
290
     0
  0
SCALE
  5
62
102
{ACAD_REACTORS
330
47
102
}
330
47
100
AcDbScale
 70
     0
300
1/2" = 1'-0"
140
0.5
141
12.0
290
     0
  0
SCALE
  5
63
102
{ACAD_REACTORS
330
47
102
}
330
47
100
AcDbScale
 70
     0
300
3/4" = 1'-0"
140
0.75
141
12.0
290
     0
  0
SCALE
  5
64
102
{ACAD_REACTORS
330
47
102
}
330
47
100
AcDbScale
 70
     0
300
1" = 1'-0"
140
1.0
141
12.0
290
     0
  0
SCALE
  5
65
102
{ACAD_REACTORS
330
47
102
}
330
47
100
AcDbScale
 70
     0
300
1-1/2" = 1'-0"
140
1.5
141
12.0
290
     0
  0
SCALE
  5
66
102
{ACAD_REACTORS
330
47
102
}
330
47
100
AcDbScale
 70
     0
300
3" = 1'-0"
140
3.0
141
12.0
290
     0
  0
SCALE
  5
67
102
{ACAD_REACTORS
330
47
102
}
330
47
100
AcDbScale
 70
     0
300
6" = 1'-0"
140
6.0
141
12.0
290
     0
  0
SCALE
  5
68
102
{ACAD_REACTORS
330
47
102
}
330
47
100
AcDbScale
 70
     0
300
1'-0" = 1'-0"
140
12.0
141
12.0
290
     0
  0
VISUALSTYLE
  5
2F
102
{ACAD_REACTORS
330
2A
102
}
102
{ACAD_XDICTIONARY
360
1B2
102
}
330
2A
100
AcDbVisualStyle
  2
2dWireframe
 70
     4
 71
     0
 72
     2
 73
     0
 90
        0
 40
0.6
 41
30.0
 62
     5
 63
     7
421
 16777215
 74
     1
 91
        4
 64
     7
 65
   257
 75
     1
175
     1
 42
1.0
 92
        0
 66
   257
 43
1.0
 76
     1
 77
     6
 78
     2
 67
     7
 79
     5
170
     0
171
     0
290
     0
174
     0
 93
        1
 44
0.0
173
     0
291
     0
 45
0.0
1001
ACAD
1000
AcDbSavedByObjectVersion
1070
     0
  0
VISUALSTYLE
  5
32
102
{ACAD_REACTORS
330
2A
102
}
102
{ACAD_XDICTIONARY
360
1B8
102
}
330
2A
100
AcDbVisualStyle
  2
Basic
 70
     7
 71
     1
 72
     0
 73
     1
 90
        0
 40
0.6
 41
30.0
 62
     5
 63
     7
421
 16777215
 74
     0
 91
        4
 64
     7
 65
   257
 75
     1
175
     1
 42
1.0
 92
        8
 66
     7
 43
1.0
 76
     1
 77
     6
 78
     2
 67
     7
 79
     5
170
     0
171
     0
290
     0
174
     0
 93
        1
 44
0.0
173
     0
291
     1
 45
0.0
1001
ACAD
1000
AcDbSavedByObjectVersion
1070
     0
  0
VISUALSTYLE
  5
36
102
{ACAD_REACTORS
330
2A
102
}
102
{ACAD_XDICTIONARY
360
1C0
102
}
330
2A
100
AcDbVisualStyle
  2
Brighten
 70
    12
 71
     2
 72
     2
 73
     0
 90
        0
 40
0.6
 41
30.0
 62
     5
 63
     7
421
 16777215
 74
     1
 91
        4
 64
     7
 65
   257
 75
     1
175
     1
 42
1.0
 92
        8
 66
     7
 43
1.0
 76
     1
 77
     6
 78
     2
 67
     7
 79
     5
170
     0
171
     0
290
     0
174
     0
 93
        1
 44
50.0
173
     0
291
     1
 45
0.0
1001
ACAD
1000
AcDbSavedByObjectVersion
1070
     0
  0
VISUALSTYLE
  5
3A
102
{ACAD_REACTORS
330
2A
102
}
102
{ACAD_XDICTIONARY
360
1C8
102
}
330
2A
100
AcDbVisualStyle
  2
ColorChange
 70
    16
 71
     2
 72
     2
 73
     3
 90
        0
 40
0.6
 41
30.0
 62
     5
 63
     8
421
  8421504
 74
     1
 91
        4
 64
     7
 65
   257
 75
     1
175
     1
 42
1.0
 92
        8
 66
     8
424
  8421504
 43
1.0
 76
     1
 77
     6
 78
     2
 67
     7
 79
     5
170
     0
171
     0
290
     0
174
     0
 93
        1
 44
0.0
173
     0
291
     1
 45
0.0
1001
ACAD
1000
AcDbSavedByObjectVersion
1070
     0
  0
VISUALSTYLE
  5
34
102
{ACAD_REACTORS
330
2A
102
}
102
{ACAD_XDICTIONARY
360
1BC
102
}
330
2A
100
AcDbVisualStyle
  2
Conceptual
 70
     9
 71
     3
 72
     2
 73
     0
 90
        0
 40
0.6
 41
30.0
 62
     5
 63
     7
421
 16777215
 74
     2
 91
        2
 64
     7
 65
   257
 75
     1
175
     1
 42
179.0
 92
        8
 66
     7
 43
1.0
 76
     1
 77
     6
 78
     2
 67
     7
 79
     3
170
     0
171
     0
290
     0
174
     0
 93
        1
 44
0.0
173
     0
291
     0
 45
0.0
1001
ACAD
1000
AcDbSavedByObjectVersion
1070
     0
  0
VISUALSTYLE
  5
35
102
{ACAD_REACTORS
330
2A
102
}
102
{ACAD_XDICTIONARY
360
1BE
102
}
330
2A
100
AcDbVisualStyle
  2
Dim
 70
    11
 71
     2
 72
     2
 73
     0
 90
        0
 40
0.6
 41
30.0
 62
     5
 63
     7
421
 16777215
 74
     1
 91
        4
 64
     7
 65
   257
 75
     1
175
     1
 42
1.0
 92
        8
 66
     7
 43
1.0
 76
     1
 77
     6
 78
     2
 67
     7
 79
     5
170
     0
171
     0
290
     0
174
     0
 93
        1
 44
-50.0
173
     0
291
     1
 45
0.0
1001
ACAD
1000
AcDbSavedByObjectVersion
1070
     0
  0
VISUALSTYLE
  5
3D
102
{ACAD_REACTORS
330
2A
102
}
102
{ACAD_XDICTIONARY
360
1CE
102
}
330
2A
100
AcDbVisualStyle
  2
EdgeColorOff
 70
    22
 71
     2
 72
     2
 73
     0
 90
        0
 40
0.6
 41
30.0
 62
     5
 63
     7
421
 16777215
 74
     1
 91
        4
 64
     7
 65
   257
 75
     1
175
     1
 42
1.0
 92
        8
 66
     7
 43
1.0
 76
     1
 77
     6
 78
     2
 67
     7
 79
     5
170
     0
171
     0
290
     0
174
     0
 93
        1
 44
0.0
173
     0
291
     1
 45
0.0
1001
ACAD
1000
AcDbSavedByObjectVersion
1070
     0
  0
VISUALSTYLE
  5
39
102
{ACAD_REACTORS
330
2A
102
}
102
{ACAD_XDICTIONARY
360
1C6
102
}
330
2A
100
AcDbVisualStyle
  2
Facepattern
 70
    15
 71
     2
 72
     2
 73
     0
 90
        0
 40
0.6
 41
30.0
 62
     5
 63
     7
421
 16777215
 74
     1
 91
        4
 64
     7
 65
   257
 75
     1
175
     1
 42
1.0
 92
        8
 66
     7
 43
1.0
 76
     1
 77
     6
 78
     2
 67
     7
 79
     5
170
     0
171
     0
290
     0
174
     0
 93
        1
 44
0.0
173
     0
291
     1
 45
0.0
1001
ACAD
1000
AcDbSavedByObjectVersion
1070
     0
  0
VISUALSTYLE
  5
2B
102
{ACAD_REACTORS
330
2A
102
}
102
{ACAD_XDICTIONARY
360
1AA
102
}
330
2A
100
AcDbVisualStyle
  2
Flat
 70
     0
 71
     2
 72
     1
 73
     1
 90
        2
 40
0.6
 41
30.0
 62
     5
 63
     7
421
 16777215
 74
     0
 91
        0
 64
     7
 65
   257
 75
     1
175
     1
 42
1.0
 92
        8
 66
     7
 43
1.0
 76
     1
 77
     6
 78
     2
 67
     7
 79
     5
170
     0
171
     0
290
     0
174
     0
 93
       13
 44
0.0
173
     0
291
     1
 45
0.0
1001
ACAD
1000
AcDbSavedByObjectVersion
1070
     0
  0
VISUALSTYLE
  5
2C
102
{ACAD_REACTORS
330
2A
102
}
102
{ACAD_XDICTIONARY
360
1AC
102
}
330
2A
100
AcDbVisualStyle
  2
FlatWithEdges
 70
     1
 71
     2
 72
     1
 73
     1
 90
        2
 40
0.6
 41
30.0
 62
     5
 63
     7
421
 16777215
 74
     1
 91
        0
 64
     7
 65
   257
 75
     1
175
     1
 42
1.0
 92
        0
 66
   257
 43
1.0
 76
     1
 77
     6
 78
     2
 67
     7
 79
     5
170
     0
171
     0
290
     0
174
     0
 93
       13
 44
0.0
173
     0
291
     1
 45
0.0
1001
ACAD
1000
AcDbSavedByObjectVersion
1070
     0
  0
VISUALSTYLE
  5
2D
102
{ACAD_REACTORS
330
2A
102
}
102
{ACAD_XDICTIONARY
360
1AE
102
}
330
2A
100
AcDbVisualStyle
  2
Gouraud
 70
     2
 71
     2
 72
     2
 73
     1
 90
        2
 40
0.6
 41
30.0
 62
     5
 63
     7
421
 16777215
 74
     0
 91
        0
 64
     7
 65
   257
 75
     1
175
     1
 42
1.0
 92
        0
 66
     7
 43
1.0
 76
     1
 77
     6
 78
     2
 67
     7
 79
     5
170
     0
171
     0
290
     0
174
     0
 93
       13
 44
0.0
173
     0
291
     1
 45
0.0
1001
ACAD
1000
AcDbSavedByObjectVersion
1070
     0
  0
VISUALSTYLE
  5
2E
102
{ACAD_REACTORS
330
2A
102
}
102
{ACAD_XDICTIONARY
360
1B0
102
}
330
2A
100
AcDbVisualStyle
  2
GouraudWithEdges
 70
     3
 71
     2
 72
     2
 73
     1
 90
        2
 40
0.6
 41
30.0
 62
     5
 63
     7
421
 16777215
 74
     1
 91
        0
 64
     7
 65
   257
 75
     1
175
     1
 42
1.0
 92
        0
 66
   257
 43
1.0
 76
     1
 77
     6
 78
     2
 67
     7
 79
     5
170
     0
171
     0
290
     0
174
     0
 93
       13
 44
0.0
173
     0
291
     1
 45
0.0
1001
ACAD
1000
AcDbSavedByObjectVersion
1070
     0
  0
VISUALSTYLE
  5
31
102
{ACAD_REACTORS
330
2A
102
}
102
{ACAD_XDICTIONARY
360
1B6
102
}
330
2A
100
AcDbVisualStyle
  2
Hidden
 70
     6
 71
     1
 72
     2
 73
     2
 90
        0
 40
0.6
 41
30.0
 62
     5
 63
     7
421
 16777215
 74
     2
 91
        2
 64
     7
 65
   257
 75
     2
175
     1
 42
40.0
 92
        0
 66
   257
 43
1.0
 76
     1
 77
     6
 78
     2
 67
     7
 79
     3
170
     0
171
     0
290
     0
174
     0
 93
        1
 44
0.0
173
     0
291
     0
 45
0.0
1001
ACAD
1000
AcDbSavedByObjectVersion
1070
     0
  0
VISUALSTYLE
  5
3B
102
{ACAD_REACTORS
330
2A
102
}
102
{ACAD_XDICTIONARY
360
1CA
102
}
330
2A
100
AcDbVisualStyle
  2
JitterOff
 70
    20
 71
     2
 72
     2
 73
     0
 90
        0
 40
0.6
 41
30.0
 62
     5
 63
     7
421
 16777215
 74
     1
 91
        4
 64
     7
 65
   257
 75
     1
175
     1
 42
1.0
 92
       10
 66
     7
 43
1.0
 76
     1
 77
     6
 78
     2
 67
     7
 79
     5
170
     0
171
     0
290
     0
174
     0
 93
        1
 44
0.0
173
     0
291
     1
 45
0.0
1001
ACAD
1000
AcDbSavedByObjectVersion
1070
     0
  0
VISUALSTYLE
  5
38
102
{ACAD_REACTORS
330
2A
102
}
102
{ACAD_XDICTIONARY
360
1C4
102
}
330
2A
100
AcDbVisualStyle
  2
Linepattern
 70
    14
 71
     2
 72
     2
 73
     0
 90
        0
 40
0.6
 41
30.0
 62
     5
 63
     7
421
 16777215
 74
     1
 91
        4
 64
     7
 65
   257
 75
     7
175
     7
 42
1.0
 92
        8
 66
     7
 43
1.0
 76
     1
 77
     6
 78
     2
 67
     7
 79
     5
170
     0
171
     0
290
     0
174
     0
 93
        1
 44
0.0
173
     0
291
     1
 45
0.0
1001
ACAD
1000
AcDbSavedByObjectVersion
1070
     0
  0
VISUALSTYLE
  5
3C
102
{ACAD_REACTORS
330
2A
102
}
102
{ACAD_XDICTIONARY
360
1CC
102
}
330
2A
100
AcDbVisualStyle
  2
OverhangOff
 70
    21
 71
     2
 72
     2
 73
     0
 90
        0
 40
0.6
 41
30.0
 62
     5
 63
     7
421
 16777215
 74
     1
 91
        4
 64
     7
 65
   257
 75
     1
175
     1
 42
1.0
 92
        9
 66
     7
 43
1.0
 76
     1
 77
     6
 78
     2
 67
     7
 79
     5
170
     0
171
     0
290
     0
174
     0
 93
        1
 44
0.0
173
     0
291
     1
 45
0.0
1001
ACAD
1000
AcDbSavedByObjectVersion
1070
     0
  0
VISUALSTYLE
  5
33
102
{ACAD_REACTORS
330
2A
102
}
102
{ACAD_XDICTIONARY
360
1BA
102
}
330
2A
100
AcDbVisualStyle
  2
Realistic
 70
     8
 71
     2
 72
     3
 73
     0
 90
        2
 40
0.6
 41
30.0
 62
     5
 63
     7
421
 16777215
 74
     0
 91
        0
 64
     7
 65
   257
 75
     1
175
     1
 42
1.0
 92
        8
 66
   257
 43
1.0
 76
     1
 77
     6
 78
     2
 67
     7
 79
     3
170
     0
171
     0
290
     0
174
     0
 93
       13
 44
0.0
173
     0
291
     0
 45
0.0
1001
ACAD
1000
AcDbSavedByObjectVersion
1070
     0
  0
VISUALSTYLE
  5
42
102
{ACAD_REACTORS
330
2A
102
}
102
{ACAD_XDICTIONARY
360
1D8
102
}
330
2A
100
AcDbVisualStyle
  2
Shaded
 70
    27
 71
     2
 72
     2
 73
     1
 90
        2
 40
0.6
 41
30.0
 62
     5
 63
     7
421
 16777215
 74
     0
 91
        4
 64
     7
 65
   257
 75
     1
175
     1
 42
1.0
 92
        8
 66
   257
 43
1.0
 76
     1
 77
     6
 78
     2
 67
     8
425
  7895160
 79
     3
170
     0
171
     0
290
     0
174
     0
 93
        5
 44
0.0
173
     0
291
     0
 45
0.0
1001
ACAD
1000
AcDbSavedByObjectVersion
1070
     0
  0
VISUALSTYLE
  5
41
102
{ACAD_REACTORS
330
2A
102
}
102
{ACAD_XDICTIONARY
360
1D6
102
}
330
2A
100
AcDbVisualStyle
  2
Shaded with edges
 70
    26
 71
     2
 72
     2
 73
     1
 90
        2
 40
0.6
 41
30.0
 62
     5
 63
     7
421
 16777215
 74
     1
 91
       10
 64
     7
 65
   257
 75
     2
175
     1
 42
1.0
 92
        8
 66
   257
 43
1.0
 76
     1
 77
     6
 78
     2
 67
     7
 79
     3
170
     0
171
     0
290
     0
174
     0
 93
        5
 44
0.0
173
     0
291
     0
 45
0.0
1001
ACAD
1000
AcDbSavedByObjectVersion
1070
     0
  0
VISUALSTYLE
  5
3E
102
{ACAD_REACTORS
330
2A
102
}
102
{ACAD_XDICTIONARY
360
1D0
102
}
330
2A
100
AcDbVisualStyle
  2
Shades of Gray
 70
    23
 71
     2
 72
     2
 73
     3
 90
        0
 40
0.6
 41
30.0
 62
     5
 63
     7
421
 16777215
 74
     2
 91
        2
 64
     7
 65
     7
 75
     1
175
     1
 42
40.0
 92
        8
 66
     7
 43
1.0
 76
     1
 77
     6
 78
     2
 67
     7
 79
     3
170
     0
171
     0
290
     0
174
     0
 93
        1
 44
0.0
173
     0
291
     0
 45
0.0
1001
ACAD
1000
AcDbSavedByObjectVersion
1070
     0
  0
VISUALSTYLE
  5
3F
102
{ACAD_REACTORS
330
2A
102
}
102
{ACAD_XDICTIONARY
360
1D2
102
}
330
2A
100
AcDbVisualStyle
  2
Sketchy
 70
    24
 71
     1
 72
     2
 73
     2
 90
        0
 40
0.6
 41
30.0
 62
     5
 63
     7
421
 16777215
 74
     2
 91
        2
 64
     7
 65
     7
 75
     1
175
     1
 42
40.0
 92
       11
 66
     7
 43
1.0
 76
     1
 77
     6
 78
     2
 67
     7
 79
     6
170
     0
171
     0
290
     0
174
     0
 93
        1
 44
0.0
173
     0
291
     0
 45
0.0
1001
ACAD
1000
AcDbSavedByObjectVersion
1070
     0
  0
VISUALSTYLE
  5
37
102
{ACAD_REACTORS
330
2A
102
}
102
{ACAD_XDICTIONARY
360
1C2
102
}
330
2A
100
AcDbVisualStyle
  2
Thicken
 70
    13
 71
     2
 72
     2
 73
     0
 90
        0
 40
0.6
 41
30.0
 62
     5
 63
     7
421
 16777215
 74
     1
 91
        4
 64
     7
 65
   257
 75
     1
175
     1
 42
1.0
 92
       12
 66
     7
 43
1.0
 76
     1
 77
     6
 78
     2
 67
     7
 79
     5
170
     0
171
     0
290
     0
174
     0
 93
        1
 44
0.0
173
     0
291
     1
 45
0.0
1001
ACAD
1000
AcDbSavedByObjectVersion
1070
     0
  0
VISUALSTYLE
  5
30
102
{ACAD_REACTORS
330
2A
102
}
102
{ACAD_XDICTIONARY
360
1B4
102
}
330
2A
100
AcDbVisualStyle
  2
Wireframe
 70
     5
 71
     0
 72
     2
 73
     0
 90
        0
 40
0.6
 41
30.0
 62
     5
 63
     7
421
 16777215
 74
     1
 91
        4
 64
     7
 65
   257
 75
     1
175
     1
 42
1.0
 92
        0
 66
   257
 43
1.0
 76
     1
 77
     6
 78
     2
 67
     7
 79
     3
170
     0
171
     0
290
     0
174
     0
 93
        1
 44
0.0
173
     0
291
     0
 45
0.0
1001
ACAD
1000
AcDbSavedByObjectVersion
1070
     0
  0
VISUALSTYLE
  5
40
102
{ACAD_REACTORS
330
2A
102
}
102
{ACAD_XDICTIONARY
360
1D4
102
}
330
2A
100
AcDbVisualStyle
  2
X-Ray
 70
    25
 71
     2
 72
     2
 73
     1
 90
        1
 40
0.5
 41
30.0
 62
     5
 63
     7
421
 16777215
 74
     1
 91
        0
 64
     7
 65
   257
 75
     1
175
     1
 42
1.0
 92
        8
 66
     7
 43
1.0
 76
     1
 77
     6
 78
     2
 67
     7
 79
     3
170
     0
171
     0
290
     0
174
     0
 93
       13
 44
0.0
173
     0
291
     0
 45
0.0
1001
ACAD
1000
AcDbSavedByObjectVersion
1070
     0
  0
DICTIONARYVAR
  5
1A8
102
{ACAD_REACTORS
330
1A7
102
}
330
1A7
100
DictionaryVariables
280
     0
  1
1:1
  0
DICTIONARYVAR
  5
1A9
102
{ACAD_REACTORS
330
1A7
102
}
330
1A7
100
DictionaryVariables
280
     0
  1
1
  0
DICTIONARY
  5
1DC
330
45
100
AcDbDictionary
280
     1
281
     1
  3
ACAD_XREC_ROUNDTRIP
360
1DD
  0
DICTIONARY
  5
1DA
330
44
100
AcDbDictionary
280
     1
281
     1
  3
ACAD_XREC_ROUNDTRIP
360
1DB
  0
DICTIONARY
  5
1DE
330
46
100
AcDbDictionary
280
     1
281
     1
  3
ACAD_XREC_ROUNDTRIP
360
1DF
  0
DICTIONARY
  5
1B2
330
2F
100
AcDbDictionary
280
     1
281
     1
  3
ACAD_XREC_ROUNDTRIP
360
1B3
  0
DICTIONARY
  5
1B8
330
32
100
AcDbDictionary
280
     1
281
     1
  3
ACAD_XREC_ROUNDTRIP
360
1B9
  0
DICTIONARY
  5
1C0
330
36
100
AcDbDictionary
280
     1
281
     1
  3
ACAD_XREC_ROUNDTRIP
360
1C1
  0
DICTIONARY
  5
1C8
330
3A
100
AcDbDictionary
280
     1
281
     1
  3
ACAD_XREC_ROUNDTRIP
360
1C9
  0
DICTIONARY
  5
1BC
330
34
100
AcDbDictionary
280
     1
281
     1
  3
ACAD_XREC_ROUNDTRIP
360
1BD
  0
DICTIONARY
  5
1BE
330
35
100
AcDbDictionary
280
     1
281
     1
  3
ACAD_XREC_ROUNDTRIP
360
1BF
  0
DICTIONARY
  5
1CE
330
3D
100
AcDbDictionary
280
     1
281
     1
  3
ACAD_XREC_ROUNDTRIP
360
1CF
  0
DICTIONARY
  5
1C6
330
39
100
AcDbDictionary
280
     1
281
     1
  3
ACAD_XREC_ROUNDTRIP
360
1C7
  0
DICTIONARY
  5
1AA
330
2B
100
AcDbDictionary
280
     1
281
     1
  3
ACAD_XREC_ROUNDTRIP
360
1AB
  0
DICTIONARY
  5
1AC
330
2C
100
AcDbDictionary
280
     1
281
     1
  3
ACAD_XREC_ROUNDTRIP
360
1AD
  0
DICTIONARY
  5
1AE
330
2D
100
AcDbDictionary
280
     1
281
     1
  3
ACAD_XREC_ROUNDTRIP
360
1AF
  0
DICTIONARY
  5
1B0
330
2E
100
AcDbDictionary
280
     1
281
     1
  3
ACAD_XREC_ROUNDTRIP
360
1B1
  0
DICTIONARY
  5
1B6
330
31
100
AcDbDictionary
280
     1
281
     1
  3
ACAD_XREC_ROUNDTRIP
360
1B7
  0
DICTIONARY
  5
1CA
330
3B
100
AcDbDictionary
280
     1
281
     1
  3
ACAD_XREC_ROUNDTRIP
360
1CB
  0
DICTIONARY
  5
1C4
330
38
100
AcDbDictionary
280
     1
281
     1
  3
ACAD_XREC_ROUNDTRIP
360
1C5
  0
DICTIONARY
  5
1CC
330
3C
100
AcDbDictionary
280
     1
281
     1
  3
ACAD_XREC_ROUNDTRIP
360
1CD
  0
DICTIONARY
  5
1BA
330
33
100
AcDbDictionary
280
     1
281
     1
  3
ACAD_XREC_ROUNDTRIP
360
1BB
  0
DICTIONARY
  5
1D8
330
42
100
AcDbDictionary
280
     1
281
     1
  3
ACAD_XREC_ROUNDTRIP
360
1D9
  0
DICTIONARY
  5
1D6
330
41
100
AcDbDictionary
280
     1
281
     1
  3
ACAD_XREC_ROUNDTRIP
360
1D7
  0
DICTIONARY
  5
1D0
330
3E
100
AcDbDictionary
280
     1
281
     1
  3
ACAD_XREC_ROUNDTRIP
360
1D1
  0
DICTIONARY
  5
1D2
330
3F
100
AcDbDictionary
280
     1
281
     1
  3
ACAD_XREC_ROUNDTRIP
360
1D3
  0
DICTIONARY
  5
1C2
330
37
100
AcDbDictionary
280
     1
281
     1
  3
ACAD_XREC_ROUNDTRIP
360
1C3
  0
DICTIONARY
  5
1B4
330
30
100
AcDbDictionary
280
     1
281
     1
  3
ACAD_XREC_ROUNDTRIP
360
1B5
  0
DICTIONARY
  5
1D4
330
40
100
AcDbDictionary
280
     1
281
     1
  3
ACAD_XREC_ROUNDTRIP
360
1D5
  0
XRECORD
  5
1DD
102
{ACAD_REACTORS
330
1DC
102
}
330
1DC
100
AcDbXrecord
280
     1
102
MATERIAL
148
0.0
149
0.0
149
0.0
 93
        0
 94
      127
282
     0
 72
     1
 77
     1
171
     1
175
     1
179
     1
273
     0
  0
XRECORD
  5
1DB
102
{ACAD_REACTORS
330
1DA
102
}
330
1DA
100
AcDbXrecord
280
     1
102
MATERIAL
148
0.0
149
0.0
149
0.0
 93
        0
 94
      127
282
     0
 72
     1
 77
     1
171
     1
175
     1
179
     1
273
     0
  0
XRECORD
  5
1DF
102
{ACAD_REACTORS
330
1DE
102
}
330
1DE
100
AcDbXrecord
280
     1
102
MATERIAL
148
0.0
149
0.0
149
0.0
 93
        0
 94
      127
282
     0
 72
     1
 77
     1
171
     1
175
     1
179
     1
273
     0
  0
XRECORD
  5
1B3
102
{ACAD_REACTORS
330
1B2
102
}
330
1B2
100
AcDbXrecord
280
     1
102
RTVSPropertyOp0
 70
     1
102
RTVSPropertyOp1
 70
     1
102
RTVSPropertyOp2
 70
     1
102
RTVSPropertyOp3
 70
     1
102
RTVSPropertyOp4
 70
     1
102
RTVSPropertyOp5
 70
     1
102
RTVSPropertyOp6
 70
     1
102
RTVSPropertyOp7
 70
     1
102
RTVSPropertyOp8
 70
     1
102
RTVSPropertyOp9
 70
     1
102
RTVSPropertyOp10
 70
     1
102
RTVSPropertyOp11
 70
     1
102
RTVSPropertyOp12
 70
     1
102
RTVSPropertyOp13
 70
     1
102
RTVSPropertyOp14
 70
     1
102
RTVSPropertyOp15
 70
     1
102
RTVSPropertyOp16
 70
     1
102
RTVSPropertyOp17
 70
     1
102
RTVSPropertyOp18
 70
     1
102
RTVSPropertyOp19
 70
     1
102
RTVSPropertyOp20
 70
     1
102
RTVSPropertyOp21
 70
     1
102
RTVSPropertyOp22
 70
     1
102
RTVSPropertyOp23
 70
     1
102
RTVSPropertyOp24
 70
     1
102
RTVSPropertyOp25
 70
     1
102
RTVSPropertyOp26
 70
     1
102
RTVSPropertyOp27
 70
     1
102
RTVSPropertyOp28
 70
     1
102
RTVSPropertyOp29
 70
     1
102
RTVSPropertyOp30
 70
     1
102
RTVSPropertyOp31
 70
     1
102
RTVSPropertyOp32
 70
     1
102
RTVSPropertyOp33
 70
     1
102
RTVSPropertyOp34
 70
     1
102
RTVSPropertyOp35
 70
     1
102
RTVSPropertyOp36
 70
     1
102
RTVSPropertyOp37
 70
     1
102
RTVSPropertyOp38
 70
     1
102
RTVSPropertyOp39
 70
     1
102
RTVSPropertyOp40
 70
     1
102
RTVSPropertyOp41
 70
     1
102
RTVSPropertyOp42
 70
     1
102
RTVSPropertyOp43
 70
     1
102
RTVSPropertyOp44
 70
     1
102
RTVSPropertyOp45
 70
     1
102
RTVSPropertyOp46
 70
     1
102
RTVSPropertyOp47
 70
     1
102
RTVSPropertyOp48
 70
     1
102
RTVSPropertyOp49
 70
     1
102
RTVSPropertyOp50
 70
     1
102
RTVSPropertyOp51
 70
     0
102
RTVSPropertyOp52
 70
     0
102
RTVSPropertyOp53
 70
     1
102
RTVSPropertyOp54
 70
     1
102
RTVSPropertyOp55
 70
     1
102
RTVSPropertyOp56
 70
     1
102
RTVSPropertyOp57
 70
     1
102
RTVSPost2010Prop28
280
     1
102
RTVSPost2010PropOp28
 70
     1
102
RTVSPost2010Prop29
280
     1
102
RTVSPost2010PropOp29
 70
     1
102
RTVSPost2010Prop30
280
     0
102
RTVSPost2010PropOp30
 70
     1
102
RTVSPost2010Prop31
280
     0
102
RTVSPost2010PropOp31
 70
     1
102
RTVSPost2010Prop32
280
     0
102
RTVSPost2010PropOp32
 70
     1
102
RTVSPost2010Prop33
280
     0
102
RTVSPost2010PropOp33
 70
     1
102
RTVSPost2010Prop34
280
     0
102
RTVSPost2010PropOp34
 70
     1
102
RTVSPost2010Prop35
280
     0
102
RTVSPost2010PropOp35
 70
     1
102
RTVSPost2010Prop36
280
     0
102
RTVSPost2010PropOp36
 70
     1
102
RTVSPost2010Prop37
 90
       50
102
RTVSPost2010PropOp37
 70
     1
102
RTVSPost2010Prop38
140
0.0
102
RTVSPost2010PropOp38
 70
     1
102
RTVSPost2010Prop39
140
1.0
102
RTVSPost2010PropOp39
 70
     1
102
RTVSPost2010Prop40
 90
        0
102
RTVSPost2010PropOp40
 70
     1
102
RTVSPost2010Prop41ColorIndex
 90
       18
102
RTVSPost2010Prop41ColorRGB
 90
        0
102
RTVSPost2010PropOp41
 70
     1
102
RTVSPost2010Prop42
 90
       50
102
RTVSPost2010PropOp42
 70
     1
102
RTVSPost2010Prop43
 90
        3
102
RTVSPost2010PropOp43
 70
     1
102
RTVSPost2010Prop44ColorIndex
 90
        5
102
RTVSPost2010Prop44ColorRGB
 90
      255
102
RTVSPost2010PropOp44
 70
     1
102
RTVSPost2010Prop45
280
     0
102
RTVSPost2010PropOp45
 70
     1
102
RTVSPost2010Prop46
 90
       50
102
RTVSPost2010PropOp46
 70
     1
102
RTVSPost2010Prop47
 90
       50
102
RTVSPost2010PropOp47
 70
     1
102
RTVSPost2010Prop48
 90
       50
102
RTVSPost2010PropOp48
 70
     1
102
RTVSPost2010Prop49
280
     0
102
RTVSPost2010PropOp49
 70
     1
102
RTVSPost2010Prop50
 90
       50
102
RTVSPost2010PropOp50
 70
     1
102
RTVSPost2010Prop51ColorIndex
 90
      256
102
RTVSPost2010Prop51ColorRGB
 90
-16777216
102
RTVSPost2010PropOp51
 70
     0
102
RTVSPost2010Prop52
140
1.0
102
RTVSPost2010PropOp52
 70
     0
102
RTVSPost2010Prop53
 90
        2
102
RTVSPost2010PropOp53
 70
     1
102
RTVSPost2010Prop54
  1
strokes_ogs.tif
102
RTVSPost2010PropOp54
 70
     1
102
RTVSPost2010Prop55
280
     0
102
RTVSPost2010PropOp55
 70
     1
102
RTVSPost2010Prop56
140
1.0
102
RTVSPost2010PropOp56
 70
     1
102
RTVSPost2010Prop57
140
1.0
102
RTVSPost2010PropOp57
 70
     1
  0
XRECORD
  5
1B9
102
{ACAD_REACTORS
330
1B8
102
}
330
1B8
100
AcDbXrecord
280
     1
102
RTVSPropertyOp0
 70
     1
102
RTVSPropertyOp1
 70
     1
102
RTVSPropertyOp2
 70
     1
102
RTVSPropertyOp3
 70
     1
102
RTVSPropertyOp4
 70
     1
102
RTVSPropertyOp5
 70
     1
102
RTVSPropertyOp6
 70
     1
102
RTVSPropertyOp7
 70
     1
102
RTVSPropertyOp8
 70
     1
102
RTVSPropertyOp9
 70
     1
102
RTVSPropertyOp10
 70
     1
102
RTVSPropertyOp11
 70
     1
102
RTVSPropertyOp12
 70
     1
102
RTVSPropertyOp13
 70
     1
102
RTVSPropertyOp14
 70
     1
102
RTVSPropertyOp15
 70
     1
102
RTVSPropertyOp16
 70
     1
102
RTVSPropertyOp17
 70
     1
102
RTVSPropertyOp18
 70
     1
102
RTVSPropertyOp19
 70
     1
102
RTVSPropertyOp20
 70
     1
102
RTVSPropertyOp21
 70
     1
102
RTVSPropertyOp22
 70
     1
102
RTVSPropertyOp23
 70
     1
102
RTVSPropertyOp24
 70
     1
102
RTVSPropertyOp25
 70
     1
102
RTVSPropertyOp26
 70
     1
102
RTVSPropertyOp27
 70
     1
102
RTVSPropertyOp28
 70
     1
102
RTVSPropertyOp29
 70
     1
102
RTVSPropertyOp30
 70
     1
102
RTVSPropertyOp31
 70
     1
102
RTVSPropertyOp32
 70
     1
102
RTVSPropertyOp33
 70
     1
102
RTVSPropertyOp34
 70
     1
102
RTVSPropertyOp35
 70
     1
102
RTVSPropertyOp36
 70
     1
102
RTVSPropertyOp37
 70
     1
102
RTVSPropertyOp38
 70
     1
102
RTVSPropertyOp39
 70
     1
102
RTVSPropertyOp40
 70
     1
102
RTVSPropertyOp41
 70
     1
102
RTVSPropertyOp42
 70
     1
102
RTVSPropertyOp43
 70
     1
102
RTVSPropertyOp44
 70
     1
102
RTVSPropertyOp45
 70
     1
102
RTVSPropertyOp46
 70
     1
102
RTVSPropertyOp47
 70
     1
102
RTVSPropertyOp48
 70
     1
102
RTVSPropertyOp49
 70
     1
102
RTVSPropertyOp50
 70
     1
102
RTVSPropertyOp51
 70
     0
102
RTVSPropertyOp52
 70
     0
102
RTVSPropertyOp53
 70
     1
102
RTVSPropertyOp54
 70
     1
102
RTVSPropertyOp55
 70
     1
102
RTVSPropertyOp56
 70
     1
102
RTVSPropertyOp57
 70
     1
102
RTVSPost2010Prop28
280
     0
102
RTVSPost2010PropOp28
 70
     1
102
RTVSPost2010Prop29
280
     1
102
RTVSPost2010PropOp29
 70
     1
102
RTVSPost2010Prop30
280
     1
102
RTVSPost2010PropOp30
 70
     1
102
RTVSPost2010Prop31
280
     0
102
RTVSPost2010PropOp31
 70
     1
102
RTVSPost2010Prop32
280
     0
102
RTVSPost2010PropOp32
 70
     1
102
RTVSPost2010Prop33
280
     0
102
RTVSPost2010PropOp33
 70
     1
102
RTVSPost2010Prop34
280
     0
102
RTVSPost2010PropOp34
 70
     1
102
RTVSPost2010Prop35
280
     0
102
RTVSPost2010PropOp35
 70
     1
102
RTVSPost2010Prop36
280
     0
102
RTVSPost2010PropOp36
 70
     1
102
RTVSPost2010Prop37
 90
       50
102
RTVSPost2010PropOp37
 70
     1
102
RTVSPost2010Prop38
140
0.0
102
RTVSPost2010PropOp38
 70
     1
102
RTVSPost2010Prop39
140
1.0
102
RTVSPost2010PropOp39
 70
     1
102
RTVSPost2010Prop40
 90
        0
102
RTVSPost2010PropOp40
 70
     1
102
RTVSPost2010Prop41ColorIndex
 90
       18
102
RTVSPost2010Prop41ColorRGB
 90
        0
102
RTVSPost2010PropOp41
 70
     1
102
RTVSPost2010Prop42
 90
       50
102
RTVSPost2010PropOp42
 70
     1
102
RTVSPost2010Prop43
 90
        3
102
RTVSPost2010PropOp43
 70
     1
102
RTVSPost2010Prop44ColorIndex
 90
        5
102
RTVSPost2010Prop44ColorRGB
 90
      255
102
RTVSPost2010PropOp44
 70
     1
102
RTVSPost2010Prop45
280
     0
102
RTVSPost2010PropOp45
 70
     1
102
RTVSPost2010Prop46
 90
       50
102
RTVSPost2010PropOp46
 70
     1
102
RTVSPost2010Prop47
 90
       50
102
RTVSPost2010PropOp47
 70
     1
102
RTVSPost2010Prop48
 90
       50
102
RTVSPost2010PropOp48
 70
     1
102
RTVSPost2010Prop49
280
     0
102
RTVSPost2010PropOp49
 70
     1
102
RTVSPost2010Prop50
 90
       50
102
RTVSPost2010PropOp50
 70
     1
102
RTVSPost2010Prop51ColorIndex
 90
      256
102
RTVSPost2010Prop51ColorRGB
 90
-16777216
102
RTVSPost2010PropOp51
 70
     0
102
RTVSPost2010Prop52
140
1.0
102
RTVSPost2010PropOp52
 70
     0
102
RTVSPost2010Prop53
 90
        2
102
RTVSPost2010PropOp53
 70
     1
102
RTVSPost2010Prop54
  1
strokes_ogs.tif
102
RTVSPost2010PropOp54
 70
     1
102
RTVSPost2010Prop55
280
     0
102
RTVSPost2010PropOp55
 70
     1
102
RTVSPost2010Prop56
140
1.0
102
RTVSPost2010PropOp56
 70
     1
102
RTVSPost2010Prop57
140
1.0
102
RTVSPost2010PropOp57
 70
     1
  0
XRECORD
  5
1C1
102
{ACAD_REACTORS
330
1C0
102
}
330
1C0
100
AcDbXrecord
280
     1
102
RTVSPropertyOp0
 70
     1
102
RTVSPropertyOp1
 70
     1
102
RTVSPropertyOp2
 70
     1
102
RTVSPropertyOp3
 70
     1
102
RTVSPropertyOp4
 70
     1
102
RTVSPropertyOp5
 70
     1
102
RTVSPropertyOp6
 70
     1
102
RTVSPropertyOp7
 70
     1
102
RTVSPropertyOp8
 70
     1
102
RTVSPropertyOp9
 70
     1
102
RTVSPropertyOp10
 70
     1
102
RTVSPropertyOp11
 70
     1
102
RTVSPropertyOp12
 70
     1
102
RTVSPropertyOp13
 70
     1
102
RTVSPropertyOp14
 70
     1
102
RTVSPropertyOp15
 70
     1
102
RTVSPropertyOp16
 70
     1
102
RTVSPropertyOp17
 70
     1
102
RTVSPropertyOp18
 70
     1
102
RTVSPropertyOp19
 70
     1
102
RTVSPropertyOp20
 70
     1
102
RTVSPropertyOp21
 70
     1
102
RTVSPropertyOp22
 70
     1
102
RTVSPropertyOp23
 70
     1
102
RTVSPropertyOp24
 70
     1
102
RTVSPropertyOp25
 70
     1
102
RTVSPropertyOp26
 70
     1
102
RTVSPropertyOp27
 70
     1
102
RTVSPropertyOp28
 70
     1
102
RTVSPropertyOp29
 70
     1
102
RTVSPropertyOp30
 70
     1
102
RTVSPropertyOp31
 70
     1
102
RTVSPropertyOp32
 70
     1
102
RTVSPropertyOp33
 70
     1
102
RTVSPropertyOp34
 70
     1
102
RTVSPropertyOp35
 70
     1
102
RTVSPropertyOp36
 70
     1
102
RTVSPropertyOp37
 70
     1
102
RTVSPropertyOp38
 70
     1
102
RTVSPropertyOp39
 70
     1
102
RTVSPropertyOp40
 70
     1
102
RTVSPropertyOp41
 70
     1
102
RTVSPropertyOp42
 70
     1
102
RTVSPropertyOp43
 70
     1
102
RTVSPropertyOp44
 70
     1
102
RTVSPropertyOp45
 70
     1
102
RTVSPropertyOp46
 70
     1
102
RTVSPropertyOp47
 70
     1
102
RTVSPropertyOp48
 70
     1
102
RTVSPropertyOp49
 70
     1
102
RTVSPropertyOp50
 70
     1
102
RTVSPropertyOp51
 70
     0
102
RTVSPropertyOp52
 70
     0
102
RTVSPropertyOp53
 70
     1
102
RTVSPropertyOp54
 70
     1
102
RTVSPropertyOp55
 70
     1
102
RTVSPropertyOp56
 70
     1
102
RTVSPropertyOp57
 70
     1
102
RTVSPost2010Prop28
280
     0
102
RTVSPost2010PropOp28
 70
     1
102
RTVSPost2010Prop29
280
     1
102
RTVSPost2010PropOp29
 70
     1
102
RTVSPost2010Prop30
280
     1
102
RTVSPost2010PropOp30
 70
     1
102
RTVSPost2010Prop31
280
     0
102
RTVSPost2010PropOp31
 70
     1
102
RTVSPost2010Prop32
280
     0
102
RTVSPost2010PropOp32
 70
     1
102
RTVSPost2010Prop33
280
     0
102
RTVSPost2010PropOp33
 70
     1
102
RTVSPost2010Prop34
280
     0
102
RTVSPost2010PropOp34
 70
     1
102
RTVSPost2010Prop35
280
     0
102
RTVSPost2010PropOp35
 70
     1
102
RTVSPost2010Prop36
280
     0
102
RTVSPost2010PropOp36
 70
     1
102
RTVSPost2010Prop37
 90
       50
102
RTVSPost2010PropOp37
 70
     1
102
RTVSPost2010Prop38
140
0.0
102
RTVSPost2010PropOp38
 70
     1
102
RTVSPost2010Prop39
140
1.0
102
RTVSPost2010PropOp39
 70
     1
102
RTVSPost2010Prop40
 90
        0
102
RTVSPost2010PropOp40
 70
     1
102
RTVSPost2010Prop41ColorIndex
 90
       18
102
RTVSPost2010Prop41ColorRGB
 90
        0
102
RTVSPost2010PropOp41
 70
     1
102
RTVSPost2010Prop42
 90
       50
102
RTVSPost2010PropOp42
 70
     1
102
RTVSPost2010Prop43
 90
        3
102
RTVSPost2010PropOp43
 70
     1
102
RTVSPost2010Prop44ColorIndex
 90
        5
102
RTVSPost2010Prop44ColorRGB
 90
      255
102
RTVSPost2010PropOp44
 70
     1
102
RTVSPost2010Prop45
280
     0
102
RTVSPost2010PropOp45
 70
     1
102
RTVSPost2010Prop46
 90
       50
102
RTVSPost2010PropOp46
 70
     1
102
RTVSPost2010Prop47
 90
       50
102
RTVSPost2010PropOp47
 70
     1
102
RTVSPost2010Prop48
 90
       50
102
RTVSPost2010PropOp48
 70
     1
102
RTVSPost2010Prop49
280
     0
102
RTVSPost2010PropOp49
 70
     1
102
RTVSPost2010Prop50
 90
       50
102
RTVSPost2010PropOp50
 70
     1
102
RTVSPost2010Prop51ColorIndex
 90
      256
102
RTVSPost2010Prop51ColorRGB
 90
-16777216
102
RTVSPost2010PropOp51
 70
     0
102
RTVSPost2010Prop52
140
1.0
102
RTVSPost2010PropOp52
 70
     0
102
RTVSPost2010Prop53
 90
        2
102
RTVSPost2010PropOp53
 70
     1
102
RTVSPost2010Prop54
  1
strokes_ogs.tif
102
RTVSPost2010PropOp54
 70
     1
102
RTVSPost2010Prop55
280
     0
102
RTVSPost2010PropOp55
 70
     1
102
RTVSPost2010Prop56
140
1.0
102
RTVSPost2010PropOp56
 70
     1
102
RTVSPost2010Prop57
140
1.0
102
RTVSPost2010PropOp57
 70
     1
  0
XRECORD
  5
1C9
102
{ACAD_REACTORS
330
1C8
102
}
330
1C8
100
AcDbXrecord
280
     1
102
RTVSPropertyOp0
 70
     1
102
RTVSPropertyOp1
 70
     1
102
RTVSPropertyOp2
 70
     1
102
RTVSPropertyOp3
 70
     1
102
RTVSPropertyOp4
 70
     1
102
RTVSPropertyOp5
 70
     1
102
RTVSPropertyOp6
 70
     1
102
RTVSPropertyOp7
 70
     1
102
RTVSPropertyOp8
 70
     1
102
RTVSPropertyOp9
 70
     1
102
RTVSPropertyOp10
 70
     1
102
RTVSPropertyOp11
 70
     1
102
RTVSPropertyOp12
 70
     1
102
RTVSPropertyOp13
 70
     1
102
RTVSPropertyOp14
 70
     1
102
RTVSPropertyOp15
 70
     1
102
RTVSPropertyOp16
 70
     1
102
RTVSPropertyOp17
 70
     1
102
RTVSPropertyOp18
 70
     1
102
RTVSPropertyOp19
 70
     1
102
RTVSPropertyOp20
 70
     1
102
RTVSPropertyOp21
 70
     1
102
RTVSPropertyOp22
 70
     1
102
RTVSPropertyOp23
 70
     1
102
RTVSPropertyOp24
 70
     1
102
RTVSPropertyOp25
 70
     1
102
RTVSPropertyOp26
 70
     1
102
RTVSPropertyOp27
 70
     1
102
RTVSPropertyOp28
 70
     1
102
RTVSPropertyOp29
 70
     1
102
RTVSPropertyOp30
 70
     1
102
RTVSPropertyOp31
 70
     1
102
RTVSPropertyOp32
 70
     1
102
RTVSPropertyOp33
 70
     1
102
RTVSPropertyOp34
 70
     1
102
RTVSPropertyOp35
 70
     1
102
RTVSPropertyOp36
 70
     1
102
RTVSPropertyOp37
 70
     1
102
RTVSPropertyOp38
 70
     1
102
RTVSPropertyOp39
 70
     1
102
RTVSPropertyOp40
 70
     1
102
RTVSPropertyOp41
 70
     1
102
RTVSPropertyOp42
 70
     1
102
RTVSPropertyOp43
 70
     1
102
RTVSPropertyOp44
 70
     1
102
RTVSPropertyOp45
 70
     1
102
RTVSPropertyOp46
 70
     1
102
RTVSPropertyOp47
 70
     1
102
RTVSPropertyOp48
 70
     1
102
RTVSPropertyOp49
 70
     1
102
RTVSPropertyOp50
 70
     1
102
RTVSPropertyOp51
 70
     0
102
RTVSPropertyOp52
 70
     0
102
RTVSPropertyOp53
 70
     1
102
RTVSPropertyOp54
 70
     1
102
RTVSPropertyOp55
 70
     1
102
RTVSPropertyOp56
 70
     1
102
RTVSPropertyOp57
 70
     1
102
RTVSPost2010Prop28
280
     0
102
RTVSPost2010PropOp28
 70
     1
102
RTVSPost2010Prop29
280
     1
102
RTVSPost2010PropOp29
 70
     1
102
RTVSPost2010Prop30
280
     1
102
RTVSPost2010PropOp30
 70
     1
102
RTVSPost2010Prop31
280
     0
102
RTVSPost2010PropOp31
 70
     1
102
RTVSPost2010Prop32
280
     0
102
RTVSPost2010PropOp32
 70
     1
102
RTVSPost2010Prop33
280
     0
102
RTVSPost2010PropOp33
 70
     1
102
RTVSPost2010Prop34
280
     0
102
RTVSPost2010PropOp34
 70
     1
102
RTVSPost2010Prop35
280
     0
102
RTVSPost2010PropOp35
 70
     1
102
RTVSPost2010Prop36
280
     0
102
RTVSPost2010PropOp36
 70
     1
102
RTVSPost2010Prop37
 90
       50
102
RTVSPost2010PropOp37
 70
     1
102
RTVSPost2010Prop38
140
0.0
102
RTVSPost2010PropOp38
 70
     1
102
RTVSPost2010Prop39
140
1.0
102
RTVSPost2010PropOp39
 70
     1
102
RTVSPost2010Prop40
 90
        0
102
RTVSPost2010PropOp40
 70
     1
102
RTVSPost2010Prop41ColorIndex
 90
       18
102
RTVSPost2010Prop41ColorRGB
 90
        0
102
RTVSPost2010PropOp41
 70
     1
102
RTVSPost2010Prop42
 90
       50
102
RTVSPost2010PropOp42
 70
     1
102
RTVSPost2010Prop43
 90
        3
102
RTVSPost2010PropOp43
 70
     1
102
RTVSPost2010Prop44ColorIndex
 90
        5
102
RTVSPost2010Prop44ColorRGB
 90
      255
102
RTVSPost2010PropOp44
 70
     1
102
RTVSPost2010Prop45
280
     0
102
RTVSPost2010PropOp45
 70
     1
102
RTVSPost2010Prop46
 90
       50
102
RTVSPost2010PropOp46
 70
     1
102
RTVSPost2010Prop47
 90
       50
102
RTVSPost2010PropOp47
 70
     1
102
RTVSPost2010Prop48
 90
       50
102
RTVSPost2010PropOp48
 70
     1
102
RTVSPost2010Prop49
280
     0
102
RTVSPost2010PropOp49
 70
     1
102
RTVSPost2010Prop50
 90
       50
102
RTVSPost2010PropOp50
 70
     1
102
RTVSPost2010Prop51ColorIndex
 90
      256
102
RTVSPost2010Prop51ColorRGB
 90
-16777216
102
RTVSPost2010PropOp51
 70
     0
102
RTVSPost2010Prop52
140
1.0
102
RTVSPost2010PropOp52
 70
     0
102
RTVSPost2010Prop53
 90
        2
102
RTVSPost2010PropOp53
 70
     1
102
RTVSPost2010Prop54
  1
strokes_ogs.tif
102
RTVSPost2010PropOp54
 70
     1
102
RTVSPost2010Prop55
280
     0
102
RTVSPost2010PropOp55
 70
     1
102
RTVSPost2010Prop56
140
1.0
102
RTVSPost2010PropOp56
 70
     1
102
RTVSPost2010Prop57
140
1.0
102
RTVSPost2010PropOp57
 70
     1
  0
XRECORD
  5
1BD
102
{ACAD_REACTORS
330
1BC
102
}
330
1BC
100
AcDbXrecord
280
     1
102
RTVSPropertyOp0
 70
     1
102
RTVSPropertyOp1
 70
     1
102
RTVSPropertyOp2
 70
     1
102
RTVSPropertyOp3
 70
     1
102
RTVSPropertyOp4
 70
     1
102
RTVSPropertyOp5
 70
     1
102
RTVSPropertyOp6
 70
     1
102
RTVSPropertyOp7
 70
     1
102
RTVSPropertyOp8
 70
     1
102
RTVSPropertyOp9
 70
     1
102
RTVSPropertyOp10
 70
     1
102
RTVSPropertyOp11
 70
     1
102
RTVSPropertyOp12
 70
     1
102
RTVSPropertyOp13
 70
     1
102
RTVSPropertyOp14
 70
     1
102
RTVSPropertyOp15
 70
     1
102
RTVSPropertyOp16
 70
     1
102
RTVSPropertyOp17
 70
     1
102
RTVSPropertyOp18
 70
     1
102
RTVSPropertyOp19
 70
     1
102
RTVSPropertyOp20
 70
     1
102
RTVSPropertyOp21
 70
     1
102
RTVSPropertyOp22
 70
     1
102
RTVSPropertyOp23
 70
     1
102
RTVSPropertyOp24
 70
     1
102
RTVSPropertyOp25
 70
     1
102
RTVSPropertyOp26
 70
     1
102
RTVSPropertyOp27
 70
     1
102
RTVSPropertyOp28
 70
     1
102
RTVSPropertyOp29
 70
     1
102
RTVSPropertyOp30
 70
     1
102
RTVSPropertyOp31
 70
     1
102
RTVSPropertyOp32
 70
     1
102
RTVSPropertyOp33
 70
     1
102
RTVSPropertyOp34
 70
     1
102
RTVSPropertyOp35
 70
     1
102
RTVSPropertyOp36
 70
     1
102
RTVSPropertyOp37
 70
     1
102
RTVSPropertyOp38
 70
     1
102
RTVSPropertyOp39
 70
     1
102
RTVSPropertyOp40
 70
     1
102
RTVSPropertyOp41
 70
     1
102
RTVSPropertyOp42
 70
     1
102
RTVSPropertyOp43
 70
     1
102
RTVSPropertyOp44
 70
     1
102
RTVSPropertyOp45
 70
     1
102
RTVSPropertyOp46
 70
     1
102
RTVSPropertyOp47
 70
     1
102
RTVSPropertyOp48
 70
     1
102
RTVSPropertyOp49
 70
     1
102
RTVSPropertyOp50
 70
     1
102
RTVSPropertyOp51
 70
     0
102
RTVSPropertyOp52
 70
     0
102
RTVSPropertyOp53
 70
     1
102
RTVSPropertyOp54
 70
     1
102
RTVSPropertyOp55
 70
     1
102
RTVSPropertyOp56
 70
     1
102
RTVSPropertyOp57
 70
     1
102
RTVSPost2010Prop28
280
     0
102
RTVSPost2010PropOp28
 70
     1
102
RTVSPost2010Prop29
280
     1
102
RTVSPost2010PropOp29
 70
     1
102
RTVSPost2010Prop30
280
     1
102
RTVSPost2010PropOp30
 70
     1
102
RTVSPost2010Prop31
280
     0
102
RTVSPost2010PropOp31
 70
     1
102
RTVSPost2010Prop32
280
     0
102
RTVSPost2010PropOp32
 70
     1
102
RTVSPost2010Prop33
280
     0
102
RTVSPost2010PropOp33
 70
     1
102
RTVSPost2010Prop34
280
     0
102
RTVSPost2010PropOp34
 70
     1
102
RTVSPost2010Prop35
280
     0
102
RTVSPost2010PropOp35
 70
     1
102
RTVSPost2010Prop36
280
     0
102
RTVSPost2010PropOp36
 70
     1
102
RTVSPost2010Prop37
 90
       50
102
RTVSPost2010PropOp37
 70
     1
102
RTVSPost2010Prop38
140
0.0
102
RTVSPost2010PropOp38
 70
     1
102
RTVSPost2010Prop39
140
1.0
102
RTVSPost2010PropOp39
 70
     1
102
RTVSPost2010Prop40
 90
        0
102
RTVSPost2010PropOp40
 70
     1
102
RTVSPost2010Prop41ColorIndex
 90
       18
102
RTVSPost2010Prop41ColorRGB
 90
        0
102
RTVSPost2010PropOp41
 70
     1
102
RTVSPost2010Prop42
 90
       50
102
RTVSPost2010PropOp42
 70
     1
102
RTVSPost2010Prop43
 90
        3
102
RTVSPost2010PropOp43
 70
     1
102
RTVSPost2010Prop44ColorIndex
 90
        5
102
RTVSPost2010Prop44ColorRGB
 90
      255
102
RTVSPost2010PropOp44
 70
     1
102
RTVSPost2010Prop45
280
     0
102
RTVSPost2010PropOp45
 70
     1
102
RTVSPost2010Prop46
 90
       50
102
RTVSPost2010PropOp46
 70
     1
102
RTVSPost2010Prop47
 90
       50
102
RTVSPost2010PropOp47
 70
     1
102
RTVSPost2010Prop48
 90
       50
102
RTVSPost2010PropOp48
 70
     1
102
RTVSPost2010Prop49
280
     0
102
RTVSPost2010PropOp49
 70
     1
102
RTVSPost2010Prop50
 90
       50
102
RTVSPost2010PropOp50
 70
     1
102
RTVSPost2010Prop51ColorIndex
 90
      256
102
RTVSPost2010Prop51ColorRGB
 90
-16777216
102
RTVSPost2010PropOp51
 70
     0
102
RTVSPost2010Prop52
140
1.0
102
RTVSPost2010PropOp52
 70
     0
102
RTVSPost2010Prop53
 90
        2
102
RTVSPost2010PropOp53
 70
     1
102
RTVSPost2010Prop54
  1
strokes_ogs.tif
102
RTVSPost2010PropOp54
 70
     1
102
RTVSPost2010Prop55
280
     0
102
RTVSPost2010PropOp55
 70
     1
102
RTVSPost2010Prop56
140
1.0
102
RTVSPost2010PropOp56
 70
     1
102
RTVSPost2010Prop57
140
1.0
102
RTVSPost2010PropOp57
 70
     1
  0
XRECORD
  5
1BF
102
{ACAD_REACTORS
330
1BE
102
}
330
1BE
100
AcDbXrecord
280
     1
102
RTVSPropertyOp0
 70
     1
102
RTVSPropertyOp1
 70
     1
102
RTVSPropertyOp2
 70
     1
102
RTVSPropertyOp3
 70
     1
102
RTVSPropertyOp4
 70
     1
102
RTVSPropertyOp5
 70
     1
102
RTVSPropertyOp6
 70
     1
102
RTVSPropertyOp7
 70
     1
102
RTVSPropertyOp8
 70
     1
102
RTVSPropertyOp9
 70
     1
102
RTVSPropertyOp10
 70
     1
102
RTVSPropertyOp11
 70
     1
102
RTVSPropertyOp12
 70
     1
102
RTVSPropertyOp13
 70
     1
102
RTVSPropertyOp14
 70
     1
102
RTVSPropertyOp15
 70
     1
102
RTVSPropertyOp16
 70
     1
102
RTVSPropertyOp17
 70
     1
102
RTVSPropertyOp18
 70
     1
102
RTVSPropertyOp19
 70
     1
102
RTVSPropertyOp20
 70
     1
102
RTVSPropertyOp21
 70
     1
102
RTVSPropertyOp22
 70
     1
102
RTVSPropertyOp23
 70
     1
102
RTVSPropertyOp24
 70
     1
102
RTVSPropertyOp25
 70
     1
102
RTVSPropertyOp26
 70
     1
102
RTVSPropertyOp27
 70
     1
102
RTVSPropertyOp28
 70
     1
102
RTVSPropertyOp29
 70
     1
102
RTVSPropertyOp30
 70
     1
102
RTVSPropertyOp31
 70
     1
102
RTVSPropertyOp32
 70
     1
102
RTVSPropertyOp33
 70
     1
102
RTVSPropertyOp34
 70
     1
102
RTVSPropertyOp35
 70
     1
102
RTVSPropertyOp36
 70
     1
102
RTVSPropertyOp37
 70
     1
102
RTVSPropertyOp38
 70
     1
102
RTVSPropertyOp39
 70
     1
102
RTVSPropertyOp40
 70
     1
102
RTVSPropertyOp41
 70
     1
102
RTVSPropertyOp42
 70
     1
102
RTVSPropertyOp43
 70
     1
102
RTVSPropertyOp44
 70
     1
102
RTVSPropertyOp45
 70
     1
102
RTVSPropertyOp46
 70
     1
102
RTVSPropertyOp47
 70
     1
102
RTVSPropertyOp48
 70
     1
102
RTVSPropertyOp49
 70
     1
102
RTVSPropertyOp50
 70
     1
102
RTVSPropertyOp51
 70
     0
102
RTVSPropertyOp52
 70
     0
102
RTVSPropertyOp53
 70
     1
102
RTVSPropertyOp54
 70
     1
102
RTVSPropertyOp55
 70
     1
102
RTVSPropertyOp56
 70
     1
102
RTVSPropertyOp57
 70
     1
102
RTVSPost2010Prop28
280
     0
102
RTVSPost2010PropOp28
 70
     1
102
RTVSPost2010Prop29
280
     1
102
RTVSPost2010PropOp29
 70
     1
102
RTVSPost2010Prop30
280
     1
102
RTVSPost2010PropOp30
 70
     1
102
RTVSPost2010Prop31
280
     0
102
RTVSPost2010PropOp31
 70
     1
102
RTVSPost2010Prop32
280
     0
102
RTVSPost2010PropOp32
 70
     1
102
RTVSPost2010Prop33
280
     0
102
RTVSPost2010PropOp33
 70
     1
102
RTVSPost2010Prop34
280
     0
102
RTVSPost2010PropOp34
 70
     1
102
RTVSPost2010Prop35
280
     0
102
RTVSPost2010PropOp35
 70
     1
102
RTVSPost2010Prop36
280
     0
102
RTVSPost2010PropOp36
 70
     1
102
RTVSPost2010Prop37
 90
       50
102
RTVSPost2010PropOp37
 70
     1
102
RTVSPost2010Prop38
140
0.0
102
RTVSPost2010PropOp38
 70
     1
102
RTVSPost2010Prop39
140
1.0
102
RTVSPost2010PropOp39
 70
     1
102
RTVSPost2010Prop40
 90
        0
102
RTVSPost2010PropOp40
 70
     1
102
RTVSPost2010Prop41ColorIndex
 90
       18
102
RTVSPost2010Prop41ColorRGB
 90
        0
102
RTVSPost2010PropOp41
 70
     1
102
RTVSPost2010Prop42
 90
       50
102
RTVSPost2010PropOp42
 70
     1
102
RTVSPost2010Prop43
 90
        3
102
RTVSPost2010PropOp43
 70
     1
102
RTVSPost2010Prop44ColorIndex
 90
        5
102
RTVSPost2010Prop44ColorRGB
 90
      255
102
RTVSPost2010PropOp44
 70
     1
102
RTVSPost2010Prop45
280
     0
102
RTVSPost2010PropOp45
 70
     1
102
RTVSPost2010Prop46
 90
       50
102
RTVSPost2010PropOp46
 70
     1
102
RTVSPost2010Prop47
 90
       50
102
RTVSPost2010PropOp47
 70
     1
102
RTVSPost2010Prop48
 90
       50
102
RTVSPost2010PropOp48
 70
     1
102
RTVSPost2010Prop49
280
     0
102
RTVSPost2010PropOp49
 70
     1
102
RTVSPost2010Prop50
 90
       50
102
RTVSPost2010PropOp50
 70
     1
102
RTVSPost2010Prop51ColorIndex
 90
      256
102
RTVSPost2010Prop51ColorRGB
 90
-16777216
102
RTVSPost2010PropOp51
 70
     0
102
RTVSPost2010Prop52
140
1.0
102
RTVSPost2010PropOp52
 70
     0
102
RTVSPost2010Prop53
 90
        2
102
RTVSPost2010PropOp53
 70
     1
102
RTVSPost2010Prop54
  1
strokes_ogs.tif
102
RTVSPost2010PropOp54
 70
     1
102
RTVSPost2010Prop55
280
     0
102
RTVSPost2010PropOp55
 70
     1
102
RTVSPost2010Prop56
140
1.0
102
RTVSPost2010PropOp56
 70
     1
102
RTVSPost2010Prop57
140
1.0
102
RTVSPost2010PropOp57
 70
     1
  0
XRECORD
  5
1CF
102
{ACAD_REACTORS
330
1CE
102
}
330
1CE
100
AcDbXrecord
280
     1
102
RTVSPropertyOp0
 70
     0
102
RTVSPropertyOp1
 70
     0
102
RTVSPropertyOp2
 70
     0
102
RTVSPropertyOp3
 70
     0
102
RTVSPropertyOp4
 70
     0
102
RTVSPropertyOp5
 70
     0
102
RTVSPropertyOp6
 70
     0
102
RTVSPropertyOp7
 70
     0
102
RTVSPropertyOp8
 70
     0
102
RTVSPropertyOp9
 70
     0
102
RTVSPropertyOp10
 70
     0
102
RTVSPropertyOp11
 70
     0
102
RTVSPropertyOp12
 70
     0
102
RTVSPropertyOp13
 70
     0
102
RTVSPropertyOp14
 70
     2
102
RTVSPropertyOp15
 70
     0
102
RTVSPropertyOp16
 70
     0
102
RTVSPropertyOp17
 70
     0
102
RTVSPropertyOp18
 70
     0
102
RTVSPropertyOp19
 70
     0
102
RTVSPropertyOp20
 70
     0
102
RTVSPropertyOp21
 70
     0
102
RTVSPropertyOp22
 70
     0
102
RTVSPropertyOp23
 70
     0
102
RTVSPropertyOp24
 70
     0
102
RTVSPropertyOp25
 70
     0
102
RTVSPropertyOp26
 70
     0
102
RTVSPropertyOp27
 70
     0
102
RTVSPropertyOp28
 70
     0
102
RTVSPropertyOp29
 70
     0
102
RTVSPropertyOp30
 70
     0
102
RTVSPropertyOp31
 70
     0
102
RTVSPropertyOp32
 70
     0
102
RTVSPropertyOp33
 70
     0
102
RTVSPropertyOp34
 70
     0
102
RTVSPropertyOp35
 70
     0
102
RTVSPropertyOp36
 70
     0
102
RTVSPropertyOp37
 70
     0
102
RTVSPropertyOp38
 70
     0
102
RTVSPropertyOp39
 70
     0
102
RTVSPropertyOp40
 70
     0
102
RTVSPropertyOp41
 70
     0
102
RTVSPropertyOp42
 70
     0
102
RTVSPropertyOp43
 70
     0
102
RTVSPropertyOp44
 70
     0
102
RTVSPropertyOp45
 70
     0
102
RTVSPropertyOp46
 70
     0
102
RTVSPropertyOp47
 70
     0
102
RTVSPropertyOp48
 70
     0
102
RTVSPropertyOp49
 70
     0
102
RTVSPropertyOp50
 70
     0
102
RTVSPropertyOp51
 70
     0
102
RTVSPropertyOp52
 70
     0
102
RTVSPropertyOp53
 70
     0
102
RTVSPropertyOp54
 70
     0
102
RTVSPropertyOp55
 70
     0
102
RTVSPropertyOp56
 70
     0
102
RTVSPropertyOp57
 70
     0
102
RTVSPost2010Prop28
280
     0
102
RTVSPost2010PropOp28
 70
     0
102
RTVSPost2010Prop29
280
     1
102
RTVSPost2010PropOp29
 70
     0
102
RTVSPost2010Prop30
280
     1
102
RTVSPost2010PropOp30
 70
     0
102
RTVSPost2010Prop31
280
     0
102
RTVSPost2010PropOp31
 70
     0
102
RTVSPost2010Prop32
280
     0
102
RTVSPost2010PropOp32
 70
     0
102
RTVSPost2010Prop33
280
     0
102
RTVSPost2010PropOp33
 70
     0
102
RTVSPost2010Prop34
280
     0
102
RTVSPost2010PropOp34
 70
     0
102
RTVSPost2010Prop35
280
     0
102
RTVSPost2010PropOp35
 70
     0
102
RTVSPost2010Prop36
280
     0
102
RTVSPost2010PropOp36
 70
     0
102
RTVSPost2010Prop37
 90
       50
102
RTVSPost2010PropOp37
 70
     0
102
RTVSPost2010Prop38
140
0.0
102
RTVSPost2010PropOp38
 70
     0
102
RTVSPost2010Prop39
140
1.0
102
RTVSPost2010PropOp39
 70
     0
102
RTVSPost2010Prop40
 90
        0
102
RTVSPost2010PropOp40
 70
     0
102
RTVSPost2010Prop41ColorIndex
 90
       18
102
RTVSPost2010Prop41ColorRGB
 90
        0
102
RTVSPost2010PropOp41
 70
     0
102
RTVSPost2010Prop42
 90
       50
102
RTVSPost2010PropOp42
 70
     0
102
RTVSPost2010Prop43
 90
        3
102
RTVSPost2010PropOp43
 70
     0
102
RTVSPost2010Prop44ColorIndex
 90
        5
102
RTVSPost2010Prop44ColorRGB
 90
      255
102
RTVSPost2010PropOp44
 70
     0
102
RTVSPost2010Prop45
280
     0
102
RTVSPost2010PropOp45
 70
     0
102
RTVSPost2010Prop46
 90
       50
102
RTVSPost2010PropOp46
 70
     0
102
RTVSPost2010Prop47
 90
       50
102
RTVSPost2010PropOp47
 70
     0
102
RTVSPost2010Prop48
 90
       50
102
RTVSPost2010PropOp48
 70
     0
102
RTVSPost2010Prop49
280
     0
102
RTVSPost2010PropOp49
 70
     0
102
RTVSPost2010Prop50
 90
       50
102
RTVSPost2010PropOp50
 70
     0
102
RTVSPost2010Prop51ColorIndex
 90
      256
102
RTVSPost2010Prop51ColorRGB
 90
-16777216
102
RTVSPost2010PropOp51
 70
     0
102
RTVSPost2010Prop52
140
1.0
102
RTVSPost2010PropOp52
 70
     0
102
RTVSPost2010Prop53
 90
        2
102
RTVSPost2010PropOp53
 70
     0
102
RTVSPost2010Prop54
  1
strokes_ogs.tif
102
RTVSPost2010PropOp54
 70
     0
102
RTVSPost2010Prop55
280
     0
102
RTVSPost2010PropOp55
 70
     0
102
RTVSPost2010Prop56
140
1.0
102
RTVSPost2010PropOp56
 70
     0
102
RTVSPost2010Prop57
140
1.0
102
RTVSPost2010PropOp57
 70
     0
  0
XRECORD
  5
1C7
102
{ACAD_REACTORS
330
1C6
102
}
330
1C6
100
AcDbXrecord
280
     1
102
RTVSPropertyOp0
 70
     1
102
RTVSPropertyOp1
 70
     1
102
RTVSPropertyOp2
 70
     1
102
RTVSPropertyOp3
 70
     1
102
RTVSPropertyOp4
 70
     1
102
RTVSPropertyOp5
 70
     1
102
RTVSPropertyOp6
 70
     1
102
RTVSPropertyOp7
 70
     1
102
RTVSPropertyOp8
 70
     1
102
RTVSPropertyOp9
 70
     1
102
RTVSPropertyOp10
 70
     1
102
RTVSPropertyOp11
 70
     1
102
RTVSPropertyOp12
 70
     1
102
RTVSPropertyOp13
 70
     1
102
RTVSPropertyOp14
 70
     1
102
RTVSPropertyOp15
 70
     1
102
RTVSPropertyOp16
 70
     1
102
RTVSPropertyOp17
 70
     1
102
RTVSPropertyOp18
 70
     1
102
RTVSPropertyOp19
 70
     1
102
RTVSPropertyOp20
 70
     1
102
RTVSPropertyOp21
 70
     1
102
RTVSPropertyOp22
 70
     1
102
RTVSPropertyOp23
 70
     1
102
RTVSPropertyOp24
 70
     1
102
RTVSPropertyOp25
 70
     1
102
RTVSPropertyOp26
 70
     1
102
RTVSPropertyOp27
 70
     1
102
RTVSPropertyOp28
 70
     1
102
RTVSPropertyOp29
 70
     1
102
RTVSPropertyOp30
 70
     1
102
RTVSPropertyOp31
 70
     1
102
RTVSPropertyOp32
 70
     1
102
RTVSPropertyOp33
 70
     1
102
RTVSPropertyOp34
 70
     1
102
RTVSPropertyOp35
 70
     1
102
RTVSPropertyOp36
 70
     1
102
RTVSPropertyOp37
 70
     1
102
RTVSPropertyOp38
 70
     1
102
RTVSPropertyOp39
 70
     1
102
RTVSPropertyOp40
 70
     1
102
RTVSPropertyOp41
 70
     1
102
RTVSPropertyOp42
 70
     1
102
RTVSPropertyOp43
 70
     1
102
RTVSPropertyOp44
 70
     1
102
RTVSPropertyOp45
 70
     1
102
RTVSPropertyOp46
 70
     1
102
RTVSPropertyOp47
 70
     1
102
RTVSPropertyOp48
 70
     1
102
RTVSPropertyOp49
 70
     1
102
RTVSPropertyOp50
 70
     1
102
RTVSPropertyOp51
 70
     0
102
RTVSPropertyOp52
 70
     0
102
RTVSPropertyOp53
 70
     1
102
RTVSPropertyOp54
 70
     1
102
RTVSPropertyOp55
 70
     1
102
RTVSPropertyOp56
 70
     1
102
RTVSPropertyOp57
 70
     1
102
RTVSPost2010Prop28
280
     0
102
RTVSPost2010PropOp28
 70
     1
102
RTVSPost2010Prop29
280
     1
102
RTVSPost2010PropOp29
 70
     1
102
RTVSPost2010Prop30
280
     1
102
RTVSPost2010PropOp30
 70
     1
102
RTVSPost2010Prop31
280
     0
102
RTVSPost2010PropOp31
 70
     1
102
RTVSPost2010Prop32
280
     0
102
RTVSPost2010PropOp32
 70
     1
102
RTVSPost2010Prop33
280
     0
102
RTVSPost2010PropOp33
 70
     1
102
RTVSPost2010Prop34
280
     0
102
RTVSPost2010PropOp34
 70
     1
102
RTVSPost2010Prop35
280
     0
102
RTVSPost2010PropOp35
 70
     1
102
RTVSPost2010Prop36
280
     0
102
RTVSPost2010PropOp36
 70
     1
102
RTVSPost2010Prop37
 90
       50
102
RTVSPost2010PropOp37
 70
     1
102
RTVSPost2010Prop38
140
0.0
102
RTVSPost2010PropOp38
 70
     1
102
RTVSPost2010Prop39
140
1.0
102
RTVSPost2010PropOp39
 70
     1
102
RTVSPost2010Prop40
 90
        0
102
RTVSPost2010PropOp40
 70
     1
102
RTVSPost2010Prop41ColorIndex
 90
       18
102
RTVSPost2010Prop41ColorRGB
 90
        0
102
RTVSPost2010PropOp41
 70
     1
102
RTVSPost2010Prop42
 90
       50
102
RTVSPost2010PropOp42
 70
     1
102
RTVSPost2010Prop43
 90
        3
102
RTVSPost2010PropOp43
 70
     1
102
RTVSPost2010Prop44ColorIndex
 90
        5
102
RTVSPost2010Prop44ColorRGB
 90
      255
102
RTVSPost2010PropOp44
 70
     1
102
RTVSPost2010Prop45
280
     0
102
RTVSPost2010PropOp45
 70
     1
102
RTVSPost2010Prop46
 90
       50
102
RTVSPost2010PropOp46
 70
     1
102
RTVSPost2010Prop47
 90
       50
102
RTVSPost2010PropOp47
 70
     1
102
RTVSPost2010Prop48
 90
       50
102
RTVSPost2010PropOp48
 70
     1
102
RTVSPost2010Prop49
280
     0
102
RTVSPost2010PropOp49
 70
     1
102
RTVSPost2010Prop50
 90
       50
102
RTVSPost2010PropOp50
 70
     1
102
RTVSPost2010Prop51ColorIndex
 90
      256
102
RTVSPost2010Prop51ColorRGB
 90
-16777216
102
RTVSPost2010PropOp51
 70
     0
102
RTVSPost2010Prop52
140
1.0
102
RTVSPost2010PropOp52
 70
     0
102
RTVSPost2010Prop53
 90
        2
102
RTVSPost2010PropOp53
 70
     1
102
RTVSPost2010Prop54
  1
strokes_ogs.tif
102
RTVSPost2010PropOp54
 70
     1
102
RTVSPost2010Prop55
280
     0
102
RTVSPost2010PropOp55
 70
     1
102
RTVSPost2010Prop56
140
1.0
102
RTVSPost2010PropOp56
 70
     1
102
RTVSPost2010Prop57
140
1.0
102
RTVSPost2010PropOp57
 70
     1
  0
XRECORD
  5
1AB
102
{ACAD_REACTORS
330
1AA
102
}
330
1AA
100
AcDbXrecord
280
     1
102
RTVSPropertyOp0
 70
     1
102
RTVSPropertyOp1
 70
     1
102
RTVSPropertyOp2
 70
     1
102
RTVSPropertyOp3
 70
     1
102
RTVSPropertyOp4
 70
     1
102
RTVSPropertyOp5
 70
     1
102
RTVSPropertyOp6
 70
     1
102
RTVSPropertyOp7
 70
     1
102
RTVSPropertyOp8
 70
     1
102
RTVSPropertyOp9
 70
     1
102
RTVSPropertyOp10
 70
     1
102
RTVSPropertyOp11
 70
     1
102
RTVSPropertyOp12
 70
     1
102
RTVSPropertyOp13
 70
     1
102
RTVSPropertyOp14
 70
     1
102
RTVSPropertyOp15
 70
     1
102
RTVSPropertyOp16
 70
     1
102
RTVSPropertyOp17
 70
     1
102
RTVSPropertyOp18
 70
     1
102
RTVSPropertyOp19
 70
     1
102
RTVSPropertyOp20
 70
     1
102
RTVSPropertyOp21
 70
     1
102
RTVSPropertyOp22
 70
     1
102
RTVSPropertyOp23
 70
     1
102
RTVSPropertyOp24
 70
     1
102
RTVSPropertyOp25
 70
     1
102
RTVSPropertyOp26
 70
     1
102
RTVSPropertyOp27
 70
     1
102
RTVSPropertyOp28
 70
     1
102
RTVSPropertyOp29
 70
     1
102
RTVSPropertyOp30
 70
     1
102
RTVSPropertyOp31
 70
     1
102
RTVSPropertyOp32
 70
     1
102
RTVSPropertyOp33
 70
     1
102
RTVSPropertyOp34
 70
     1
102
RTVSPropertyOp35
 70
     1
102
RTVSPropertyOp36
 70
     1
102
RTVSPropertyOp37
 70
     1
102
RTVSPropertyOp38
 70
     1
102
RTVSPropertyOp39
 70
     1
102
RTVSPropertyOp40
 70
     1
102
RTVSPropertyOp41
 70
     1
102
RTVSPropertyOp42
 70
     1
102
RTVSPropertyOp43
 70
     1
102
RTVSPropertyOp44
 70
     1
102
RTVSPropertyOp45
 70
     1
102
RTVSPropertyOp46
 70
     1
102
RTVSPropertyOp47
 70
     1
102
RTVSPropertyOp48
 70
     1
102
RTVSPropertyOp49
 70
     1
102
RTVSPropertyOp50
 70
     1
102
RTVSPropertyOp51
 70
     0
102
RTVSPropertyOp52
 70
     0
102
RTVSPropertyOp53
 70
     1
102
RTVSPropertyOp54
 70
     1
102
RTVSPropertyOp55
 70
     1
102
RTVSPropertyOp56
 70
     1
102
RTVSPropertyOp57
 70
     1
102
RTVSPost2010Prop28
280
     0
102
RTVSPost2010PropOp28
 70
     1
102
RTVSPost2010Prop29
280
     1
102
RTVSPost2010PropOp29
 70
     1
102
RTVSPost2010Prop30
280
     1
102
RTVSPost2010PropOp30
 70
     1
102
RTVSPost2010Prop31
280
     0
102
RTVSPost2010PropOp31
 70
     1
102
RTVSPost2010Prop32
280
     0
102
RTVSPost2010PropOp32
 70
     1
102
RTVSPost2010Prop33
280
     0
102
RTVSPost2010PropOp33
 70
     1
102
RTVSPost2010Prop34
280
     0
102
RTVSPost2010PropOp34
 70
     1
102
RTVSPost2010Prop35
280
     0
102
RTVSPost2010PropOp35
 70
     1
102
RTVSPost2010Prop36
280
     0
102
RTVSPost2010PropOp36
 70
     1
102
RTVSPost2010Prop37
 90
       50
102
RTVSPost2010PropOp37
 70
     1
102
RTVSPost2010Prop38
140
0.0
102
RTVSPost2010PropOp38
 70
     1
102
RTVSPost2010Prop39
140
1.0
102
RTVSPost2010PropOp39
 70
     1
102
RTVSPost2010Prop40
 90
        0
102
RTVSPost2010PropOp40
 70
     1
102
RTVSPost2010Prop41ColorIndex
 90
       18
102
RTVSPost2010Prop41ColorRGB
 90
        0
102
RTVSPost2010PropOp41
 70
     1
102
RTVSPost2010Prop42
 90
       50
102
RTVSPost2010PropOp42
 70
     1
102
RTVSPost2010Prop43
 90
        3
102
RTVSPost2010PropOp43
 70
     1
102
RTVSPost2010Prop44ColorIndex
 90
        5
102
RTVSPost2010Prop44ColorRGB
 90
      255
102
RTVSPost2010PropOp44
 70
     1
102
RTVSPost2010Prop45
280
     0
102
RTVSPost2010PropOp45
 70
     1
102
RTVSPost2010Prop46
 90
       50
102
RTVSPost2010PropOp46
 70
     1
102
RTVSPost2010Prop47
 90
       50
102
RTVSPost2010PropOp47
 70
     1
102
RTVSPost2010Prop48
 90
       50
102
RTVSPost2010PropOp48
 70
     1
102
RTVSPost2010Prop49
280
     0
102
RTVSPost2010PropOp49
 70
     1
102
RTVSPost2010Prop50
 90
       50
102
RTVSPost2010PropOp50
 70
     1
102
RTVSPost2010Prop51ColorIndex
 90
      256
102
RTVSPost2010Prop51ColorRGB
 90
-16777216
102
RTVSPost2010PropOp51
 70
     0
102
RTVSPost2010Prop52
140
1.0
102
RTVSPost2010PropOp52
 70
     0
102
RTVSPost2010Prop53
 90
        2
102
RTVSPost2010PropOp53
 70
     1
102
RTVSPost2010Prop54
  1
strokes_ogs.tif
102
RTVSPost2010PropOp54
 70
     1
102
RTVSPost2010Prop55
280
     0
102
RTVSPost2010PropOp55
 70
     1
102
RTVSPost2010Prop56
140
1.0
102
RTVSPost2010PropOp56
 70
     1
102
RTVSPost2010Prop57
140
1.0
102
RTVSPost2010PropOp57
 70
     1
  0
XRECORD
  5
1AD
102
{ACAD_REACTORS
330
1AC
102
}
330
1AC
100
AcDbXrecord
280
     1
102
RTVSPropertyOp0
 70
     1
102
RTVSPropertyOp1
 70
     1
102
RTVSPropertyOp2
 70
     1
102
RTVSPropertyOp3
 70
     1
102
RTVSPropertyOp4
 70
     1
102
RTVSPropertyOp5
 70
     1
102
RTVSPropertyOp6
 70
     1
102
RTVSPropertyOp7
 70
     1
102
RTVSPropertyOp8
 70
     1
102
RTVSPropertyOp9
 70
     1
102
RTVSPropertyOp10
 70
     1
102
RTVSPropertyOp11
 70
     1
102
RTVSPropertyOp12
 70
     1
102
RTVSPropertyOp13
 70
     1
102
RTVSPropertyOp14
 70
     1
102
RTVSPropertyOp15
 70
     1
102
RTVSPropertyOp16
 70
     1
102
RTVSPropertyOp17
 70
     1
102
RTVSPropertyOp18
 70
     1
102
RTVSPropertyOp19
 70
     1
102
RTVSPropertyOp20
 70
     1
102
RTVSPropertyOp21
 70
     1
102
RTVSPropertyOp22
 70
     1
102
RTVSPropertyOp23
 70
     1
102
RTVSPropertyOp24
 70
     1
102
RTVSPropertyOp25
 70
     1
102
RTVSPropertyOp26
 70
     1
102
RTVSPropertyOp27
 70
     1
102
RTVSPropertyOp28
 70
     1
102
RTVSPropertyOp29
 70
     1
102
RTVSPropertyOp30
 70
     1
102
RTVSPropertyOp31
 70
     1
102
RTVSPropertyOp32
 70
     1
102
RTVSPropertyOp33
 70
     1
102
RTVSPropertyOp34
 70
     1
102
RTVSPropertyOp35
 70
     1
102
RTVSPropertyOp36
 70
     1
102
RTVSPropertyOp37
 70
     1
102
RTVSPropertyOp38
 70
     1
102
RTVSPropertyOp39
 70
     1
102
RTVSPropertyOp40
 70
     1
102
RTVSPropertyOp41
 70
     1
102
RTVSPropertyOp42
 70
     1
102
RTVSPropertyOp43
 70
     1
102
RTVSPropertyOp44
 70
     1
102
RTVSPropertyOp45
 70
     1
102
RTVSPropertyOp46
 70
     1
102
RTVSPropertyOp47
 70
     1
102
RTVSPropertyOp48
 70
     1
102
RTVSPropertyOp49
 70
     1
102
RTVSPropertyOp50
 70
     1
102
RTVSPropertyOp51
 70
     0
102
RTVSPropertyOp52
 70
     0
102
RTVSPropertyOp53
 70
     1
102
RTVSPropertyOp54
 70
     1
102
RTVSPropertyOp55
 70
     1
102
RTVSPropertyOp56
 70
     1
102
RTVSPropertyOp57
 70
     1
102
RTVSPost2010Prop28
280
     0
102
RTVSPost2010PropOp28
 70
     1
102
RTVSPost2010Prop29
280
     1
102
RTVSPost2010PropOp29
 70
     1
102
RTVSPost2010Prop30
280
     1
102
RTVSPost2010PropOp30
 70
     1
102
RTVSPost2010Prop31
280
     0
102
RTVSPost2010PropOp31
 70
     1
102
RTVSPost2010Prop32
280
     0
102
RTVSPost2010PropOp32
 70
     1
102
RTVSPost2010Prop33
280
     0
102
RTVSPost2010PropOp33
 70
     1
102
RTVSPost2010Prop34
280
     0
102
RTVSPost2010PropOp34
 70
     1
102
RTVSPost2010Prop35
280
     0
102
RTVSPost2010PropOp35
 70
     1
102
RTVSPost2010Prop36
280
     0
102
RTVSPost2010PropOp36
 70
     1
102
RTVSPost2010Prop37
 90
       50
102
RTVSPost2010PropOp37
 70
     1
102
RTVSPost2010Prop38
140
0.0
102
RTVSPost2010PropOp38
 70
     1
102
RTVSPost2010Prop39
140
1.0
102
RTVSPost2010PropOp39
 70
     1
102
RTVSPost2010Prop40
 90
        0
102
RTVSPost2010PropOp40
 70
     1
102
RTVSPost2010Prop41ColorIndex
 90
       18
102
RTVSPost2010Prop41ColorRGB
 90
        0
102
RTVSPost2010PropOp41
 70
     1
102
RTVSPost2010Prop42
 90
       50
102
RTVSPost2010PropOp42
 70
     1
102
RTVSPost2010Prop43
 90
        3
102
RTVSPost2010PropOp43
 70
     1
102
RTVSPost2010Prop44ColorIndex
 90
        5
102
RTVSPost2010Prop44ColorRGB
 90
      255
102
RTVSPost2010PropOp44
 70
     1
102
RTVSPost2010Prop45
280
     0
102
RTVSPost2010PropOp45
 70
     1
102
RTVSPost2010Prop46
 90
       50
102
RTVSPost2010PropOp46
 70
     1
102
RTVSPost2010Prop47
 90
       50
102
RTVSPost2010PropOp47
 70
     1
102
RTVSPost2010Prop48
 90
       50
102
RTVSPost2010PropOp48
 70
     1
102
RTVSPost2010Prop49
280
     0
102
RTVSPost2010PropOp49
 70
     1
102
RTVSPost2010Prop50
 90
       50
102
RTVSPost2010PropOp50
 70
     1
102
RTVSPost2010Prop51ColorIndex
 90
      256
102
RTVSPost2010Prop51ColorRGB
 90
-16777216
102
RTVSPost2010PropOp51
 70
     0
102
RTVSPost2010Prop52
140
1.0
102
RTVSPost2010PropOp52
 70
     0
102
RTVSPost2010Prop53
 90
        2
102
RTVSPost2010PropOp53
 70
     1
102
RTVSPost2010Prop54
  1
strokes_ogs.tif
102
RTVSPost2010PropOp54
 70
     1
102
RTVSPost2010Prop55
280
     0
102
RTVSPost2010PropOp55
 70
     1
102
RTVSPost2010Prop56
140
1.0
102
RTVSPost2010PropOp56
 70
     1
102
RTVSPost2010Prop57
140
1.0
102
RTVSPost2010PropOp57
 70
     1
  0
XRECORD
  5
1AF
102
{ACAD_REACTORS
330
1AE
102
}
330
1AE
100
AcDbXrecord
280
     1
102
RTVSPropertyOp0
 70
     1
102
RTVSPropertyOp1
 70
     1
102
RTVSPropertyOp2
 70
     1
102
RTVSPropertyOp3
 70
     1
102
RTVSPropertyOp4
 70
     1
102
RTVSPropertyOp5
 70
     1
102
RTVSPropertyOp6
 70
     1
102
RTVSPropertyOp7
 70
     1
102
RTVSPropertyOp8
 70
     1
102
RTVSPropertyOp9
 70
     1
102
RTVSPropertyOp10
 70
     1
102
RTVSPropertyOp11
 70
     1
102
RTVSPropertyOp12
 70
     1
102
RTVSPropertyOp13
 70
     1
102
RTVSPropertyOp14
 70
     1
102
RTVSPropertyOp15
 70
     1
102
RTVSPropertyOp16
 70
     1
102
RTVSPropertyOp17
 70
     1
102
RTVSPropertyOp18
 70
     1
102
RTVSPropertyOp19
 70
     1
102
RTVSPropertyOp20
 70
     1
102
RTVSPropertyOp21
 70
     1
102
RTVSPropertyOp22
 70
     1
102
RTVSPropertyOp23
 70
     1
102
RTVSPropertyOp24
 70
     1
102
RTVSPropertyOp25
 70
     1
102
RTVSPropertyOp26
 70
     1
102
RTVSPropertyOp27
 70
     1
102
RTVSPropertyOp28
 70
     1
102
RTVSPropertyOp29
 70
     1
102
RTVSPropertyOp30
 70
     1
102
RTVSPropertyOp31
 70
     1
102
RTVSPropertyOp32
 70
     1
102
RTVSPropertyOp33
 70
     1
102
RTVSPropertyOp34
 70
     1
102
RTVSPropertyOp35
 70
     1
102
RTVSPropertyOp36
 70
     1
102
RTVSPropertyOp37
 70
     1
102
RTVSPropertyOp38
 70
     1
102
RTVSPropertyOp39
 70
     1
102
RTVSPropertyOp40
 70
     1
102
RTVSPropertyOp41
 70
     1
102
RTVSPropertyOp42
 70
     1
102
RTVSPropertyOp43
 70
     1
102
RTVSPropertyOp44
 70
     1
102
RTVSPropertyOp45
 70
     1
102
RTVSPropertyOp46
 70
     1
102
RTVSPropertyOp47
 70
     1
102
RTVSPropertyOp48
 70
     1
102
RTVSPropertyOp49
 70
     1
102
RTVSPropertyOp50
 70
     1
102
RTVSPropertyOp51
 70
     0
102
RTVSPropertyOp52
 70
     0
102
RTVSPropertyOp53
 70
     1
102
RTVSPropertyOp54
 70
     1
102
RTVSPropertyOp55
 70
     1
102
RTVSPropertyOp56
 70
     1
102
RTVSPropertyOp57
 70
     1
102
RTVSPost2010Prop28
280
     0
102
RTVSPost2010PropOp28
 70
     1
102
RTVSPost2010Prop29
280
     1
102
RTVSPost2010PropOp29
 70
     1
102
RTVSPost2010Prop30
280
     1
102
RTVSPost2010PropOp30
 70
     1
102
RTVSPost2010Prop31
280
     0
102
RTVSPost2010PropOp31
 70
     1
102
RTVSPost2010Prop32
280
     0
102
RTVSPost2010PropOp32
 70
     1
102
RTVSPost2010Prop33
280
     0
102
RTVSPost2010PropOp33
 70
     1
102
RTVSPost2010Prop34
280
     0
102
RTVSPost2010PropOp34
 70
     1
102
RTVSPost2010Prop35
280
     0
102
RTVSPost2010PropOp35
 70
     1
102
RTVSPost2010Prop36
280
     0
102
RTVSPost2010PropOp36
 70
     1
102
RTVSPost2010Prop37
 90
       50
102
RTVSPost2010PropOp37
 70
     1
102
RTVSPost2010Prop38
140
0.0
102
RTVSPost2010PropOp38
 70
     1
102
RTVSPost2010Prop39
140
1.0
102
RTVSPost2010PropOp39
 70
     1
102
RTVSPost2010Prop40
 90
        0
102
RTVSPost2010PropOp40
 70
     1
102
RTVSPost2010Prop41ColorIndex
 90
       18
102
RTVSPost2010Prop41ColorRGB
 90
        0
102
RTVSPost2010PropOp41
 70
     1
102
RTVSPost2010Prop42
 90
       50
102
RTVSPost2010PropOp42
 70
     1
102
RTVSPost2010Prop43
 90
        3
102
RTVSPost2010PropOp43
 70
     1
102
RTVSPost2010Prop44ColorIndex
 90
        5
102
RTVSPost2010Prop44ColorRGB
 90
      255
102
RTVSPost2010PropOp44
 70
     1
102
RTVSPost2010Prop45
280
     0
102
RTVSPost2010PropOp45
 70
     1
102
RTVSPost2010Prop46
 90
       50
102
RTVSPost2010PropOp46
 70
     1
102
RTVSPost2010Prop47
 90
       50
102
RTVSPost2010PropOp47
 70
     1
102
RTVSPost2010Prop48
 90
       50
102
RTVSPost2010PropOp48
 70
     1
102
RTVSPost2010Prop49
280
     0
102
RTVSPost2010PropOp49
 70
     1
102
RTVSPost2010Prop50
 90
       50
102
RTVSPost2010PropOp50
 70
     1
102
RTVSPost2010Prop51ColorIndex
 90
      256
102
RTVSPost2010Prop51ColorRGB
 90
-16777216
102
RTVSPost2010PropOp51
 70
     0
102
RTVSPost2010Prop52
140
1.0
102
RTVSPost2010PropOp52
 70
     0
102
RTVSPost2010Prop53
 90
        2
102
RTVSPost2010PropOp53
 70
     1
102
RTVSPost2010Prop54
  1
strokes_ogs.tif
102
RTVSPost2010PropOp54
 70
     1
102
RTVSPost2010Prop55
280
     0
102
RTVSPost2010PropOp55
 70
     1
102
RTVSPost2010Prop56
140
1.0
102
RTVSPost2010PropOp56
 70
     1
102
RTVSPost2010Prop57
140
1.0
102
RTVSPost2010PropOp57
 70
     1
  0
XRECORD
  5
1B1
102
{ACAD_REACTORS
330
1B0
102
}
330
1B0
100
AcDbXrecord
280
     1
102
RTVSPropertyOp0
 70
     1
102
RTVSPropertyOp1
 70
     1
102
RTVSPropertyOp2
 70
     1
102
RTVSPropertyOp3
 70
     1
102
RTVSPropertyOp4
 70
     1
102
RTVSPropertyOp5
 70
     1
102
RTVSPropertyOp6
 70
     1
102
RTVSPropertyOp7
 70
     1
102
RTVSPropertyOp8
 70
     1
102
RTVSPropertyOp9
 70
     1
102
RTVSPropertyOp10
 70
     1
102
RTVSPropertyOp11
 70
     1
102
RTVSPropertyOp12
 70
     1
102
RTVSPropertyOp13
 70
     1
102
RTVSPropertyOp14
 70
     1
102
RTVSPropertyOp15
 70
     1
102
RTVSPropertyOp16
 70
     1
102
RTVSPropertyOp17
 70
     1
102
RTVSPropertyOp18
 70
     1
102
RTVSPropertyOp19
 70
     1
102
RTVSPropertyOp20
 70
     1
102
RTVSPropertyOp21
 70
     1
102
RTVSPropertyOp22
 70
     1
102
RTVSPropertyOp23
 70
     1
102
RTVSPropertyOp24
 70
     1
102
RTVSPropertyOp25
 70
     1
102
RTVSPropertyOp26
 70
     1
102
RTVSPropertyOp27
 70
     1
102
RTVSPropertyOp28
 70
     1
102
RTVSPropertyOp29
 70
     1
102
RTVSPropertyOp30
 70
     1
102
RTVSPropertyOp31
 70
     1
102
RTVSPropertyOp32
 70
     1
102
RTVSPropertyOp33
 70
     1
102
RTVSPropertyOp34
 70
     1
102
RTVSPropertyOp35
 70
     1
102
RTVSPropertyOp36
 70
     1
102
RTVSPropertyOp37
 70
     1
102
RTVSPropertyOp38
 70
     1
102
RTVSPropertyOp39
 70
     1
102
RTVSPropertyOp40
 70
     1
102
RTVSPropertyOp41
 70
     1
102
RTVSPropertyOp42
 70
     1
102
RTVSPropertyOp43
 70
     1
102
RTVSPropertyOp44
 70
     1
102
RTVSPropertyOp45
 70
     1
102
RTVSPropertyOp46
 70
     1
102
RTVSPropertyOp47
 70
     1
102
RTVSPropertyOp48
 70
     1
102
RTVSPropertyOp49
 70
     1
102
RTVSPropertyOp50
 70
     1
102
RTVSPropertyOp51
 70
     0
102
RTVSPropertyOp52
 70
     0
102
RTVSPropertyOp53
 70
     1
102
RTVSPropertyOp54
 70
     1
102
RTVSPropertyOp55
 70
     1
102
RTVSPropertyOp56
 70
     1
102
RTVSPropertyOp57
 70
     1
102
RTVSPost2010Prop28
280
     0
102
RTVSPost2010PropOp28
 70
     1
102
RTVSPost2010Prop29
280
     1
102
RTVSPost2010PropOp29
 70
     1
102
RTVSPost2010Prop30
280
     1
102
RTVSPost2010PropOp30
 70
     1
102
RTVSPost2010Prop31
280
     0
102
RTVSPost2010PropOp31
 70
     1
102
RTVSPost2010Prop32
280
     0
102
RTVSPost2010PropOp32
 70
     1
102
RTVSPost2010Prop33
280
     0
102
RTVSPost2010PropOp33
 70
     1
102
RTVSPost2010Prop34
280
     0
102
RTVSPost2010PropOp34
 70
     1
102
RTVSPost2010Prop35
280
     0
102
RTVSPost2010PropOp35
 70
     1
102
RTVSPost2010Prop36
280
     0
102
RTVSPost2010PropOp36
 70
     1
102
RTVSPost2010Prop37
 90
       50
102
RTVSPost2010PropOp37
 70
     1
102
RTVSPost2010Prop38
140
0.0
102
RTVSPost2010PropOp38
 70
     1
102
RTVSPost2010Prop39
140
1.0
102
RTVSPost2010PropOp39
 70
     1
102
RTVSPost2010Prop40
 90
        0
102
RTVSPost2010PropOp40
 70
     1
102
RTVSPost2010Prop41ColorIndex
 90
       18
102
RTVSPost2010Prop41ColorRGB
 90
        0
102
RTVSPost2010PropOp41
 70
     1
102
RTVSPost2010Prop42
 90
       50
102
RTVSPost2010PropOp42
 70
     1
102
RTVSPost2010Prop43
 90
        3
102
RTVSPost2010PropOp43
 70
     1
102
RTVSPost2010Prop44ColorIndex
 90
        5
102
RTVSPost2010Prop44ColorRGB
 90
      255
102
RTVSPost2010PropOp44
 70
     1
102
RTVSPost2010Prop45
280
     0
102
RTVSPost2010PropOp45
 70
     1
102
RTVSPost2010Prop46
 90
       50
102
RTVSPost2010PropOp46
 70
     1
102
RTVSPost2010Prop47
 90
       50
102
RTVSPost2010PropOp47
 70
     1
102
RTVSPost2010Prop48
 90
       50
102
RTVSPost2010PropOp48
 70
     1
102
RTVSPost2010Prop49
280
     0
102
RTVSPost2010PropOp49
 70
     1
102
RTVSPost2010Prop50
 90
       50
102
RTVSPost2010PropOp50
 70
     1
102
RTVSPost2010Prop51ColorIndex
 90
      256
102
RTVSPost2010Prop51ColorRGB
 90
-16777216
102
RTVSPost2010PropOp51
 70
     0
102
RTVSPost2010Prop52
140
1.0
102
RTVSPost2010PropOp52
 70
     0
102
RTVSPost2010Prop53
 90
        2
102
RTVSPost2010PropOp53
 70
     1
102
RTVSPost2010Prop54
  1
strokes_ogs.tif
102
RTVSPost2010PropOp54
 70
     1
102
RTVSPost2010Prop55
280
     0
102
RTVSPost2010PropOp55
 70
     1
102
RTVSPost2010Prop56
140
1.0
102
RTVSPost2010PropOp56
 70
     1
102
RTVSPost2010Prop57
140
1.0
102
RTVSPost2010PropOp57
 70
     1
  0
XRECORD
  5
1B7
102
{ACAD_REACTORS
330
1B6
102
}
330
1B6
100
AcDbXrecord
280
     1
102
RTVSPropertyOp0
 70
     1
102
RTVSPropertyOp1
 70
     1
102
RTVSPropertyOp2
 70
     1
102
RTVSPropertyOp3
 70
     1
102
RTVSPropertyOp4
 70
     1
102
RTVSPropertyOp5
 70
     1
102
RTVSPropertyOp6
 70
     1
102
RTVSPropertyOp7
 70
     1
102
RTVSPropertyOp8
 70
     1
102
RTVSPropertyOp9
 70
     1
102
RTVSPropertyOp10
 70
     1
102
RTVSPropertyOp11
 70
     1
102
RTVSPropertyOp12
 70
     1
102
RTVSPropertyOp13
 70
     1
102
RTVSPropertyOp14
 70
     1
102
RTVSPropertyOp15
 70
     1
102
RTVSPropertyOp16
 70
     1
102
RTVSPropertyOp17
 70
     1
102
RTVSPropertyOp18
 70
     1
102
RTVSPropertyOp19
 70
     1
102
RTVSPropertyOp20
 70
     1
102
RTVSPropertyOp21
 70
     1
102
RTVSPropertyOp22
 70
     1
102
RTVSPropertyOp23
 70
     1
102
RTVSPropertyOp24
 70
     1
102
RTVSPropertyOp25
 70
     1
102
RTVSPropertyOp26
 70
     1
102
RTVSPropertyOp27
 70
     1
102
RTVSPropertyOp28
 70
     1
102
RTVSPropertyOp29
 70
     1
102
RTVSPropertyOp30
 70
     1
102
RTVSPropertyOp31
 70
     1
102
RTVSPropertyOp32
 70
     1
102
RTVSPropertyOp33
 70
     1
102
RTVSPropertyOp34
 70
     1
102
RTVSPropertyOp35
 70
     1
102
RTVSPropertyOp36
 70
     1
102
RTVSPropertyOp37
 70
     1
102
RTVSPropertyOp38
 70
     1
102
RTVSPropertyOp39
 70
     1
102
RTVSPropertyOp40
 70
     1
102
RTVSPropertyOp41
 70
     1
102
RTVSPropertyOp42
 70
     1
102
RTVSPropertyOp43
 70
     1
102
RTVSPropertyOp44
 70
     1
102
RTVSPropertyOp45
 70
     1
102
RTVSPropertyOp46
 70
     1
102
RTVSPropertyOp47
 70
     1
102
RTVSPropertyOp48
 70
     1
102
RTVSPropertyOp49
 70
     1
102
RTVSPropertyOp50
 70
     1
102
RTVSPropertyOp51
 70
     0
102
RTVSPropertyOp52
 70
     0
102
RTVSPropertyOp53
 70
     1
102
RTVSPropertyOp54
 70
     1
102
RTVSPropertyOp55
 70
     1
102
RTVSPropertyOp56
 70
     1
102
RTVSPropertyOp57
 70
     1
102
RTVSPost2010Prop28
280
     0
102
RTVSPost2010PropOp28
 70
     1
102
RTVSPost2010Prop29
280
     1
102
RTVSPost2010PropOp29
 70
     1
102
RTVSPost2010Prop30
280
     1
102
RTVSPost2010PropOp30
 70
     1
102
RTVSPost2010Prop31
280
     0
102
RTVSPost2010PropOp31
 70
     1
102
RTVSPost2010Prop32
280
     0
102
RTVSPost2010PropOp32
 70
     1
102
RTVSPost2010Prop33
280
     0
102
RTVSPost2010PropOp33
 70
     1
102
RTVSPost2010Prop34
280
     0
102
RTVSPost2010PropOp34
 70
     1
102
RTVSPost2010Prop35
280
     0
102
RTVSPost2010PropOp35
 70
     1
102
RTVSPost2010Prop36
280
     0
102
RTVSPost2010PropOp36
 70
     1
102
RTVSPost2010Prop37
 90
       50
102
RTVSPost2010PropOp37
 70
     1
102
RTVSPost2010Prop38
140
0.0
102
RTVSPost2010PropOp38
 70
     1
102
RTVSPost2010Prop39
140
1.0
102
RTVSPost2010PropOp39
 70
     1
102
RTVSPost2010Prop40
 90
        0
102
RTVSPost2010PropOp40
 70
     1
102
RTVSPost2010Prop41ColorIndex
 90
       18
102
RTVSPost2010Prop41ColorRGB
 90
        0
102
RTVSPost2010PropOp41
 70
     1
102
RTVSPost2010Prop42
 90
       50
102
RTVSPost2010PropOp42
 70
     1
102
RTVSPost2010Prop43
 90
        3
102
RTVSPost2010PropOp43
 70
     1
102
RTVSPost2010Prop44ColorIndex
 90
        5
102
RTVSPost2010Prop44ColorRGB
 90
      255
102
RTVSPost2010PropOp44
 70
     1
102
RTVSPost2010Prop45
280
     0
102
RTVSPost2010PropOp45
 70
     1
102
RTVSPost2010Prop46
 90
       50
102
RTVSPost2010PropOp46
 70
     1
102
RTVSPost2010Prop47
 90
       50
102
RTVSPost2010PropOp47
 70
     1
102
RTVSPost2010Prop48
 90
       50
102
RTVSPost2010PropOp48
 70
     1
102
RTVSPost2010Prop49
280
     0
102
RTVSPost2010PropOp49
 70
     1
102
RTVSPost2010Prop50
 90
       50
102
RTVSPost2010PropOp50
 70
     1
102
RTVSPost2010Prop51ColorIndex
 90
      256
102
RTVSPost2010Prop51ColorRGB
 90
-16777216
102
RTVSPost2010PropOp51
 70
     0
102
RTVSPost2010Prop52
140
1.0
102
RTVSPost2010PropOp52
 70
     0
102
RTVSPost2010Prop53
 90
        2
102
RTVSPost2010PropOp53
 70
     1
102
RTVSPost2010Prop54
  1
strokes_ogs.tif
102
RTVSPost2010PropOp54
 70
     1
102
RTVSPost2010Prop55
280
     0
102
RTVSPost2010PropOp55
 70
     1
102
RTVSPost2010Prop56
140
1.0
102
RTVSPost2010PropOp56
 70
     1
102
RTVSPost2010Prop57
140
1.0
102
RTVSPost2010PropOp57
 70
     1
  0
XRECORD
  5
1CB
102
{ACAD_REACTORS
330
1CA
102
}
330
1CA
100
AcDbXrecord
280
     1
102
RTVSPropertyOp0
 70
     0
102
RTVSPropertyOp1
 70
     0
102
RTVSPropertyOp2
 70
     0
102
RTVSPropertyOp3
 70
     0
102
RTVSPropertyOp4
 70
     0
102
RTVSPropertyOp5
 70
     0
102
RTVSPropertyOp6
 70
     0
102
RTVSPropertyOp7
 70
     0
102
RTVSPropertyOp8
 70
     0
102
RTVSPropertyOp9
 70
     0
102
RTVSPropertyOp10
 70
     0
102
RTVSPropertyOp11
 70
     0
102
RTVSPropertyOp12
 70
     0
102
RTVSPropertyOp13
 70
     0
102
RTVSPropertyOp14
 70
     2
102
RTVSPropertyOp15
 70
     0
102
RTVSPropertyOp16
 70
     0
102
RTVSPropertyOp17
 70
     0
102
RTVSPropertyOp18
 70
     0
102
RTVSPropertyOp19
 70
     0
102
RTVSPropertyOp20
 70
     0
102
RTVSPropertyOp21
 70
     0
102
RTVSPropertyOp22
 70
     0
102
RTVSPropertyOp23
 70
     0
102
RTVSPropertyOp24
 70
     0
102
RTVSPropertyOp25
 70
     0
102
RTVSPropertyOp26
 70
     0
102
RTVSPropertyOp27
 70
     0
102
RTVSPropertyOp28
 70
     0
102
RTVSPropertyOp29
 70
     0
102
RTVSPropertyOp30
 70
     0
102
RTVSPropertyOp31
 70
     0
102
RTVSPropertyOp32
 70
     0
102
RTVSPropertyOp33
 70
     0
102
RTVSPropertyOp34
 70
     0
102
RTVSPropertyOp35
 70
     0
102
RTVSPropertyOp36
 70
     0
102
RTVSPropertyOp37
 70
     0
102
RTVSPropertyOp38
 70
     0
102
RTVSPropertyOp39
 70
     0
102
RTVSPropertyOp40
 70
     0
102
RTVSPropertyOp41
 70
     0
102
RTVSPropertyOp42
 70
     0
102
RTVSPropertyOp43
 70
     0
102
RTVSPropertyOp44
 70
     0
102
RTVSPropertyOp45
 70
     0
102
RTVSPropertyOp46
 70
     0
102
RTVSPropertyOp47
 70
     0
102
RTVSPropertyOp48
 70
     0
102
RTVSPropertyOp49
 70
     0
102
RTVSPropertyOp50
 70
     0
102
RTVSPropertyOp51
 70
     0
102
RTVSPropertyOp52
 70
     0
102
RTVSPropertyOp53
 70
     0
102
RTVSPropertyOp54
 70
     0
102
RTVSPropertyOp55
 70
     0
102
RTVSPropertyOp56
 70
     0
102
RTVSPropertyOp57
 70
     0
102
RTVSPost2010Prop28
280
     0
102
RTVSPost2010PropOp28
 70
     0
102
RTVSPost2010Prop29
280
     1
102
RTVSPost2010PropOp29
 70
     0
102
RTVSPost2010Prop30
280
     1
102
RTVSPost2010PropOp30
 70
     0
102
RTVSPost2010Prop31
280
     0
102
RTVSPost2010PropOp31
 70
     0
102
RTVSPost2010Prop32
280
     0
102
RTVSPost2010PropOp32
 70
     0
102
RTVSPost2010Prop33
280
     0
102
RTVSPost2010PropOp33
 70
     0
102
RTVSPost2010Prop34
280
     0
102
RTVSPost2010PropOp34
 70
     0
102
RTVSPost2010Prop35
280
     0
102
RTVSPost2010PropOp35
 70
     0
102
RTVSPost2010Prop36
280
     0
102
RTVSPost2010PropOp36
 70
     0
102
RTVSPost2010Prop37
 90
       50
102
RTVSPost2010PropOp37
 70
     0
102
RTVSPost2010Prop38
140
0.0
102
RTVSPost2010PropOp38
 70
     0
102
RTVSPost2010Prop39
140
1.0
102
RTVSPost2010PropOp39
 70
     0
102
RTVSPost2010Prop40
 90
        0
102
RTVSPost2010PropOp40
 70
     0
102
RTVSPost2010Prop41ColorIndex
 90
       18
102
RTVSPost2010Prop41ColorRGB
 90
        0
102
RTVSPost2010PropOp41
 70
     0
102
RTVSPost2010Prop42
 90
       50
102
RTVSPost2010PropOp42
 70
     0
102
RTVSPost2010Prop43
 90
        3
102
RTVSPost2010PropOp43
 70
     0
102
RTVSPost2010Prop44ColorIndex
 90
        5
102
RTVSPost2010Prop44ColorRGB
 90
      255
102
RTVSPost2010PropOp44
 70
     0
102
RTVSPost2010Prop45
280
     0
102
RTVSPost2010PropOp45
 70
     0
102
RTVSPost2010Prop46
 90
       50
102
RTVSPost2010PropOp46
 70
     0
102
RTVSPost2010Prop47
 90
       50
102
RTVSPost2010PropOp47
 70
     0
102
RTVSPost2010Prop48
 90
       50
102
RTVSPost2010PropOp48
 70
     0
102
RTVSPost2010Prop49
280
     0
102
RTVSPost2010PropOp49
 70
     0
102
RTVSPost2010Prop50
 90
       50
102
RTVSPost2010PropOp50
 70
     0
102
RTVSPost2010Prop51ColorIndex
 90
      256
102
RTVSPost2010Prop51ColorRGB
 90
-16777216
102
RTVSPost2010PropOp51
 70
     0
102
RTVSPost2010Prop52
140
1.0
102
RTVSPost2010PropOp52
 70
     0
102
RTVSPost2010Prop53
 90
        2
102
RTVSPost2010PropOp53
 70
     0
102
RTVSPost2010Prop54
  1
strokes_ogs.tif
102
RTVSPost2010PropOp54
 70
     0
102
RTVSPost2010Prop55
280
     0
102
RTVSPost2010PropOp55
 70
     0
102
RTVSPost2010Prop56
140
1.0
102
RTVSPost2010PropOp56
 70
     0
102
RTVSPost2010Prop57
140
1.0
102
RTVSPost2010PropOp57
 70
     0
  0
XRECORD
  5
1C5
102
{ACAD_REACTORS
330
1C4
102
}
330
1C4
100
AcDbXrecord
280
     1
102
RTVSPropertyOp0
 70
     1
102
RTVSPropertyOp1
 70
     1
102
RTVSPropertyOp2
 70
     1
102
RTVSPropertyOp3
 70
     1
102
RTVSPropertyOp4
 70
     1
102
RTVSPropertyOp5
 70
     1
102
RTVSPropertyOp6
 70
     1
102
RTVSPropertyOp7
 70
     1
102
RTVSPropertyOp8
 70
     1
102
RTVSPropertyOp9
 70
     1
102
RTVSPropertyOp10
 70
     1
102
RTVSPropertyOp11
 70
     1
102
RTVSPropertyOp12
 70
     1
102
RTVSPropertyOp13
 70
     1
102
RTVSPropertyOp14
 70
     1
102
RTVSPropertyOp15
 70
     1
102
RTVSPropertyOp16
 70
     1
102
RTVSPropertyOp17
 70
     1
102
RTVSPropertyOp18
 70
     1
102
RTVSPropertyOp19
 70
     1
102
RTVSPropertyOp20
 70
     1
102
RTVSPropertyOp21
 70
     1
102
RTVSPropertyOp22
 70
     1
102
RTVSPropertyOp23
 70
     1
102
RTVSPropertyOp24
 70
     1
102
RTVSPropertyOp25
 70
     1
102
RTVSPropertyOp26
 70
     1
102
RTVSPropertyOp27
 70
     1
102
RTVSPropertyOp28
 70
     1
102
RTVSPropertyOp29
 70
     1
102
RTVSPropertyOp30
 70
     1
102
RTVSPropertyOp31
 70
     1
102
RTVSPropertyOp32
 70
     1
102
RTVSPropertyOp33
 70
     1
102
RTVSPropertyOp34
 70
     1
102
RTVSPropertyOp35
 70
     1
102
RTVSPropertyOp36
 70
     1
102
RTVSPropertyOp37
 70
     1
102
RTVSPropertyOp38
 70
     1
102
RTVSPropertyOp39
 70
     1
102
RTVSPropertyOp40
 70
     1
102
RTVSPropertyOp41
 70
     1
102
RTVSPropertyOp42
 70
     1
102
RTVSPropertyOp43
 70
     1
102
RTVSPropertyOp44
 70
     1
102
RTVSPropertyOp45
 70
     1
102
RTVSPropertyOp46
 70
     1
102
RTVSPropertyOp47
 70
     1
102
RTVSPropertyOp48
 70
     1
102
RTVSPropertyOp49
 70
     1
102
RTVSPropertyOp50
 70
     1
102
RTVSPropertyOp51
 70
     0
102
RTVSPropertyOp52
 70
     0
102
RTVSPropertyOp53
 70
     1
102
RTVSPropertyOp54
 70
     1
102
RTVSPropertyOp55
 70
     1
102
RTVSPropertyOp56
 70
     1
102
RTVSPropertyOp57
 70
     1
102
RTVSPost2010Prop28
280
     0
102
RTVSPost2010PropOp28
 70
     1
102
RTVSPost2010Prop29
280
     1
102
RTVSPost2010PropOp29
 70
     1
102
RTVSPost2010Prop30
280
     1
102
RTVSPost2010PropOp30
 70
     1
102
RTVSPost2010Prop31
280
     0
102
RTVSPost2010PropOp31
 70
     1
102
RTVSPost2010Prop32
280
     0
102
RTVSPost2010PropOp32
 70
     1
102
RTVSPost2010Prop33
280
     0
102
RTVSPost2010PropOp33
 70
     1
102
RTVSPost2010Prop34
280
     0
102
RTVSPost2010PropOp34
 70
     1
102
RTVSPost2010Prop35
280
     0
102
RTVSPost2010PropOp35
 70
     1
102
RTVSPost2010Prop36
280
     0
102
RTVSPost2010PropOp36
 70
     1
102
RTVSPost2010Prop37
 90
       50
102
RTVSPost2010PropOp37
 70
     1
102
RTVSPost2010Prop38
140
0.0
102
RTVSPost2010PropOp38
 70
     1
102
RTVSPost2010Prop39
140
1.0
102
RTVSPost2010PropOp39
 70
     1
102
RTVSPost2010Prop40
 90
        0
102
RTVSPost2010PropOp40
 70
     1
102
RTVSPost2010Prop41ColorIndex
 90
       18
102
RTVSPost2010Prop41ColorRGB
 90
        0
102
RTVSPost2010PropOp41
 70
     1
102
RTVSPost2010Prop42
 90
       50
102
RTVSPost2010PropOp42
 70
     1
102
RTVSPost2010Prop43
 90
        3
102
RTVSPost2010PropOp43
 70
     1
102
RTVSPost2010Prop44ColorIndex
 90
        5
102
RTVSPost2010Prop44ColorRGB
 90
      255
102
RTVSPost2010PropOp44
 70
     1
102
RTVSPost2010Prop45
280
     0
102
RTVSPost2010PropOp45
 70
     1
102
RTVSPost2010Prop46
 90
       50
102
RTVSPost2010PropOp46
 70
     1
102
RTVSPost2010Prop47
 90
       50
102
RTVSPost2010PropOp47
 70
     1
102
RTVSPost2010Prop48
 90
       50
102
RTVSPost2010PropOp48
 70
     1
102
RTVSPost2010Prop49
280
     0
102
RTVSPost2010PropOp49
 70
     1
102
RTVSPost2010Prop50
 90
       50
102
RTVSPost2010PropOp50
 70
     1
102
RTVSPost2010Prop51ColorIndex
 90
      256
102
RTVSPost2010Prop51ColorRGB
 90
-16777216
102
RTVSPost2010PropOp51
 70
     0
102
RTVSPost2010Prop52
140
1.0
102
RTVSPost2010PropOp52
 70
     0
102
RTVSPost2010Prop53
 90
        2
102
RTVSPost2010PropOp53
 70
     1
102
RTVSPost2010Prop54
  1
strokes_ogs.tif
102
RTVSPost2010PropOp54
 70
     1
102
RTVSPost2010Prop55
280
     0
102
RTVSPost2010PropOp55
 70
     1
102
RTVSPost2010Prop56
140
1.0
102
RTVSPost2010PropOp56
 70
     1
102
RTVSPost2010Prop57
140
1.0
102
RTVSPost2010PropOp57
 70
     1
  0
XRECORD
  5
1CD
102
{ACAD_REACTORS
330
1CC
102
}
330
1CC
100
AcDbXrecord
280
     1
102
RTVSPropertyOp0
 70
     0
102
RTVSPropertyOp1
 70
     0
102
RTVSPropertyOp2
 70
     0
102
RTVSPropertyOp3
 70
     0
102
RTVSPropertyOp4
 70
     0
102
RTVSPropertyOp5
 70
     0
102
RTVSPropertyOp6
 70
     0
102
RTVSPropertyOp7
 70
     0
102
RTVSPropertyOp8
 70
     0
102
RTVSPropertyOp9
 70
     0
102
RTVSPropertyOp10
 70
     0
102
RTVSPropertyOp11
 70
     0
102
RTVSPropertyOp12
 70
     0
102
RTVSPropertyOp13
 70
     0
102
RTVSPropertyOp14
 70
     2
102
RTVSPropertyOp15
 70
     0
102
RTVSPropertyOp16
 70
     0
102
RTVSPropertyOp17
 70
     0
102
RTVSPropertyOp18
 70
     0
102
RTVSPropertyOp19
 70
     0
102
RTVSPropertyOp20
 70
     0
102
RTVSPropertyOp21
 70
     0
102
RTVSPropertyOp22
 70
     0
102
RTVSPropertyOp23
 70
     0
102
RTVSPropertyOp24
 70
     0
102
RTVSPropertyOp25
 70
     0
102
RTVSPropertyOp26
 70
     0
102
RTVSPropertyOp27
 70
     0
102
RTVSPropertyOp28
 70
     0
102
RTVSPropertyOp29
 70
     0
102
RTVSPropertyOp30
 70
     0
102
RTVSPropertyOp31
 70
     0
102
RTVSPropertyOp32
 70
     0
102
RTVSPropertyOp33
 70
     0
102
RTVSPropertyOp34
 70
     0
102
RTVSPropertyOp35
 70
     0
102
RTVSPropertyOp36
 70
     0
102
RTVSPropertyOp37
 70
     0
102
RTVSPropertyOp38
 70
     0
102
RTVSPropertyOp39
 70
     0
102
RTVSPropertyOp40
 70
     0
102
RTVSPropertyOp41
 70
     0
102
RTVSPropertyOp42
 70
     0
102
RTVSPropertyOp43
 70
     0
102
RTVSPropertyOp44
 70
     0
102
RTVSPropertyOp45
 70
     0
102
RTVSPropertyOp46
 70
     0
102
RTVSPropertyOp47
 70
     0
102
RTVSPropertyOp48
 70
     0
102
RTVSPropertyOp49
 70
     0
102
RTVSPropertyOp50
 70
     0
102
RTVSPropertyOp51
 70
     0
102
RTVSPropertyOp52
 70
     0
102
RTVSPropertyOp53
 70
     0
102
RTVSPropertyOp54
 70
     0
102
RTVSPropertyOp55
 70
     0
102
RTVSPropertyOp56
 70
     0
102
RTVSPropertyOp57
 70
     0
102
RTVSPost2010Prop28
280
     0
102
RTVSPost2010PropOp28
 70
     0
102
RTVSPost2010Prop29
280
     1
102
RTVSPost2010PropOp29
 70
     0
102
RTVSPost2010Prop30
280
     1
102
RTVSPost2010PropOp30
 70
     0
102
RTVSPost2010Prop31
280
     0
102
RTVSPost2010PropOp31
 70
     0
102
RTVSPost2010Prop32
280
     0
102
RTVSPost2010PropOp32
 70
     0
102
RTVSPost2010Prop33
280
     0
102
RTVSPost2010PropOp33
 70
     0
102
RTVSPost2010Prop34
280
     0
102
RTVSPost2010PropOp34
 70
     0
102
RTVSPost2010Prop35
280
     0
102
RTVSPost2010PropOp35
 70
     0
102
RTVSPost2010Prop36
280
     0
102
RTVSPost2010PropOp36
 70
     0
102
RTVSPost2010Prop37
 90
       50
102
RTVSPost2010PropOp37
 70
     0
102
RTVSPost2010Prop38
140
0.0
102
RTVSPost2010PropOp38
 70
     0
102
RTVSPost2010Prop39
140
1.0
102
RTVSPost2010PropOp39
 70
     0
102
RTVSPost2010Prop40
 90
        0
102
RTVSPost2010PropOp40
 70
     0
102
RTVSPost2010Prop41ColorIndex
 90
       18
102
RTVSPost2010Prop41ColorRGB
 90
        0
102
RTVSPost2010PropOp41
 70
     0
102
RTVSPost2010Prop42
 90
       50
102
RTVSPost2010PropOp42
 70
     0
102
RTVSPost2010Prop43
 90
        3
102
RTVSPost2010PropOp43
 70
     0
102
RTVSPost2010Prop44ColorIndex
 90
        5
102
RTVSPost2010Prop44ColorRGB
 90
      255
102
RTVSPost2010PropOp44
 70
     0
102
RTVSPost2010Prop45
280
     0
102
RTVSPost2010PropOp45
 70
     0
102
RTVSPost2010Prop46
 90
       50
102
RTVSPost2010PropOp46
 70
     0
102
RTVSPost2010Prop47
 90
       50
102
RTVSPost2010PropOp47
 70
     0
102
RTVSPost2010Prop48
 90
       50
102
RTVSPost2010PropOp48
 70
     0
102
RTVSPost2010Prop49
280
     0
102
RTVSPost2010PropOp49
 70
     0
102
RTVSPost2010Prop50
 90
       50
102
RTVSPost2010PropOp50
 70
     0
102
RTVSPost2010Prop51ColorIndex
 90
      256
102
RTVSPost2010Prop51ColorRGB
 90
-16777216
102
RTVSPost2010PropOp51
 70
     0
102
RTVSPost2010Prop52
140
1.0
102
RTVSPost2010PropOp52
 70
     0
102
RTVSPost2010Prop53
 90
        2
102
RTVSPost2010PropOp53
 70
     0
102
RTVSPost2010Prop54
  1
strokes_ogs.tif
102
RTVSPost2010PropOp54
 70
     0
102
RTVSPost2010Prop55
280
     0
102
RTVSPost2010PropOp55
 70
     0
102
RTVSPost2010Prop56
140
1.0
102
RTVSPost2010PropOp56
 70
     0
102
RTVSPost2010Prop57
140
1.0
102
RTVSPost2010PropOp57
 70
     0
  0
XRECORD
  5
1BB
102
{ACAD_REACTORS
330
1BA
102
}
330
1BA
100
AcDbXrecord
280
     1
102
RTVSPropertyOp0
 70
     1
102
RTVSPropertyOp1
 70
     1
102
RTVSPropertyOp2
 70
     1
102
RTVSPropertyOp3
 70
     1
102
RTVSPropertyOp4
 70
     1
102
RTVSPropertyOp5
 70
     1
102
RTVSPropertyOp6
 70
     1
102
RTVSPropertyOp7
 70
     1
102
RTVSPropertyOp8
 70
     1
102
RTVSPropertyOp9
 70
     1
102
RTVSPropertyOp10
 70
     1
102
RTVSPropertyOp11
 70
     1
102
RTVSPropertyOp12
 70
     1
102
RTVSPropertyOp13
 70
     1
102
RTVSPropertyOp14
 70
     1
102
RTVSPropertyOp15
 70
     1
102
RTVSPropertyOp16
 70
     1
102
RTVSPropertyOp17
 70
     1
102
RTVSPropertyOp18
 70
     1
102
RTVSPropertyOp19
 70
     1
102
RTVSPropertyOp20
 70
     1
102
RTVSPropertyOp21
 70
     1
102
RTVSPropertyOp22
 70
     1
102
RTVSPropertyOp23
 70
     1
102
RTVSPropertyOp24
 70
     1
102
RTVSPropertyOp25
 70
     1
102
RTVSPropertyOp26
 70
     1
102
RTVSPropertyOp27
 70
     1
102
RTVSPropertyOp28
 70
     1
102
RTVSPropertyOp29
 70
     1
102
RTVSPropertyOp30
 70
     1
102
RTVSPropertyOp31
 70
     1
102
RTVSPropertyOp32
 70
     1
102
RTVSPropertyOp33
 70
     1
102
RTVSPropertyOp34
 70
     1
102
RTVSPropertyOp35
 70
     1
102
RTVSPropertyOp36
 70
     1
102
RTVSPropertyOp37
 70
     1
102
RTVSPropertyOp38
 70
     1
102
RTVSPropertyOp39
 70
     1
102
RTVSPropertyOp40
 70
     1
102
RTVSPropertyOp41
 70
     1
102
RTVSPropertyOp42
 70
     1
102
RTVSPropertyOp43
 70
     1
102
RTVSPropertyOp44
 70
     1
102
RTVSPropertyOp45
 70
     1
102
RTVSPropertyOp46
 70
     1
102
RTVSPropertyOp47
 70
     1
102
RTVSPropertyOp48
 70
     1
102
RTVSPropertyOp49
 70
     1
102
RTVSPropertyOp50
 70
     1
102
RTVSPropertyOp51
 70
     0
102
RTVSPropertyOp52
 70
     0
102
RTVSPropertyOp53
 70
     1
102
RTVSPropertyOp54
 70
     1
102
RTVSPropertyOp55
 70
     1
102
RTVSPropertyOp56
 70
     1
102
RTVSPropertyOp57
 70
     1
102
RTVSPost2010Prop28
280
     0
102
RTVSPost2010PropOp28
 70
     1
102
RTVSPost2010Prop29
280
     1
102
RTVSPost2010PropOp29
 70
     1
102
RTVSPost2010Prop30
280
     1
102
RTVSPost2010PropOp30
 70
     1
102
RTVSPost2010Prop31
280
     0
102
RTVSPost2010PropOp31
 70
     1
102
RTVSPost2010Prop32
280
     0
102
RTVSPost2010PropOp32
 70
     1
102
RTVSPost2010Prop33
280
     0
102
RTVSPost2010PropOp33
 70
     1
102
RTVSPost2010Prop34
280
     0
102
RTVSPost2010PropOp34
 70
     1
102
RTVSPost2010Prop35
280
     0
102
RTVSPost2010PropOp35
 70
     1
102
RTVSPost2010Prop36
280
     0
102
RTVSPost2010PropOp36
 70
     1
102
RTVSPost2010Prop37
 90
       50
102
RTVSPost2010PropOp37
 70
     1
102
RTVSPost2010Prop38
140
0.0
102
RTVSPost2010PropOp38
 70
     1
102
RTVSPost2010Prop39
140
1.0
102
RTVSPost2010PropOp39
 70
     1
102
RTVSPost2010Prop40
 90
        0
102
RTVSPost2010PropOp40
 70
     1
102
RTVSPost2010Prop41ColorIndex
 90
       18
102
RTVSPost2010Prop41ColorRGB
 90
        0
102
RTVSPost2010PropOp41
 70
     1
102
RTVSPost2010Prop42
 90
       50
102
RTVSPost2010PropOp42
 70
     1
102
RTVSPost2010Prop43
 90
        3
102
RTVSPost2010PropOp43
 70
     1
102
RTVSPost2010Prop44ColorIndex
 90
        5
102
RTVSPost2010Prop44ColorRGB
 90
      255
102
RTVSPost2010PropOp44
 70
     1
102
RTVSPost2010Prop45
280
     0
102
RTVSPost2010PropOp45
 70
     1
102
RTVSPost2010Prop46
 90
       50
102
RTVSPost2010PropOp46
 70
     1
102
RTVSPost2010Prop47
 90
       50
102
RTVSPost2010PropOp47
 70
     1
102
RTVSPost2010Prop48
 90
       50
102
RTVSPost2010PropOp48
 70
     1
102
RTVSPost2010Prop49
280
     0
102
RTVSPost2010PropOp49
 70
     1
102
RTVSPost2010Prop50
 90
       50
102
RTVSPost2010PropOp50
 70
     1
102
RTVSPost2010Prop51ColorIndex
 90
      256
102
RTVSPost2010Prop51ColorRGB
 90
-16777216
102
RTVSPost2010PropOp51
 70
     0
102
RTVSPost2010Prop52
140
1.0
102
RTVSPost2010PropOp52
 70
     0
102
RTVSPost2010Prop53
 90
        2
102
RTVSPost2010PropOp53
 70
     1
102
RTVSPost2010Prop54
  1
strokes_ogs.tif
102
RTVSPost2010PropOp54
 70
     1
102
RTVSPost2010Prop55
280
     0
102
RTVSPost2010PropOp55
 70
     1
102
RTVSPost2010Prop56
140
1.0
102
RTVSPost2010PropOp56
 70
     1
102
RTVSPost2010Prop57
140
1.0
102
RTVSPost2010PropOp57
 70
     1
  0
XRECORD
  5
1D9
102
{ACAD_REACTORS
330
1D8
102
}
330
1D8
100
AcDbXrecord
280
     1
102
RTVSPropertyOp0
 70
     1
102
RTVSPropertyOp1
 70
     1
102
RTVSPropertyOp2
 70
     1
102
RTVSPropertyOp3
 70
     1
102
RTVSPropertyOp4
 70
     1
102
RTVSPropertyOp5
 70
     1
102
RTVSPropertyOp6
 70
     1
102
RTVSPropertyOp7
 70
     1
102
RTVSPropertyOp8
 70
     1
102
RTVSPropertyOp9
 70
     1
102
RTVSPropertyOp10
 70
     1
102
RTVSPropertyOp11
 70
     1
102
RTVSPropertyOp12
 70
     1
102
RTVSPropertyOp13
 70
     1
102
RTVSPropertyOp14
 70
     1
102
RTVSPropertyOp15
 70
     1
102
RTVSPropertyOp16
 70
     1
102
RTVSPropertyOp17
 70
     1
102
RTVSPropertyOp18
 70
     1
102
RTVSPropertyOp19
 70
     1
102
RTVSPropertyOp20
 70
     1
102
RTVSPropertyOp21
 70
     1
102
RTVSPropertyOp22
 70
     1
102
RTVSPropertyOp23
 70
     1
102
RTVSPropertyOp24
 70
     1
102
RTVSPropertyOp25
 70
     1
102
RTVSPropertyOp26
 70
     1
102
RTVSPropertyOp27
 70
     1
102
RTVSPropertyOp28
 70
     1
102
RTVSPropertyOp29
 70
     1
102
RTVSPropertyOp30
 70
     1
102
RTVSPropertyOp31
 70
     1
102
RTVSPropertyOp32
 70
     1
102
RTVSPropertyOp33
 70
     1
102
RTVSPropertyOp34
 70
     1
102
RTVSPropertyOp35
 70
     1
102
RTVSPropertyOp36
 70
     1
102
RTVSPropertyOp37
 70
     1
102
RTVSPropertyOp38
 70
     1
102
RTVSPropertyOp39
 70
     1
102
RTVSPropertyOp40
 70
     1
102
RTVSPropertyOp41
 70
     1
102
RTVSPropertyOp42
 70
     1
102
RTVSPropertyOp43
 70
     1
102
RTVSPropertyOp44
 70
     1
102
RTVSPropertyOp45
 70
     1
102
RTVSPropertyOp46
 70
     1
102
RTVSPropertyOp47
 70
     1
102
RTVSPropertyOp48
 70
     1
102
RTVSPropertyOp49
 70
     1
102
RTVSPropertyOp50
 70
     1
102
RTVSPropertyOp51
 70
     0
102
RTVSPropertyOp52
 70
     0
102
RTVSPropertyOp53
 70
     1
102
RTVSPropertyOp54
 70
     1
102
RTVSPropertyOp55
 70
     1
102
RTVSPropertyOp56
 70
     1
102
RTVSPropertyOp57
 70
     1
102
RTVSPost2010Prop28
280
     0
102
RTVSPost2010PropOp28
 70
     1
102
RTVSPost2010Prop29
280
     1
102
RTVSPost2010PropOp29
 70
     1
102
RTVSPost2010Prop30
280
     1
102
RTVSPost2010PropOp30
 70
     1
102
RTVSPost2010Prop31
280
     0
102
RTVSPost2010PropOp31
 70
     1
102
RTVSPost2010Prop32
280
     0
102
RTVSPost2010PropOp32
 70
     1
102
RTVSPost2010Prop33
280
     0
102
RTVSPost2010PropOp33
 70
     1
102
RTVSPost2010Prop34
280
     0
102
RTVSPost2010PropOp34
 70
     1
102
RTVSPost2010Prop35
280
     0
102
RTVSPost2010PropOp35
 70
     1
102
RTVSPost2010Prop36
280
     0
102
RTVSPost2010PropOp36
 70
     1
102
RTVSPost2010Prop37
 90
       50
102
RTVSPost2010PropOp37
 70
     1
102
RTVSPost2010Prop38
140
0.0
102
RTVSPost2010PropOp38
 70
     1
102
RTVSPost2010Prop39
140
1.0
102
RTVSPost2010PropOp39
 70
     1
102
RTVSPost2010Prop40
 90
        0
102
RTVSPost2010PropOp40
 70
     1
102
RTVSPost2010Prop41ColorIndex
 90
       18
102
RTVSPost2010Prop41ColorRGB
 90
        0
102
RTVSPost2010PropOp41
 70
     1
102
RTVSPost2010Prop42
 90
       50
102
RTVSPost2010PropOp42
 70
     1
102
RTVSPost2010Prop43
 90
        3
102
RTVSPost2010PropOp43
 70
     1
102
RTVSPost2010Prop44ColorIndex
 90
        5
102
RTVSPost2010Prop44ColorRGB
 90
      255
102
RTVSPost2010PropOp44
 70
     1
102
RTVSPost2010Prop45
280
     0
102
RTVSPost2010PropOp45
 70
     1
102
RTVSPost2010Prop46
 90
       50
102
RTVSPost2010PropOp46
 70
     1
102
RTVSPost2010Prop47
 90
       50
102
RTVSPost2010PropOp47
 70
     1
102
RTVSPost2010Prop48
 90
       50
102
RTVSPost2010PropOp48
 70
     1
102
RTVSPost2010Prop49
280
     0
102
RTVSPost2010PropOp49
 70
     1
102
RTVSPost2010Prop50
 90
       50
102
RTVSPost2010PropOp50
 70
     1
102
RTVSPost2010Prop51ColorIndex
 90
      256
102
RTVSPost2010Prop51ColorRGB
 90
-16777216
102
RTVSPost2010PropOp51
 70
     0
102
RTVSPost2010Prop52
140
1.0
102
RTVSPost2010PropOp52
 70
     0
102
RTVSPost2010Prop53
 90
        2
102
RTVSPost2010PropOp53
 70
     1
102
RTVSPost2010Prop54
  1
strokes_ogs.tif
102
RTVSPost2010PropOp54
 70
     1
102
RTVSPost2010Prop55
280
     0
102
RTVSPost2010PropOp55
 70
     1
102
RTVSPost2010Prop56
140
1.0
102
RTVSPost2010PropOp56
 70
     1
102
RTVSPost2010Prop57
140
1.0
102
RTVSPost2010PropOp57
 70
     1
  0
XRECORD
  5
1D7
102
{ACAD_REACTORS
330
1D6
102
}
330
1D6
100
AcDbXrecord
280
     1
102
RTVSPropertyOp0
 70
     1
102
RTVSPropertyOp1
 70
     1
102
RTVSPropertyOp2
 70
     1
102
RTVSPropertyOp3
 70
     1
102
RTVSPropertyOp4
 70
     1
102
RTVSPropertyOp5
 70
     1
102
RTVSPropertyOp6
 70
     1
102
RTVSPropertyOp7
 70
     1
102
RTVSPropertyOp8
 70
     1
102
RTVSPropertyOp9
 70
     1
102
RTVSPropertyOp10
 70
     1
102
RTVSPropertyOp11
 70
     1
102
RTVSPropertyOp12
 70
     1
102
RTVSPropertyOp13
 70
     1
102
RTVSPropertyOp14
 70
     1
102
RTVSPropertyOp15
 70
     1
102
RTVSPropertyOp16
 70
     1
102
RTVSPropertyOp17
 70
     1
102
RTVSPropertyOp18
 70
     1
102
RTVSPropertyOp19
 70
     1
102
RTVSPropertyOp20
 70
     1
102
RTVSPropertyOp21
 70
     1
102
RTVSPropertyOp22
 70
     1
102
RTVSPropertyOp23
 70
     1
102
RTVSPropertyOp24
 70
     1
102
RTVSPropertyOp25
 70
     1
102
RTVSPropertyOp26
 70
     1
102
RTVSPropertyOp27
 70
     1
102
RTVSPropertyOp28
 70
     1
102
RTVSPropertyOp29
 70
     1
102
RTVSPropertyOp30
 70
     1
102
RTVSPropertyOp31
 70
     1
102
RTVSPropertyOp32
 70
     1
102
RTVSPropertyOp33
 70
     1
102
RTVSPropertyOp34
 70
     1
102
RTVSPropertyOp35
 70
     1
102
RTVSPropertyOp36
 70
     1
102
RTVSPropertyOp37
 70
     1
102
RTVSPropertyOp38
 70
     1
102
RTVSPropertyOp39
 70
     1
102
RTVSPropertyOp40
 70
     1
102
RTVSPropertyOp41
 70
     1
102
RTVSPropertyOp42
 70
     1
102
RTVSPropertyOp43
 70
     1
102
RTVSPropertyOp44
 70
     1
102
RTVSPropertyOp45
 70
     1
102
RTVSPropertyOp46
 70
     1
102
RTVSPropertyOp47
 70
     1
102
RTVSPropertyOp48
 70
     1
102
RTVSPropertyOp49
 70
     1
102
RTVSPropertyOp50
 70
     1
102
RTVSPropertyOp51
 70
     0
102
RTVSPropertyOp52
 70
     0
102
RTVSPropertyOp53
 70
     1
102
RTVSPropertyOp54
 70
     1
102
RTVSPropertyOp55
 70
     1
102
RTVSPropertyOp56
 70
     1
102
RTVSPropertyOp57
 70
     1
102
RTVSPost2010Prop28
280
     0
102
RTVSPost2010PropOp28
 70
     1
102
RTVSPost2010Prop29
280
     1
102
RTVSPost2010PropOp29
 70
     1
102
RTVSPost2010Prop30
280
     1
102
RTVSPost2010PropOp30
 70
     1
102
RTVSPost2010Prop31
280
     0
102
RTVSPost2010PropOp31
 70
     1
102
RTVSPost2010Prop32
280
     0
102
RTVSPost2010PropOp32
 70
     1
102
RTVSPost2010Prop33
280
     0
102
RTVSPost2010PropOp33
 70
     1
102
RTVSPost2010Prop34
280
     0
102
RTVSPost2010PropOp34
 70
     1
102
RTVSPost2010Prop35
280
     0
102
RTVSPost2010PropOp35
 70
     1
102
RTVSPost2010Prop36
280
     0
102
RTVSPost2010PropOp36
 70
     1
102
RTVSPost2010Prop37
 90
       50
102
RTVSPost2010PropOp37
 70
     1
102
RTVSPost2010Prop38
140
0.0
102
RTVSPost2010PropOp38
 70
     1
102
RTVSPost2010Prop39
140
1.0
102
RTVSPost2010PropOp39
 70
     1
102
RTVSPost2010Prop40
 90
        0
102
RTVSPost2010PropOp40
 70
     1
102
RTVSPost2010Prop41ColorIndex
 90
       18
102
RTVSPost2010Prop41ColorRGB
 90
        0
102
RTVSPost2010PropOp41
 70
     1
102
RTVSPost2010Prop42
 90
       50
102
RTVSPost2010PropOp42
 70
     1
102
RTVSPost2010Prop43
 90
        3
102
RTVSPost2010PropOp43
 70
     1
102
RTVSPost2010Prop44ColorIndex
 90
        5
102
RTVSPost2010Prop44ColorRGB
 90
      255
102
RTVSPost2010PropOp44
 70
     1
102
RTVSPost2010Prop45
280
     0
102
RTVSPost2010PropOp45
 70
     1
102
RTVSPost2010Prop46
 90
       50
102
RTVSPost2010PropOp46
 70
     1
102
RTVSPost2010Prop47
 90
       50
102
RTVSPost2010PropOp47
 70
     1
102
RTVSPost2010Prop48
 90
       50
102
RTVSPost2010PropOp48
 70
     1
102
RTVSPost2010Prop49
280
     0
102
RTVSPost2010PropOp49
 70
     1
102
RTVSPost2010Prop50
 90
       50
102
RTVSPost2010PropOp50
 70
     1
102
RTVSPost2010Prop51ColorIndex
 90
      256
102
RTVSPost2010Prop51ColorRGB
 90
-16777216
102
RTVSPost2010PropOp51
 70
     0
102
RTVSPost2010Prop52
140
1.0
102
RTVSPost2010PropOp52
 70
     0
102
RTVSPost2010Prop53
 90
        2
102
RTVSPost2010PropOp53
 70
     1
102
RTVSPost2010Prop54
  1
strokes_ogs.tif
102
RTVSPost2010PropOp54
 70
     1
102
RTVSPost2010Prop55
280
     0
102
RTVSPost2010PropOp55
 70
     1
102
RTVSPost2010Prop56
140
1.0
102
RTVSPost2010PropOp56
 70
     1
102
RTVSPost2010Prop57
140
1.0
102
RTVSPost2010PropOp57
 70
     1
  0
XRECORD
  5
1D1
102
{ACAD_REACTORS
330
1D0
102
}
330
1D0
100
AcDbXrecord
280
     1
102
RTVSPropertyOp0
 70
     1
102
RTVSPropertyOp1
 70
     1
102
RTVSPropertyOp2
 70
     1
102
RTVSPropertyOp3
 70
     1
102
RTVSPropertyOp4
 70
     1
102
RTVSPropertyOp5
 70
     1
102
RTVSPropertyOp6
 70
     1
102
RTVSPropertyOp7
 70
     1
102
RTVSPropertyOp8
 70
     1
102
RTVSPropertyOp9
 70
     1
102
RTVSPropertyOp10
 70
     1
102
RTVSPropertyOp11
 70
     1
102
RTVSPropertyOp12
 70
     1
102
RTVSPropertyOp13
 70
     1
102
RTVSPropertyOp14
 70
     1
102
RTVSPropertyOp15
 70
     1
102
RTVSPropertyOp16
 70
     1
102
RTVSPropertyOp17
 70
     1
102
RTVSPropertyOp18
 70
     1
102
RTVSPropertyOp19
 70
     1
102
RTVSPropertyOp20
 70
     1
102
RTVSPropertyOp21
 70
     1
102
RTVSPropertyOp22
 70
     1
102
RTVSPropertyOp23
 70
     1
102
RTVSPropertyOp24
 70
     1
102
RTVSPropertyOp25
 70
     1
102
RTVSPropertyOp26
 70
     1
102
RTVSPropertyOp27
 70
     1
102
RTVSPropertyOp28
 70
     1
102
RTVSPropertyOp29
 70
     1
102
RTVSPropertyOp30
 70
     1
102
RTVSPropertyOp31
 70
     1
102
RTVSPropertyOp32
 70
     1
102
RTVSPropertyOp33
 70
     1
102
RTVSPropertyOp34
 70
     1
102
RTVSPropertyOp35
 70
     1
102
RTVSPropertyOp36
 70
     1
102
RTVSPropertyOp37
 70
     1
102
RTVSPropertyOp38
 70
     1
102
RTVSPropertyOp39
 70
     1
102
RTVSPropertyOp40
 70
     1
102
RTVSPropertyOp41
 70
     1
102
RTVSPropertyOp42
 70
     1
102
RTVSPropertyOp43
 70
     1
102
RTVSPropertyOp44
 70
     1
102
RTVSPropertyOp45
 70
     1
102
RTVSPropertyOp46
 70
     1
102
RTVSPropertyOp47
 70
     1
102
RTVSPropertyOp48
 70
     1
102
RTVSPropertyOp49
 70
     1
102
RTVSPropertyOp50
 70
     1
102
RTVSPropertyOp51
 70
     0
102
RTVSPropertyOp52
 70
     0
102
RTVSPropertyOp53
 70
     1
102
RTVSPropertyOp54
 70
     1
102
RTVSPropertyOp55
 70
     1
102
RTVSPropertyOp56
 70
     1
102
RTVSPropertyOp57
 70
     1
102
RTVSPost2010Prop28
280
     0
102
RTVSPost2010PropOp28
 70
     1
102
RTVSPost2010Prop29
280
     1
102
RTVSPost2010PropOp29
 70
     1
102
RTVSPost2010Prop30
280
     1
102
RTVSPost2010PropOp30
 70
     1
102
RTVSPost2010Prop31
280
     0
102
RTVSPost2010PropOp31
 70
     1
102
RTVSPost2010Prop32
280
     0
102
RTVSPost2010PropOp32
 70
     1
102
RTVSPost2010Prop33
280
     0
102
RTVSPost2010PropOp33
 70
     1
102
RTVSPost2010Prop34
280
     0
102
RTVSPost2010PropOp34
 70
     1
102
RTVSPost2010Prop35
280
     0
102
RTVSPost2010PropOp35
 70
     1
102
RTVSPost2010Prop36
280
     0
102
RTVSPost2010PropOp36
 70
     1
102
RTVSPost2010Prop37
 90
       50
102
RTVSPost2010PropOp37
 70
     1
102
RTVSPost2010Prop38
140
0.0
102
RTVSPost2010PropOp38
 70
     1
102
RTVSPost2010Prop39
140
1.0
102
RTVSPost2010PropOp39
 70
     1
102
RTVSPost2010Prop40
 90
        0
102
RTVSPost2010PropOp40
 70
     1
102
RTVSPost2010Prop41ColorIndex
 90
       18
102
RTVSPost2010Prop41ColorRGB
 90
        0
102
RTVSPost2010PropOp41
 70
     1
102
RTVSPost2010Prop42
 90
       50
102
RTVSPost2010PropOp42
 70
     1
102
RTVSPost2010Prop43
 90
        3
102
RTVSPost2010PropOp43
 70
     1
102
RTVSPost2010Prop44ColorIndex
 90
        5
102
RTVSPost2010Prop44ColorRGB
 90
      255
102
RTVSPost2010PropOp44
 70
     1
102
RTVSPost2010Prop45
280
     0
102
RTVSPost2010PropOp45
 70
     1
102
RTVSPost2010Prop46
 90
       50
102
RTVSPost2010PropOp46
 70
     1
102
RTVSPost2010Prop47
 90
       50
102
RTVSPost2010PropOp47
 70
     1
102
RTVSPost2010Prop48
 90
       50
102
RTVSPost2010PropOp48
 70
     1
102
RTVSPost2010Prop49
280
     0
102
RTVSPost2010PropOp49
 70
     1
102
RTVSPost2010Prop50
 90
       50
102
RTVSPost2010PropOp50
 70
     1
102
RTVSPost2010Prop51ColorIndex
 90
      256
102
RTVSPost2010Prop51ColorRGB
 90
-16777216
102
RTVSPost2010PropOp51
 70
     0
102
RTVSPost2010Prop52
140
1.0
102
RTVSPost2010PropOp52
 70
     0
102
RTVSPost2010Prop53
 90
        2
102
RTVSPost2010PropOp53
 70
     1
102
RTVSPost2010Prop54
  1
strokes_ogs.tif
102
RTVSPost2010PropOp54
 70
     1
102
RTVSPost2010Prop55
280
     0
102
RTVSPost2010PropOp55
 70
     1
102
RTVSPost2010Prop56
140
1.0
102
RTVSPost2010PropOp56
 70
     1
102
RTVSPost2010Prop57
140
1.0
102
RTVSPost2010PropOp57
 70
     1
  0
XRECORD
  5
1D3
102
{ACAD_REACTORS
330
1D2
102
}
330
1D2
100
AcDbXrecord
280
     1
102
RTVSPropertyOp0
 70
     1
102
RTVSPropertyOp1
 70
     1
102
RTVSPropertyOp2
 70
     1
102
RTVSPropertyOp3
 70
     1
102
RTVSPropertyOp4
 70
     1
102
RTVSPropertyOp5
 70
     1
102
RTVSPropertyOp6
 70
     1
102
RTVSPropertyOp7
 70
     1
102
RTVSPropertyOp8
 70
     1
102
RTVSPropertyOp9
 70
     1
102
RTVSPropertyOp10
 70
     1
102
RTVSPropertyOp11
 70
     1
102
RTVSPropertyOp12
 70
     1
102
RTVSPropertyOp13
 70
     1
102
RTVSPropertyOp14
 70
     1
102
RTVSPropertyOp15
 70
     1
102
RTVSPropertyOp16
 70
     1
102
RTVSPropertyOp17
 70
     1
102
RTVSPropertyOp18
 70
     1
102
RTVSPropertyOp19
 70
     1
102
RTVSPropertyOp20
 70
     1
102
RTVSPropertyOp21
 70
     1
102
RTVSPropertyOp22
 70
     1
102
RTVSPropertyOp23
 70
     1
102
RTVSPropertyOp24
 70
     1
102
RTVSPropertyOp25
 70
     1
102
RTVSPropertyOp26
 70
     1
102
RTVSPropertyOp27
 70
     1
102
RTVSPropertyOp28
 70
     1
102
RTVSPropertyOp29
 70
     1
102
RTVSPropertyOp30
 70
     1
102
RTVSPropertyOp31
 70
     1
102
RTVSPropertyOp32
 70
     1
102
RTVSPropertyOp33
 70
     1
102
RTVSPropertyOp34
 70
     1
102
RTVSPropertyOp35
 70
     1
102
RTVSPropertyOp36
 70
     1
102
RTVSPropertyOp37
 70
     1
102
RTVSPropertyOp38
 70
     1
102
RTVSPropertyOp39
 70
     1
102
RTVSPropertyOp40
 70
     1
102
RTVSPropertyOp41
 70
     1
102
RTVSPropertyOp42
 70
     1
102
RTVSPropertyOp43
 70
     1
102
RTVSPropertyOp44
 70
     1
102
RTVSPropertyOp45
 70
     1
102
RTVSPropertyOp46
 70
     1
102
RTVSPropertyOp47
 70
     1
102
RTVSPropertyOp48
 70
     1
102
RTVSPropertyOp49
 70
     1
102
RTVSPropertyOp50
 70
     1
102
RTVSPropertyOp51
 70
     0
102
RTVSPropertyOp52
 70
     0
102
RTVSPropertyOp53
 70
     1
102
RTVSPropertyOp54
 70
     1
102
RTVSPropertyOp55
 70
     1
102
RTVSPropertyOp56
 70
     1
102
RTVSPropertyOp57
 70
     1
102
RTVSPost2010Prop28
280
     0
102
RTVSPost2010PropOp28
 70
     1
102
RTVSPost2010Prop29
280
     1
102
RTVSPost2010PropOp29
 70
     1
102
RTVSPost2010Prop30
280
     1
102
RTVSPost2010PropOp30
 70
     1
102
RTVSPost2010Prop31
280
     0
102
RTVSPost2010PropOp31
 70
     1
102
RTVSPost2010Prop32
280
     0
102
RTVSPost2010PropOp32
 70
     1
102
RTVSPost2010Prop33
280
     0
102
RTVSPost2010PropOp33
 70
     1
102
RTVSPost2010Prop34
280
     0
102
RTVSPost2010PropOp34
 70
     1
102
RTVSPost2010Prop35
280
     0
102
RTVSPost2010PropOp35
 70
     1
102
RTVSPost2010Prop36
280
     0
102
RTVSPost2010PropOp36
 70
     1
102
RTVSPost2010Prop37
 90
       50
102
RTVSPost2010PropOp37
 70
     1
102
RTVSPost2010Prop38
140
0.0
102
RTVSPost2010PropOp38
 70
     1
102
RTVSPost2010Prop39
140
1.0
102
RTVSPost2010PropOp39
 70
     1
102
RTVSPost2010Prop40
 90
        0
102
RTVSPost2010PropOp40
 70
     1
102
RTVSPost2010Prop41ColorIndex
 90
       18
102
RTVSPost2010Prop41ColorRGB
 90
        0
102
RTVSPost2010PropOp41
 70
     1
102
RTVSPost2010Prop42
 90
       50
102
RTVSPost2010PropOp42
 70
     1
102
RTVSPost2010Prop43
 90
        3
102
RTVSPost2010PropOp43
 70
     1
102
RTVSPost2010Prop44ColorIndex
 90
        5
102
RTVSPost2010Prop44ColorRGB
 90
      255
102
RTVSPost2010PropOp44
 70
     1
102
RTVSPost2010Prop45
280
     0
102
RTVSPost2010PropOp45
 70
     1
102
RTVSPost2010Prop46
 90
       50
102
RTVSPost2010PropOp46
 70
     1
102
RTVSPost2010Prop47
 90
       50
102
RTVSPost2010PropOp47
 70
     1
102
RTVSPost2010Prop48
 90
       50
102
RTVSPost2010PropOp48
 70
     1
102
RTVSPost2010Prop49
280
     0
102
RTVSPost2010PropOp49
 70
     1
102
RTVSPost2010Prop50
 90
       50
102
RTVSPost2010PropOp50
 70
     1
102
RTVSPost2010Prop51ColorIndex
 90
      256
102
RTVSPost2010Prop51ColorRGB
 90
-16777216
102
RTVSPost2010PropOp51
 70
     0
102
RTVSPost2010Prop52
140
1.0
102
RTVSPost2010PropOp52
 70
     0
102
RTVSPost2010Prop53
 90
        2
102
RTVSPost2010PropOp53
 70
     1
102
RTVSPost2010Prop54
  1
strokes_ogs.tif
102
RTVSPost2010PropOp54
 70
     1
102
RTVSPost2010Prop55
280
     0
102
RTVSPost2010PropOp55
 70
     1
102
RTVSPost2010Prop56
140
1.0
102
RTVSPost2010PropOp56
 70
     1
102
RTVSPost2010Prop57
140
1.0
102
RTVSPost2010PropOp57
 70
     1
  0
XRECORD
  5
1C3
102
{ACAD_REACTORS
330
1C2
102
}
330
1C2
100
AcDbXrecord
280
     1
102
RTVSPropertyOp0
 70
     1
102
RTVSPropertyOp1
 70
     1
102
RTVSPropertyOp2
 70
     1
102
RTVSPropertyOp3
 70
     1
102
RTVSPropertyOp4
 70
     1
102
RTVSPropertyOp5
 70
     1
102
RTVSPropertyOp6
 70
     1
102
RTVSPropertyOp7
 70
     1
102
RTVSPropertyOp8
 70
     1
102
RTVSPropertyOp9
 70
     1
102
RTVSPropertyOp10
 70
     1
102
RTVSPropertyOp11
 70
     1
102
RTVSPropertyOp12
 70
     1
102
RTVSPropertyOp13
 70
     1
102
RTVSPropertyOp14
 70
     1
102
RTVSPropertyOp15
 70
     1
102
RTVSPropertyOp16
 70
     1
102
RTVSPropertyOp17
 70
     1
102
RTVSPropertyOp18
 70
     1
102
RTVSPropertyOp19
 70
     1
102
RTVSPropertyOp20
 70
     1
102
RTVSPropertyOp21
 70
     1
102
RTVSPropertyOp22
 70
     1
102
RTVSPropertyOp23
 70
     1
102
RTVSPropertyOp24
 70
     1
102
RTVSPropertyOp25
 70
     1
102
RTVSPropertyOp26
 70
     1
102
RTVSPropertyOp27
 70
     1
102
RTVSPropertyOp28
 70
     1
102
RTVSPropertyOp29
 70
     1
102
RTVSPropertyOp30
 70
     1
102
RTVSPropertyOp31
 70
     1
102
RTVSPropertyOp32
 70
     1
102
RTVSPropertyOp33
 70
     1
102
RTVSPropertyOp34
 70
     1
102
RTVSPropertyOp35
 70
     1
102
RTVSPropertyOp36
 70
     1
102
RTVSPropertyOp37
 70
     1
102
RTVSPropertyOp38
 70
     1
102
RTVSPropertyOp39
 70
     1
102
RTVSPropertyOp40
 70
     1
102
RTVSPropertyOp41
 70
     1
102
RTVSPropertyOp42
 70
     1
102
RTVSPropertyOp43
 70
     1
102
RTVSPropertyOp44
 70
     1
102
RTVSPropertyOp45
 70
     1
102
RTVSPropertyOp46
 70
     1
102
RTVSPropertyOp47
 70
     1
102
RTVSPropertyOp48
 70
     1
102
RTVSPropertyOp49
 70
     1
102
RTVSPropertyOp50
 70
     1
102
RTVSPropertyOp51
 70
     0
102
RTVSPropertyOp52
 70
     0
102
RTVSPropertyOp53
 70
     1
102
RTVSPropertyOp54
 70
     1
102
RTVSPropertyOp55
 70
     1
102
RTVSPropertyOp56
 70
     1
102
RTVSPropertyOp57
 70
     1
102
RTVSPost2010Prop28
280
     0
102
RTVSPost2010PropOp28
 70
     1
102
RTVSPost2010Prop29
280
     1
102
RTVSPost2010PropOp29
 70
     1
102
RTVSPost2010Prop30
280
     1
102
RTVSPost2010PropOp30
 70
     1
102
RTVSPost2010Prop31
280
     0
102
RTVSPost2010PropOp31
 70
     1
102
RTVSPost2010Prop32
280
     0
102
RTVSPost2010PropOp32
 70
     1
102
RTVSPost2010Prop33
280
     0
102
RTVSPost2010PropOp33
 70
     1
102
RTVSPost2010Prop34
280
     0
102
RTVSPost2010PropOp34
 70
     1
102
RTVSPost2010Prop35
280
     0
102
RTVSPost2010PropOp35
 70
     1
102
RTVSPost2010Prop36
280
     0
102
RTVSPost2010PropOp36
 70
     1
102
RTVSPost2010Prop37
 90
       50
102
RTVSPost2010PropOp37
 70
     1
102
RTVSPost2010Prop38
140
0.0
102
RTVSPost2010PropOp38
 70
     1
102
RTVSPost2010Prop39
140
1.0
102
RTVSPost2010PropOp39
 70
     1
102
RTVSPost2010Prop40
 90
        0
102
RTVSPost2010PropOp40
 70
     1
102
RTVSPost2010Prop41ColorIndex
 90
       18
102
RTVSPost2010Prop41ColorRGB
 90
        0
102
RTVSPost2010PropOp41
 70
     1
102
RTVSPost2010Prop42
 90
       50
102
RTVSPost2010PropOp42
 70
     1
102
RTVSPost2010Prop43
 90
        3
102
RTVSPost2010PropOp43
 70
     1
102
RTVSPost2010Prop44ColorIndex
 90
        5
102
RTVSPost2010Prop44ColorRGB
 90
      255
102
RTVSPost2010PropOp44
 70
     1
102
RTVSPost2010Prop45
280
     0
102
RTVSPost2010PropOp45
 70
     1
102
RTVSPost2010Prop46
 90
       50
102
RTVSPost2010PropOp46
 70
     1
102
RTVSPost2010Prop47
 90
       50
102
RTVSPost2010PropOp47
 70
     1
102
RTVSPost2010Prop48
 90
       50
102
RTVSPost2010PropOp48
 70
     1
102
RTVSPost2010Prop49
280
     0
102
RTVSPost2010PropOp49
 70
     1
102
RTVSPost2010Prop50
 90
       50
102
RTVSPost2010PropOp50
 70
     1
102
RTVSPost2010Prop51ColorIndex
 90
      256
102
RTVSPost2010Prop51ColorRGB
 90
-16777216
102
RTVSPost2010PropOp51
 70
     0
102
RTVSPost2010Prop52
140
1.0
102
RTVSPost2010PropOp52
 70
     0
102
RTVSPost2010Prop53
 90
        2
102
RTVSPost2010PropOp53
 70
     1
102
RTVSPost2010Prop54
  1
strokes_ogs.tif
102
RTVSPost2010PropOp54
 70
     1
102
RTVSPost2010Prop55
280
     0
102
RTVSPost2010PropOp55
 70
     1
102
RTVSPost2010Prop56
140
1.0
102
RTVSPost2010PropOp56
 70
     1
102
RTVSPost2010Prop57
140
1.0
102
RTVSPost2010PropOp57
 70
     1
  0
XRECORD
  5
1B5
102
{ACAD_REACTORS
330
1B4
102
}
330
1B4
100
AcDbXrecord
280
     1
102
RTVSPropertyOp0
 70
     1
102
RTVSPropertyOp1
 70
     1
102
RTVSPropertyOp2
 70
     1
102
RTVSPropertyOp3
 70
     1
102
RTVSPropertyOp4
 70
     1
102
RTVSPropertyOp5
 70
     1
102
RTVSPropertyOp6
 70
     1
102
RTVSPropertyOp7
 70
     1
102
RTVSPropertyOp8
 70
     1
102
RTVSPropertyOp9
 70
     1
102
RTVSPropertyOp10
 70
     1
102
RTVSPropertyOp11
 70
     1
102
RTVSPropertyOp12
 70
     1
102
RTVSPropertyOp13
 70
     1
102
RTVSPropertyOp14
 70
     1
102
RTVSPropertyOp15
 70
     1
102
RTVSPropertyOp16
 70
     1
102
RTVSPropertyOp17
 70
     1
102
RTVSPropertyOp18
 70
     1
102
RTVSPropertyOp19
 70
     1
102
RTVSPropertyOp20
 70
     1
102
RTVSPropertyOp21
 70
     1
102
RTVSPropertyOp22
 70
     1
102
RTVSPropertyOp23
 70
     1
102
RTVSPropertyOp24
 70
     1
102
RTVSPropertyOp25
 70
     1
102
RTVSPropertyOp26
 70
     1
102
RTVSPropertyOp27
 70
     1
102
RTVSPropertyOp28
 70
     1
102
RTVSPropertyOp29
 70
     1
102
RTVSPropertyOp30
 70
     1
102
RTVSPropertyOp31
 70
     1
102
RTVSPropertyOp32
 70
     1
102
RTVSPropertyOp33
 70
     1
102
RTVSPropertyOp34
 70
     1
102
RTVSPropertyOp35
 70
     1
102
RTVSPropertyOp36
 70
     1
102
RTVSPropertyOp37
 70
     1
102
RTVSPropertyOp38
 70
     1
102
RTVSPropertyOp39
 70
     1
102
RTVSPropertyOp40
 70
     1
102
RTVSPropertyOp41
 70
     1
102
RTVSPropertyOp42
 70
     1
102
RTVSPropertyOp43
 70
     1
102
RTVSPropertyOp44
 70
     1
102
RTVSPropertyOp45
 70
     1
102
RTVSPropertyOp46
 70
     1
102
RTVSPropertyOp47
 70
     1
102
RTVSPropertyOp48
 70
     1
102
RTVSPropertyOp49
 70
     1
102
RTVSPropertyOp50
 70
     1
102
RTVSPropertyOp51
 70
     0
102
RTVSPropertyOp52
 70
     0
102
RTVSPropertyOp53
 70
     1
102
RTVSPropertyOp54
 70
     1
102
RTVSPropertyOp55
 70
     1
102
RTVSPropertyOp56
 70
     1
102
RTVSPropertyOp57
 70
     1
102
RTVSPost2010Prop28
280
     0
102
RTVSPost2010PropOp28
 70
     1
102
RTVSPost2010Prop29
280
     1
102
RTVSPost2010PropOp29
 70
     1
102
RTVSPost2010Prop30
280
     1
102
RTVSPost2010PropOp30
 70
     1
102
RTVSPost2010Prop31
280
     0
102
RTVSPost2010PropOp31
 70
     1
102
RTVSPost2010Prop32
280
     0
102
RTVSPost2010PropOp32
 70
     1
102
RTVSPost2010Prop33
280
     0
102
RTVSPost2010PropOp33
 70
     1
102
RTVSPost2010Prop34
280
     0
102
RTVSPost2010PropOp34
 70
     1
102
RTVSPost2010Prop35
280
     0
102
RTVSPost2010PropOp35
 70
     1
102
RTVSPost2010Prop36
280
     0
102
RTVSPost2010PropOp36
 70
     1
102
RTVSPost2010Prop37
 90
       50
102
RTVSPost2010PropOp37
 70
     1
102
RTVSPost2010Prop38
140
0.0
102
RTVSPost2010PropOp38
 70
     1
102
RTVSPost2010Prop39
140
1.0
102
RTVSPost2010PropOp39
 70
     1
102
RTVSPost2010Prop40
 90
        0
102
RTVSPost2010PropOp40
 70
     1
102
RTVSPost2010Prop41ColorIndex
 90
       18
102
RTVSPost2010Prop41ColorRGB
 90
        0
102
RTVSPost2010PropOp41
 70
     1
102
RTVSPost2010Prop42
 90
       50
102
RTVSPost2010PropOp42
 70
     1
102
RTVSPost2010Prop43
 90
        3
102
RTVSPost2010PropOp43
 70
     1
102
RTVSPost2010Prop44ColorIndex
 90
        5
102
RTVSPost2010Prop44ColorRGB
 90
      255
102
RTVSPost2010PropOp44
 70
     1
102
RTVSPost2010Prop45
280
     0
102
RTVSPost2010PropOp45
 70
     1
102
RTVSPost2010Prop46
 90
       50
102
RTVSPost2010PropOp46
 70
     1
102
RTVSPost2010Prop47
 90
       50
102
RTVSPost2010PropOp47
 70
     1
102
RTVSPost2010Prop48
 90
       50
102
RTVSPost2010PropOp48
 70
     1
102
RTVSPost2010Prop49
280
     0
102
RTVSPost2010PropOp49
 70
     1
102
RTVSPost2010Prop50
 90
       50
102
RTVSPost2010PropOp50
 70
     1
102
RTVSPost2010Prop51ColorIndex
 90
      256
102
RTVSPost2010Prop51ColorRGB
 90
-16777216
102
RTVSPost2010PropOp51
 70
     0
102
RTVSPost2010Prop52
140
1.0
102
RTVSPost2010PropOp52
 70
     0
102
RTVSPost2010Prop53
 90
        2
102
RTVSPost2010PropOp53
 70
     1
102
RTVSPost2010Prop54
  1
strokes_ogs.tif
102
RTVSPost2010PropOp54
 70
     1
102
RTVSPost2010Prop55
280
     0
102
RTVSPost2010PropOp55
 70
     1
102
RTVSPost2010Prop56
140
1.0
102
RTVSPost2010PropOp56
 70
     1
102
RTVSPost2010Prop57
140
1.0
102
RTVSPost2010PropOp57
 70
     1
  0
XRECORD
  5
1D5
102
{ACAD_REACTORS
330
1D4
102
}
330
1D4
100
AcDbXrecord
280
     1
102
RTVSPropertyOp0
 70
     1
102
RTVSPropertyOp1
 70
     1
102
RTVSPropertyOp2
 70
     1
102
RTVSPropertyOp3
 70
     1
102
RTVSPropertyOp4
 70
     1
102
RTVSPropertyOp5
 70
     1
102
RTVSPropertyOp6
 70
     1
102
RTVSPropertyOp7
 70
     1
102
RTVSPropertyOp8
 70
     1
102
RTVSPropertyOp9
 70
     1
102
RTVSPropertyOp10
 70
     1
102
RTVSPropertyOp11
 70
     1
102
RTVSPropertyOp12
 70
     1
102
RTVSPropertyOp13
 70
     1
102
RTVSPropertyOp14
 70
     1
102
RTVSPropertyOp15
 70
     1
102
RTVSPropertyOp16
 70
     1
102
RTVSPropertyOp17
 70
     1
102
RTVSPropertyOp18
 70
     1
102
RTVSPropertyOp19
 70
     1
102
RTVSPropertyOp20
 70
     1
102
RTVSPropertyOp21
 70
     1
102
RTVSPropertyOp22
 70
     1
102
RTVSPropertyOp23
 70
     1
102
RTVSPropertyOp24
 70
     1
102
RTVSPropertyOp25
 70
     1
102
RTVSPropertyOp26
 70
     1
102
RTVSPropertyOp27
 70
     1
102
RTVSPropertyOp28
 70
     1
102
RTVSPropertyOp29
 70
     1
102
RTVSPropertyOp30
 70
     1
102
RTVSPropertyOp31
 70
     1
102
RTVSPropertyOp32
 70
     1
102
RTVSPropertyOp33
 70
     1
102
RTVSPropertyOp34
 70
     1
102
RTVSPropertyOp35
 70
     1
102
RTVSPropertyOp36
 70
     1
102
RTVSPropertyOp37
 70
     1
102
RTVSPropertyOp38
 70
     1
102
RTVSPropertyOp39
 70
     1
102
RTVSPropertyOp40
 70
     1
102
RTVSPropertyOp41
 70
     1
102
RTVSPropertyOp42
 70
     1
102
RTVSPropertyOp43
 70
     1
102
RTVSPropertyOp44
 70
     1
102
RTVSPropertyOp45
 70
     1
102
RTVSPropertyOp46
 70
     1
102
RTVSPropertyOp47
 70
     1
102
RTVSPropertyOp48
 70
     1
102
RTVSPropertyOp49
 70
     1
102
RTVSPropertyOp50
 70
     1
102
RTVSPropertyOp51
 70
     0
102
RTVSPropertyOp52
 70
     0
102
RTVSPropertyOp53
 70
     1
102
RTVSPropertyOp54
 70
     1
102
RTVSPropertyOp55
 70
     1
102
RTVSPropertyOp56
 70
     1
102
RTVSPropertyOp57
 70
     1
102
RTVSPost2010Prop28
280
     0
102
RTVSPost2010PropOp28
 70
     1
102
RTVSPost2010Prop29
280
     1
102
RTVSPost2010PropOp29
 70
     1
102
RTVSPost2010Prop30
280
     1
102
RTVSPost2010PropOp30
 70
     1
102
RTVSPost2010Prop31
280
     0
102
RTVSPost2010PropOp31
 70
     1
102
RTVSPost2010Prop32
280
     0
102
RTVSPost2010PropOp32
 70
     1
102
RTVSPost2010Prop33
280
     0
102
RTVSPost2010PropOp33
 70
     1
102
RTVSPost2010Prop34
280
     0
102
RTVSPost2010PropOp34
 70
     1
102
RTVSPost2010Prop35
280
     0
102
RTVSPost2010PropOp35
 70
     1
102
RTVSPost2010Prop36
280
     0
102
RTVSPost2010PropOp36
 70
     1
102
RTVSPost2010Prop37
 90
       50
102
RTVSPost2010PropOp37
 70
     1
102
RTVSPost2010Prop38
140
0.0
102
RTVSPost2010PropOp38
 70
     1
102
RTVSPost2010Prop39
140
1.0
102
RTVSPost2010PropOp39
 70
     1
102
RTVSPost2010Prop40
 90
        0
102
RTVSPost2010PropOp40
 70
     1
102
RTVSPost2010Prop41ColorIndex
 90
       18
102
RTVSPost2010Prop41ColorRGB
 90
        0
102
RTVSPost2010PropOp41
 70
     1
102
RTVSPost2010Prop42
 90
       50
102
RTVSPost2010PropOp42
 70
     1
102
RTVSPost2010Prop43
 90
        3
102
RTVSPost2010PropOp43
 70
     1
102
RTVSPost2010Prop44ColorIndex
 90
        5
102
RTVSPost2010Prop44ColorRGB
 90
      255
102
RTVSPost2010PropOp44
 70
     1
102
RTVSPost2010Prop45
280
     0
102
RTVSPost2010PropOp45
 70
     1
102
RTVSPost2010Prop46
 90
       50
102
RTVSPost2010PropOp46
 70
     1
102
RTVSPost2010Prop47
 90
       50
102
RTVSPost2010PropOp47
 70
     1
102
RTVSPost2010Prop48
 90
       50
102
RTVSPost2010PropOp48
 70
     1
102
RTVSPost2010Prop49
280
     0
102
RTVSPost2010PropOp49
 70
     1
102
RTVSPost2010Prop50
 90
       50
102
RTVSPost2010PropOp50
 70
     1
102
RTVSPost2010Prop51ColorIndex
 90
      256
102
RTVSPost2010Prop51ColorRGB
 90
-16777216
102
RTVSPost2010PropOp51
 70
     0
102
RTVSPost2010Prop52
140
1.0
102
RTVSPost2010PropOp52
 70
     0
102
RTVSPost2010Prop53
 90
        2
102
RTVSPost2010PropOp53
 70
     1
102
RTVSPost2010Prop54
  1
strokes_ogs.tif
102
RTVSPost2010PropOp54
 70
     1
102
RTVSPost2010Prop55
280
     0
102
RTVSPost2010PropOp55
 70
     1
102
RTVSPost2010Prop56
140
1.0
102
RTVSPost2010PropOp56
 70
     1
102
RTVSPost2010Prop57
140
1.0
102
RTVSPost2010PropOp57
 70
     1
  0
ENDSEC
  0
EOF
