  0
SECTION
  2
HEADER
  9
$ACADVER
  1
AC1009
999
I-DEAS 9 Not Encoded
  9
$EXTMIN
 10
0.0
 20
0.0
  9
$EXTMAX
 10
2.1E+002
 20
2.97E+002
  9
$TEXTSIZE
 40
1.25E-001
  9
$LTSCALE
 40
1.0
  9
$CLAYER
  8
LAYER1
  9
$CECOLOR
 62
2
  9
$DIMASZ
 40
1.25E-001
  9
$DIMEXO
 40
6.25E-002
  9
$DIMDLI
 40
2.5E-001
  9
$DIMEXE
 40
1.25E-001
  9
$DIMTP
 40
5.0E-003
  9
$DIMTM
 40
-5.0E-003
  9
$DIMTXT
 40
3.0
  9
$DIMLIM
 70
0
  9
$DIMTIH
 70
1
  9
$DIMTOH
 70
1
  9
$DIMSE1
 70
0
  9
$DIMSE2
 70
0
  9
$DIMTAD
 70
0
  9
$DIMASO
 70
1
  9
$DIMALT
 70
0
  9
$DIMALTD
 70
0
  9
$DIMTOFL
 70
1
  9
$DIMTIX
 70
0
  9
$DIMSAH
 70
0
  9
$DIMTFAC
 40
1.0
  9
$DIMGAP
 40
6.25E-002
  9
$LUNITS
 70
2
  9
$LUPREC
 70
3
  9
$FILLETRAD
 40
1.0E+001
  9
$AUNITS
 70
0
  9
$AUPREC
 70
1
  9
$CHAMFERA
 40
6.0
  9
$CHAMFERB
 40
6.0
  9
$ANGBASE
 50
0.0
  9
$ANGDIR
 70
0
  9
$PEXTMIN
 10
0.0
 20
0.0
 30
0.0
  9
$PEXTMAX
 10
2.1E+002
 20
2.97E+002
 30
0.0
  9
$PLIMMIN
 10
0.0
 20
0.0
  9
$PLIMMAX
 10
2.1E+002
 20
2.97E+002
  9
$PDMODE
 70
2
  9
$PDSIZE
 40
-1.0E-002
  9
$SPLINETYPE
 70
6
  9
$TILEMODE
 70
1
  0
ENDSEC
  0
SECTION
  2
TABLES
  0
TABLE
  2
VPORT
 70
2
  0
VPORT
  2
*Active
 70
0
 10
0.0
 20
0.0
 11
2.1E+002
 21
2.97E+002
 12
1.05E+002
 22
1.485E+002
 13
0.0
 23
0.0
 14
1.0
 24
1.0
 15
0.0
 25
0.0
 16
0.0
 26
0.0
 36
1.0
 17
0.0
 27
0.0
 37
0.0
 40
2.97E+002
 41
7.0707071E-001
 42
5.0E+001
 43
0.0
 44
0.0
 50
0.0
 51
0.0
 71
0
 72
100
 73
1
 74
3
 75
0
 76
0
 77
0
 78
0
  0
ENDTAB
  0
TABLE
  2
LTYPE
 70
7
  0
LTYPE
  2
HIDDENNEW0
  3
_ 
 70
64
 72
65
 73
3
 40
4.5
 49
1.5
 49
-1.5
 49
1.5
  0
LTYPE
  2
HIDDENNEW1
  3
_ 
 70
64
 72
65
 73
3
 40
4.5
 49
1.5
 49
-1.5
 49
1.5
  0
LTYPE
  2
HIDDEN
  3
_ 
 70
64
 72
65
 73
3
 40
4.5
 49
1.5
 49
-1.5
 49
1.5
  0
LTYPE
  2
CENTERLINE
  3
_ 
 70
64
 72
65
 73
5
 40
3.0E+001
 49
1.2E+001
 49
-1.5
 49
3.0
 49
-1.5
 49
1.2E+001
  0
LTYPE
  2
PHANTOM
  3
_ 
 70
64
 72
65
 73
7
 40
2.95E+001
 49
9.5
 49
-1.5
 49
3.0
 49
-1.5
 49
3.0
 49
-1.5
 49
9.5
  0
LTYPE
  2
SHORT_DASH
  3
_ 
 70
64
 72
65
 73
3
 40
3.0
 49
7.5E-001
 49
-1.5
 49
7.5E-001
  0
LTYPE
  2
LONG_DASH
  3
_ 
 70
64
 72
65
 73
3
 40
9.0
 49
2.25
 49
-4.5
 49
2.25
  0
ENDTAB
  0
TABLE
  2
LAYER
 70
258
  0
LAYER
  2
LAYER1
 70
0
 62
1
  6
CONTINUOUS
  0
LAYER
  2
2
 70
0
 62
7
  6
CONTINUOUS
  0
LAYER
  2
3
 70
0
 62
7
  6
CONTINUOUS
  0
LAYER
  2
4
 70
0
 62
7
  6
CONTINUOUS
  0
LAYER
  2
5
 70
0
 62
7
  6
CONTINUOUS
  0
LAYER
  2
6
 70
0
 62
7
  6
CONTINUOUS
  0
LAYER
  2
7
 70
0
 62
7
  6
CONTINUOUS
  0
LAYER
  2
8
 70
0
 62
7
  6
CONTINUOUS
  0
LAYER
  2
9
 70
0
 62
7
  6
CONTINUOUS
  0
LAYER
  2
10
 70
0
 62
7
  6
CONTINUOUS
  0
LAYER
  2
11
 70
0
 62
7
  6
CONTINUOUS
  0
LAYER
  2
12
 70
0
 62
7
  6
CONTINUOUS
  0
LAYER
  2
13
 70
0
 62
7
  6
CONTINUOUS
  0
LAYER
  2
14
 70
0
 62
7
  6
CONTINUOUS
  0
LAYER
  2
15
 70
0
 62
7
  6
CONTINUOUS
  0
LAYER
  2
16
 70
0
 62
7
  6
CONTINUOUS
  0
LAYER
  2
17
 70
0
 62
7
  6
CONTINUOUS
  0
LAYER
  2
18
 70
0
 62
7
  6
CONTINUOUS
  0
LAYER
  2
19
 70
0
 62
7
  6
CONTINUOUS
  0
LAYER
  2
20
 70
0
 62
7
  6
CONTINUOUS
  0
LAYER
  2
21
 70
0
 62
7
  6
CONTINUOUS
  0
LAYER
  2
22
 70
0
 62
7
  6
CONTINUOUS
  0
LAYER
  2
23
 70
0
 62
7
  6
CONTINUOUS
  0
LAYER
  2
24
 70
0
 62
7
  6
CONTINUOUS
  0
LAYER
  2
25
 70
0
 62
7
  6
CONTINUOUS
  0
LAYER
  2
26
 70
0
 62
7
  6
CONTINUOUS
  0
LAYER
  2
27
 70
0
 62
7
  6
CONTINUOUS
  0
LAYER
  2
28
 70
0
 62
7
  6
CONTINUOUS
  0
LAYER
  2
29
 70
0
 62
7
  6
CONTINUOUS
  0
LAYER
  2
30
 70
0
 62
7
  6
CONTINUOUS
  0
LAYER
  2
31
 70
0
 62
7
  6
CONTINUOUS
  0
LAYER
  2
32
 70
0
 62
7
  6
CONTINUOUS
  0
LAYER
  2
33
 70
0
 62
7
  6
CONTINUOUS
  0
LAYER
  2
34
 70
0
 62
7
  6
CONTINUOUS
  0
LAYER
  2
35
 70
0
 62
7
  6
CONTINUOUS
  0
LAYER
  2
36
 70
0
 62
7
  6
CONTINUOUS
  0
LAYER
  2
37
 70
0
 62
7
  6
CONTINUOUS
  0
LAYER
  2
38
 70
0
 62
7
  6
CONTINUOUS
  0
LAYER
  2
39
 70
0
 62
7
  6
CONTINUOUS
  0
LAYER
  2
40
 70
0
 62
7
  6
CONTINUOUS
  0
LAYER
  2
41
 70
0
 62
7
  6
CONTINUOUS
  0
LAYER
  2
42
 70
0
 62
7
  6
CONTINUOUS
  0
LAYER
  2
43
 70
0
 62
7
  6
CONTINUOUS
  0
LAYER
  2
44
 70
0
 62
7
  6
CONTINUOUS
  0
LAYER
  2
45
 70
0
 62
7
  6
CONTINUOUS
  0
LAYER
  2
46
 70
0
 62
7
  6
CONTINUOUS
  0
LAYER
  2
47
 70
0
 62
7
  6
CONTINUOUS
  0
LAYER
  2
48
 70
0
 62
7
  6
CONTINUOUS
  0
LAYER
  2
49
 70
0
 62
7
  6
CONTINUOUS
  0
LAYER
  2
50
 70
0
 62
7
  6
CONTINUOUS
  0
LAYER
  2
51
 70
0
 62
7
  6
CONTINUOUS
  0
LAYER
  2
52
 70
0
 62
7
  6
CONTINUOUS
  0
LAYER
  2
53
 70
0
 62
7
  6
CONTINUOUS
  0
LAYER
  2
54
 70
0
 62
7
  6
CONTINUOUS
  0
LAYER
  2
55
 70
0
 62
7
  6
CONTINUOUS
  0
LAYER
  2
56
 70
0
 62
7
  6
CONTINUOUS
  0
LAYER
  2
57
 70
0
 62
7
  6
CONTINUOUS
  0
LAYER
  2
58
 70
0
 62
7
  6
CONTINUOUS
  0
LAYER
  2
59
 70
0
 62
7
  6
CONTINUOUS
  0
LAYER
  2
60
 70
0
 62
7
  6
CONTINUOUS
  0
LAYER
  2
61
 70
0
 62
7
  6
CONTINUOUS
  0
LAYER
  2
62
 70
0
 62
7
  6
CONTINUOUS
  0
LAYER
  2
63
 70
0
 62
7
  6
CONTINUOUS
  0
LAYER
  2
64
 70
0
 62
7
  6
CONTINUOUS
  0
LAYER
  2
65
 70
0
 62
7
  6
CONTINUOUS
  0
LAYER
  2
66
 70
0
 62
7
  6
CONTINUOUS
  0
LAYER
  2
67
 70
0
 62
7
  6
CONTINUOUS
  0
LAYER
  2
68
 70
0
 62
7
  6
CONTINUOUS
  0
LAYER
  2
69
 70
0
 62
7
  6
CONTINUOUS
  0
LAYER
  2
70
 70
0
 62
7
  6
CONTINUOUS
  0
LAYER
  2
71
 70
0
 62
7
  6
CONTINUOUS
  0
LAYER
  2
72
 70
0
 62
7
  6
CONTINUOUS
  0
LAYER
  2
73
 70
0
 62
7
  6
CONTINUOUS
  0
LAYER
  2
74
 70
0
 62
7
  6
CONTINUOUS
  0
LAYER
  2
75
 70
0
 62
7
  6
CONTINUOUS
  0
LAYER
  2
76
 70
0
 62
7
  6
CONTINUOUS
  0
LAYER
  2
77
 70
0
 62
7
  6
CONTINUOUS
  0
LAYER
  2
78
 70
0
 62
7
  6
CONTINUOUS
  0
LAYER
  2
79
 70
0
 62
7
  6
CONTINUOUS
  0
LAYER
  2
80
 70
0
 62
7
  6
CONTINUOUS
  0
LAYER
  2
81
 70
0
 62
7
  6
CONTINUOUS
  0
LAYER
  2
82
 70
0
 62
7
  6
CONTINUOUS
  0
LAYER
  2
83
 70
0
 62
7
  6
CONTINUOUS
  0
LAYER
  2
84
 70
0
 62
7
  6
CONTINUOUS
  0
LAYER
  2
85
 70
0
 62
7
  6
CONTINUOUS
  0
LAYER
  2
86
 70
0
 62
7
  6
CONTINUOUS
  0
LAYER
  2
87
 70
0
 62
7
  6
CONTINUOUS
  0
LAYER
  2
88
 70
0
 62
7
  6
CONTINUOUS
  0
LAYER
  2
89
 70
0
 62
7
  6
CONTINUOUS
  0
LAYER
  2
90
 70
0
 62
7
  6
CONTINUOUS
  0
LAYER
  2
91
 70
0
 62
7
  6
CONTINUOUS
  0
LAYER
  2
92
 70
0
 62
7
  6
CONTINUOUS
  0
LAYER
  2
93
 70
0
 62
7
  6
CONTINUOUS
  0
LAYER
  2
94
 70
0
 62
7
  6
CONTINUOUS
  0
LAYER
  2
2D_KATALOG-MITTEL
 70
0
 62
230
  6
HIDDENNEW0
  0
LAYER
  2
96
 70
0
 62
7
  6
CONTINUOUS
  0
LAYER
  2
97
 70
0
 62
7
  6
CONTINUOUS
  0
LAYER
  2
98
 70
0
 62
7
  6
CONTINUOUS
  0
LAYER
  2
99
 70
0
 62
7
  6
CONTINUOUS
  0
LAYER
  2
2D_BEMASSUNG
 70
0
 62
1
  6
HIDDENNEW0
  0
LAYER
  2
101
 70
0
 62
7
  6
CONTINUOUS
  0
LAYER
  2
102
 70
0
 62
7
  6
CONTINUOUS
  0
LAYER
  2
103
 70
0
 62
7
  6
CONTINUOUS
  0
LAYER
  2
104
 70
0
 62
7
  6
CONTINUOUS
  0
LAYER
  2
2D_VERDECKTE_KANTEN
 70
0
 62
150
  6
HIDDEN
  0
LAYER
  2
2D_MITTELLINIEN
 70
0
 62
3
  6
PHANTOM
  0
LAYER
  2
107
 70
0
 62
7
  6
CONTINUOUS
  0
LAYER
  2
108
 70
0
 62
7
  6
CONTINUOUS
  0
LAYER
  2
109
 70
0
 62
7
  6
CONTINUOUS
  0
LAYER
  2
110
 70
0
 62
7
  6
CONTINUOUS
  0
LAYER
  2
111
 70
0
 62
7
  6
CONTINUOUS
  0
LAYER
  2
112
 70
0
 62
7
  6
CONTINUOUS
  0
LAYER
  2
113
 70
0
 62
7
  6
CONTINUOUS
  0
LAYER
  2
114
 70
0
 62
7
  6
CONTINUOUS
  0
LAYER
  2
115
 70
0
 62
7
  6
CONTINUOUS
  0
LAYER
  2
116
 70
0
 62
7
  6
CONTINUOUS
  0
LAYER
  2
117
 70
0
 62
7
  6
CONTINUOUS
  0
LAYER
  2
118
 70
0
 62
7
  6
CONTINUOUS
  0
LAYER
  2
119
 70
0
 62
7
  6
CONTINUOUS
  0
LAYER
  2
120
 70
0
 62
7
  6
CONTINUOUS
  0
LAYER
  2
121
 70
0
 62
7
  6
CONTINUOUS
  0
LAYER
  2
122
 70
0
 62
7
  6
CONTINUOUS
  0
LAYER
  2
123
 70
0
 62
7
  6
CONTINUOUS
  0
LAYER
  2
124
 70
0
 62
7
  6
CONTINUOUS
  0
LAYER
  2
125
 70
0
 62
7
  6
CONTINUOUS
  0
LAYER
  2
126
 70
0
 62
7
  6
CONTINUOUS
  0
LAYER
  2
127
 70
0
 62
7
  6
CONTINUOUS
  0
LAYER
  2
128
 70
0
 62
7
  6
CONTINUOUS
  0
LAYER
  2
129
 70
0
 62
7
  6
CONTINUOUS
  0
LAYER
  2
130
 70
0
 62
7
  6
CONTINUOUS
  0
LAYER
  2
131
 70
0
 62
7
  6
CONTINUOUS
  0
LAYER
  2
132
 70
0
 62
7
  6
CONTINUOUS
  0
LAYER
  2
133
 70
0
 62
7
  6
CONTINUOUS
  0
LAYER
  2
134
 70
0
 62
7
  6
CONTINUOUS
  0
LAYER
  2
135
 70
0
 62
7
  6
CONTINUOUS
  0
LAYER
  2
136
 70
0
 62
7
  6
CONTINUOUS
  0
LAYER
  2
137
 70
0
 62
7
  6
CONTINUOUS
  0
LAYER
  2
138
 70
0
 62
7
  6
CONTINUOUS
  0
LAYER
  2
139
 70
0
 62
7
  6
CONTINUOUS
  0
LAYER
  2
140
 70
0
 62
7
  6
CONTINUOUS
  0
LAYER
  2
141
 70
0
 62
7
  6
CONTINUOUS
  0
LAYER
  2
142
 70
0
 62
7
  6
CONTINUOUS
  0
LAYER
  2
143
 70
0
 62
7
  6
CONTINUOUS
  0
LAYER
  2
144
 70
0
 62
7
  6
CONTINUOUS
  0
LAYER
  2
145
 70
0
 62
7
  6
CONTINUOUS
  0
LAYER
  2
146
 70
0
 62
7
  6
CONTINUOUS
  0
LAYER
  2
147
 70
0
 62
7
  6
CONTINUOUS
  0
LAYER
  2
148
 70
0
 62
7
  6
CONTINUOUS
  0
LAYER
  2
149
 70
0
 62
7
  6
CONTINUOUS
  0
LAYER
  2
150
 70
0
 62
7
  6
CONTINUOUS
  0
LAYER
  2
151
 70
0
 62
7
  6
CONTINUOUS
  0
LAYER
  2
152
 70
0
 62
7
  6
CONTINUOUS
  0
LAYER
  2
153
 70
0
 62
7
  6
CONTINUOUS
  0
LAYER
  2
154
 70
0
 62
7
  6
CONTINUOUS
  0
LAYER
  2
155
 70
0
 62
7
  6
CONTINUOUS
  0
LAYER
  2
156
 70
0
 62
7
  6
CONTINUOUS
  0
LAYER
  2
157
 70
0
 62
7
  6
CONTINUOUS
  0
LAYER
  2
158
 70
0
 62
7
  6
CONTINUOUS
  0
LAYER
  2
159
 70
0
 62
7
  6
CONTINUOUS
  0
LAYER
  2
160
 70
0
 62
7
  6
CONTINUOUS
  0
LAYER
  2
161
 70
0
 62
7
  6
CONTINUOUS
  0
LAYER
  2
162
 70
0
 62
7
  6
CONTINUOUS
  0
LAYER
  2
163
 70
0
 62
7
  6
CONTINUOUS
  0
LAYER
  2
164
 70
0
 62
7
  6
CONTINUOUS
  0
LAYER
  2
165
 70
0
 62
7
  6
CONTINUOUS
  0
LAYER
  2
166
 70
0
 62
7
  6
CONTINUOUS
  0
LAYER
  2
167
 70
0
 62
7
  6
CONTINUOUS
  0
LAYER
  2
168
 70
0
 62
7
  6
CONTINUOUS
  0
LAYER
  2
169
 70
0
 62
7
  6
CONTINUOUS
  0
LAYER
  2
170
 70
0
 62
7
  6
CONTINUOUS
  0
LAYER
  2
171
 70
0
 62
7
  6
CONTINUOUS
  0
LAYER
  2
172
 70
0
 62
7
  6
CONTINUOUS
  0
LAYER
  2
173
 70
0
 62
7
  6
CONTINUOUS
  0
LAYER
  2
174
 70
0
 62
7
  6
CONTINUOUS
  0
LAYER
  2
175
 70
0
 62
7
  6
CONTINUOUS
  0
LAYER
  2
176
 70
0
 62
7
  6
CONTINUOUS
  0
LAYER
  2
177
 70
0
 62
7
  6
CONTINUOUS
  0
LAYER
  2
178
 70
0
 62
7
  6
CONTINUOUS
  0
LAYER
  2
179
 70
0
 62
7
  6
CONTINUOUS
  0
LAYER
  2
180
 70
0
 62
7
  6
CONTINUOUS
  0
LAYER
  2
181
 70
0
 62
7
  6
CONTINUOUS
  0
LAYER
  2
182
 70
0
 62
7
  6
CONTINUOUS
  0
LAYER
  2
183
 70
0
 62
7
  6
CONTINUOUS
  0
LAYER
  2
184
 70
0
 62
7
  6
CONTINUOUS
  0
LAYER
  2
185
 70
0
 62
7
  6
CONTINUOUS
  0
LAYER
  2
186
 70
0
 62
7
  6
CONTINUOUS
  0
LAYER
  2
187
 70
0
 62
7
  6
CONTINUOUS
  0
LAYER
  2
188
 70
0
 62
7
  6
CONTINUOUS
  0
LAYER
  2
189
 70
0
 62
7
  6
CONTINUOUS
  0
LAYER
  2
190
 70
0
 62
7
  6
CONTINUOUS
  0
LAYER
  2
191
 70
0
 62
7
  6
CONTINUOUS
  0
LAYER
  2
192
 70
0
 62
7
  6
CONTINUOUS
  0
LAYER
  2
193
 70
0
 62
7
  6
CONTINUOUS
  0
LAYER
  2
194
 70
0
 62
7
  6
CONTINUOUS
  0
LAYER
  2
195
 70
0
 62
7
  6
CONTINUOUS
  0
LAYER
  2
196
 70
0
 62
7
  6
CONTINUOUS
  0
LAYER
  2
197
 70
0
 62
7
  6
CONTINUOUS
  0
LAYER
  2
198
 70
0
 62
7
  6
CONTINUOUS
  0
LAYER
  2
199
 70
0
 62
7
  6
CONTINUOUS
  0
LAYER
  2
200
 70
0
 62
7
  6
CONTINUOUS
  0
LAYER
  2
201
 70
0
 62
7
  6
CONTINUOUS
  0
LAYER
  2
202
 70
0
 62
7
  6
CONTINUOUS
  0
LAYER
  2
203
 70
0
 62
7
  6
CONTINUOUS
  0
LAYER
  2
204
 70
0
 62
7
  6
CONTINUOUS
  0
LAYER
  2
205
 70
0
 62
7
  6
CONTINUOUS
  0
LAYER
  2
206
 70
0
 62
7
  6
CONTINUOUS
  0
LAYER
  2
207
 70
0
 62
7
  6
CONTINUOUS
  0
LAYER
  2
208
 70
0
 62
7
  6
CONTINUOUS
  0
LAYER
  2
209
 70
0
 62
7
  6
CONTINUOUS
  0
LAYER
  2
210
 70
0
 62
7
  6
CONTINUOUS
  0
LAYER
  2
211
 70
0
 62
7
  6
CONTINUOUS
  0
LAYER
  2
212
 70
0
 62
7
  6
CONTINUOUS
  0
LAYER
  2
213
 70
0
 62
7
  6
CONTINUOUS
  0
LAYER
  2
214
 70
0
 62
7
  6
CONTINUOUS
  0
LAYER
  2
215
 70
0
 62
7
  6
CONTINUOUS
  0
LAYER
  2
216
 70
0
 62
7
  6
CONTINUOUS
  0
LAYER
  2
217
 70
0
 62
7
  6
CONTINUOUS
  0
LAYER
  2
218
 70
0
 62
7
  6
CONTINUOUS
  0
LAYER
  2
219
 70
0
 62
7
  6
CONTINUOUS
  0
LAYER
  2
220
 70
0
 62
7
  6
CONTINUOUS
  0
LAYER
  2
221
 70
0
 62
7
  6
CONTINUOUS
  0
LAYER
  2
222
 70
0
 62
7
  6
CONTINUOUS
  0
LAYER
  2
223
 70
0
 62
7
  6
CONTINUOUS
  0
LAYER
  2
224
 70
0
 62
7
  6
CONTINUOUS
  0
LAYER
  2
225
 70
0
 62
7
  6
CONTINUOUS
  0
LAYER
  2
226
 70
0
 62
7
  6
CONTINUOUS
  0
LAYER
  2
227
 70
0
 62
7
  6
CONTINUOUS
  0
LAYER
  2
228
 70
0
 62
7
  6
CONTINUOUS
  0
LAYER
  2
229
 70
0
 62
7
  6
CONTINUOUS
  0
LAYER
  2
230
 70
0
 62
7
  6
CONTINUOUS
  0
LAYER
  2
231
 70
0
 62
7
  6
CONTINUOUS
  0
LAYER
  2
232
 70
0
 62
7
  6
CONTINUOUS
  0
LAYER
  2
233
 70
0
 62
7
  6
CONTINUOUS
  0
LAYER
  2
234
 70
0
 62
7
  6
CONTINUOUS
  0
LAYER
  2
235
 70
0
 62
7
  6
CONTINUOUS
  0
LAYER
  2
236
 70
0
 62
7
  6
CONTINUOUS
  0
LAYER
  2
237
 70
0
 62
7
  6
CONTINUOUS
  0
LAYER
  2
238
 70
0
 62
7
  6
CONTINUOUS
  0
LAYER
  2
239
 70
0
 62
7
  6
CONTINUOUS
  0
LAYER
  2
240
 70
0
 62
7
  6
CONTINUOUS
  0
LAYER
  2
241
 70
0
 62
7
  6
CONTINUOUS
  0
LAYER
  2
242
 70
0
 62
7
  6
CONTINUOUS
  0
LAYER
  2
243
 70
0
 62
7
  6
CONTINUOUS
  0
LAYER
  2
244
 70
0
 62
7
  6
CONTINUOUS
  0
LAYER
  2
245
 70
0
 62
7
  6
CONTINUOUS
  0
LAYER
  2
246
 70
0
 62
7
  6
CONTINUOUS
  0
LAYER
  2
247
 70
0
 62
7
  6
CONTINUOUS
  0
LAYER
  2
248
 70
0
 62
7
  6
CONTINUOUS
  0
LAYER
  2
249
 70
0
 62
7
  6
CONTINUOUS
  0
LAYER
  2
250
 70
0
 62
7
  6
CONTINUOUS
  0
LAYER
  2
251
 70
0
 62
7
  6
CONTINUOUS
  0
LAYER
  2
252
 70
0
 62
7
  6
CONTINUOUS
  0
LAYER
  2
253
 70
0
 62
7
  6
CONTINUOUS
  0
LAYER
  2
254
 70
0
 62
7
  6
CONTINUOUS
  0
LAYER
  2
255
 70
0
 62
7
  6
CONTINUOUS
  0
LAYER
  2
Drafting_Hidden_Entities
 70
1
 62
7
  6
CONTINUOUS
  0
ENDTAB
  0
TABLE
  2
STYLE
 70
1
  0
STYLE
  2
STANDARD
 70
64
 40
0.0
 41
1.0
 50
0.0
 71
0
 42
1.0
  3
monotxt.shx
  4

  0
ENDTAB
  0
TABLE
  2
VIEW
 70
0
  0
ENDTAB
  0
TABLE
  2
DIMSTYLE
 70
0
  0
ENDTAB
  0
ENDSEC
  0
SECTION
  2
BLOCKS
  0
BLOCK
  2
_AH12
  3
_AH
 10
0.0
 20
0.0
 70
64
  0
LINE
  8
0
  6
CONTINUOUS
 62
0
 10
0.0
 20
0.0
 11
1.0
 21
0.0
  0
LINE
  8
0
  6
CONTINUOUS
 62
0
 10
0.0
 20
0.0
 11
-1.0
 21
0.0
  0
ENDBLK
  0
BLOCK
  2
_AH13
  3
_AH
 10
0.0
 20
0.0
 70
64
  0
SOLID
  8
0
  6
CONTINUOUS
 62
0
 10
0.0
 20
0.0
 11
-1.0
 21
1.66667E-001
 12
-1.0
 22
-1.66667E-001
 13
0.0
 23
0.0
  0
ENDBLK
  0
BLOCK
  2
_AH14
  3
_AH
 10
0.0
 20
0.0
 70
64
  0
ENDBLK
  0
BLOCK
  2
_AH15
  3
_AH
 10
0.0
 20
0.0
 70
64
  0
CIRCLE
  8
0
  6
CONTINUOUS
 62
0
 10
0.0
 20
0.0
 40
1.66667E-001
  0
LINE
  8
0
  6
CONTINUOUS
 62
0
 10
0.0
 20
0.0
 11
-1.0
 21
0.0
  0
ENDBLK
  0
BLOCK
  2
_AH16
  3
_AH
 10
0.0
 20
0.0
 70
64
  0
POLYLINE
  8
0
  6
CONTINUOUS
 62
0
 66
1
 40
1.66667E-001
 41
1.66667E-001
 70
0
  0
VERTEX
  8
0
 42
1.0
 10
8.3335E-002
 20
0.0
 70
0
  0
VERTEX
  8
0
 42
1.0
 10
-8.3335E-002
 20
0.0
 70
0
  0
VERTEX
  8
0
 42
0.0
 10
8.3335E-002
 20
0.0
 70
0
  0
SEQEND
  0
LINE
  8
0
  6
CONTINUOUS
 62
0
 10
0.0
 20
0.0
 11
-1.0
 21
0.0
  0
ENDBLK
  0
BLOCK
  2
_AH17
  3
_AH
 10
0.0
 20
0.0
 70
64
  0
LINE
  8
0
  6
CONTINUOUS
 62
0
 10
-1.66667E-001
 20
-1.66667E-001
 11
1.66667E-001
 21
-1.66667E-001
  0
LINE
  8
0
  6
CONTINUOUS
 62
0
 10
1.66667E-001
 20
-1.66667E-001
 11
1.66667E-001
 21
1.66667E-001
  0
LINE
  8
0
  6
CONTINUOUS
 62
0
 10
1.66667E-001
 20
1.66667E-001
 11
-1.66667E-001
 21
1.66667E-001
  0
LINE
  8
0
  6
CONTINUOUS
 62
0
 10
-1.66667E-001
 20
1.66667E-001
 11
-1.66667E-001
 21
-1.66667E-001
  0
LINE
  8
0
  6
CONTINUOUS
 62
0
 10
0.0
 20
0.0
 11
-1.0
 21
0.0
  0
ENDBLK
  0
BLOCK
  2
_AH18
  3
_AH
 10
0.0
 20
0.0
 70
64
  0
SOLID
  8
0
  6
CONTINUOUS
 62
0
 10
-1.66667E-001
 20
-1.66667E-001
 11
1.66667E-001
 21
-1.66667E-001
 12
-1.66667E-001
 22
1.66667E-001
 13
1.66667E-001
 23
1.66667E-001
  0
LINE
  8
0
  6
CONTINUOUS
 62
0
 10
0.0
 20
0.0
 11
-1.0
 21
0.0
  0
ENDBLK
  0
BLOCK
  2
_AH19
  3
_AH
 10
0.0
 20
0.0
 70
64
  0
LINE
  8
0
  6
CONTINUOUS
 62
0
 10
-5.0E-001
 20
-5.0E-001
 11
5.0E-001
 21
5.0E-001
  0
LINE
  8
0
  6
CONTINUOUS
 62
0
 10
0.0
 20
0.0
 11
-1.0
 21
0.0
  0
ENDBLK
  0
BLOCK
  2
_AH20
  3
_AH
 10
0.0
 20
0.0
 70
64
  0
POLYLINE
  8
0
  6
CONTINUOUS
 62
0
 66
1
 40
5.0E-001
 41
5.0E-001
 70
0
  0
VERTEX
  8
0
 42
4.1421356E-001
 10
-1.66667E-001
 20
-1.66667E-001
 70
0
  0
VERTEX
  8
0
 42
0.0
 10
0.0
 20
0.0
 70
0
  0
SEQEND
  0
POLYLINE
  8
0
  6
CONTINUOUS
 62
0
 66
1
 40
5.0E-001
 41
5.0E-001
 70
0
  0
VERTEX
  8
0
 42
4.1421356E-001
 10
1.66667E-001
 20
1.66667E-001
 70
0
  0
VERTEX
  8
0
 42
0.0
 10
0.0
 20
0.0
 70
0
  0
SEQEND
  0
LINE
  8
0
  6
CONTINUOUS
 62
0
 10
0.0
 20
0.0
 11
-1.0
 21
0.0
  0
ENDBLK
  0
BLOCK
  2
_AH21
  3
_AH
 10
0.0
 20
0.0
 70
64
  0
LINE
  8
0
  6
CONTINUOUS
 62
0
 10
0.0
 20
0.0
 11
-1.0
 21
-1.66667E-001
  0
LINE
  8
0
  6
CONTINUOUS
 62
0
 10
-1.0
 20
-1.66667E-001
 11
-1.0
 21
1.66667E-001
  0
LINE
  8
0
  6
CONTINUOUS
 62
0
 10
-1.0
 20
1.66667E-001
 11
0.0
 21
0.0
  0
ENDBLK
  0
BLOCK
  2
_AH1
 70
0
 10
0.0
 20
0.0
  3
_AH1
  0
LINE
  8
0
  6
CONTINUOUS
 62
0
 10
-1.0
 20
1.66667E-001
 11
0.0
 21
0.0
  0
LINE
  8
0
  6
CONTINUOUS
 62
0
 10
0.0
 20
0.0
 11
-1.0
 21
-1.66667E-001
  0
LINE
  8
0
  6
CONTINUOUS
 62
0
 10
-1.0
 20
1.66667E-001
 11
-1.0
 21
-1.66667E-001
  0
LINE
  8
0
  6
CONTINUOUS
 62
0
 10
0.0
 20
0.0
 11
-1.0
 21
0.0
  0
ENDBLK
  0
BLOCK
  2
_AH2
 70
0
 10
0.0
 20
0.0
  3
_AH2
  0
LINE
  8
0
  6
CONTINUOUS
 62
0
 10
-1.0
 20
1.66667E-001
 11
0.0
 21
0.0
  0
LINE
  8
0
  6
CONTINUOUS
 62
0
 10
0.0
 20
0.0
 11
-1.0
 21
-1.66667E-001
  0
LINE
  8
0
  6
CONTINUOUS
 62
0
 10
0.0
 20
0.0
 11
-1.0
 21
0.0
  0
ENDBLK
  0
ENDSEC
  0
SECTION
  2
ENTITIES
  0
TEXT
  8
2D_BEMASSUNG
  6
CONTINUOUS
 62
1
 10
5.1319664E+001
 20
1.6145108E+002
 40
3.5
  1
y = min 0.5mm/ max. 4mm
 41
7.0E-001
  0
TEXT
  8
2D_BEMASSUNG
  6
CONTINUOUS
 62
1
 10
7.4791766E+001
 20
1.1463677E+002
 40
3.5
  1
y
 41
8.0E-001
  0
TEXT
  8
2D_BEMASSUNG
  6
CONTINUOUS
 62
1
 10
1.1970689E+002
 20
2.0530664E+002
 40
3.5
  1
Treibstange
 41
6.0E-001
  0
LINE
  8
2D_BEMASSUNG
  6
CONTINUOUS
 62
1
 10
1.4430689E+002
 20
2.0380664E+002
 11
1.1520689E+002
 21
2.0380664E+002
  0
LINE
  8
2D_BEMASSUNG
  6
CONTINUOUS
 62
1
 10
1.0773088E+002
 20
2.1743287E+002
 11
1.1520689E+002
 21
2.0380664E+002
  0
LINE
  8
Drafting_Hidden_Entities
  6
CONTINUOUS
 62
3
 10
2.8318077E+001
 20
1.5140865E+002
 11
2.8318077E+001
 21
1.5290865E+002
  0
LINE
  8
Drafting_Hidden_Entities
  6
CONTINUOUS
 62
3
 10
2.4418077E+001
 20
1.5140865E+002
 11
2.8318077E+001
 21
1.5140865E+002
  0
LINE
  8
Drafting_Hidden_Entities
  6
CONTINUOUS
 62
3
 10
2.4418077E+001
 20
1.5290865E+002
 11
2.4418077E+001
 21
1.5140865E+002
  0
LINE
  8
Drafting_Hidden_Entities
  6
CONTINUOUS
 62
3
 10
2.8318077E+001
 20
1.5290865E+002
 11
2.4418077E+001
 21
1.5290865E+002
  0
LINE
  8
Drafting_Hidden_Entities
  6
CONTINUOUS
 62
3
 10
3.5418077E+001
 20
1.5140865E+002
 11
3.5418077E+001
 21
1.5290865E+002
  0
LINE
  8
Drafting_Hidden_Entities
  6
CONTINUOUS
 62
3
 10
3.1518077E+001
 20
1.5140865E+002
 11
3.5418077E+001
 21
1.5140865E+002
  0
LINE
  8
Drafting_Hidden_Entities
  6
CONTINUOUS
 62
3
 10
3.1518077E+001
 20
1.5290865E+002
 11
3.1518077E+001
 21
1.5140865E+002
  0
LINE
  8
Drafting_Hidden_Entities
  6
CONTINUOUS
 62
3
 10
3.5418077E+001
 20
1.5290865E+002
 11
3.1518077E+001
 21
1.5290865E+002
  0
POLYLINE
  8
2D_KATALOG-MITTEL
  6
CONTINUOUS
 62
230
 66
1
 40
5.0E-001
 41
5.0E-001
 70
0
  0
VERTEX
  8
2D_KATALOG-MITTEL
 42
0.0
 10
7.4817764E+001
 20
1.3246006E+002
 70
0
  0
VERTEX
  8
2D_KATALOG-MITTEL
 42
0.0
 10
6.4817764E+001
 20
1.3246006E+002
 70
0
  0
SEQEND
  0
POLYLINE
  8
2D_KATALOG-MITTEL
  6
CONTINUOUS
 62
230
 66
1
 40
5.0E-001
 41
5.0E-001
 70
0
  0
VERTEX
  8
2D_KATALOG-MITTEL
 42
0.0
 10
7.4817764E+001
 20
1.3246006E+002
 70
0
  0
VERTEX
  8
2D_KATALOG-MITTEL
 42
0.0
 10
7.4817764E+001
 20
1.2846006E+002
 70
0
  0
SEQEND
  0
POLYLINE
  8
2D_KATALOG-MITTEL
  6
CONTINUOUS
 62
230
 66
1
 40
5.0E-001
 41
5.0E-001
 70
0
  0
VERTEX
  8
2D_KATALOG-MITTEL
 42
0.0
 10
6.4817764E+001
 20
1.3246006E+002
 70
0
  0
VERTEX
  8
2D_KATALOG-MITTEL
 42
0.0
 10
6.4817764E+001
 20
1.2846006E+002
 70
0
  0
SEQEND
  0
LINE
  8
LAYER1
  6
CONTINUOUS
 62
3
 10
1.291881E+002
 20
1.4366006E+002
 11
1.4427439E+002
 21
1.4366006E+002
  0
LINE
  8
2D_MITTELLINIEN
  6
CENTERLINE
 62
3
 10
9.7138098E+001
 20
1.3534702E+002
 11
9.7138098E+001
 21
1.5737568E+002
  0
LINE
  8
2D_MITTELLINIEN
  6
CENTERLINE
 62
3
 10
1.241381E+002
 20
1.3534702E+002
 11
1.241381E+002
 21
1.5517769E+002
  0
POLYLINE
  8
2D_KATALOG-MITTEL
  6
CONTINUOUS
 62
230
 66
1
 40
5.0E-001
 41
5.0E-001
 70
0
  0
VERTEX
  8
2D_KATALOG-MITTEL
 42
0.0
 10
9.0838098E+001
 20
1.4938643E+002
 70
0
  0
VERTEX
  8
2D_KATALOG-MITTEL
 42
0.0
 10
9.0838098E+001
 20
1.4446006E+002
 70
0
  0
SEQEND
  0
POLYLINE
  8
2D_KATALOG-MITTEL
  6
CONTINUOUS
 62
230
 66
1
 40
5.0E-001
 41
5.0E-001
 70
0
  0
VERTEX
  8
2D_KATALOG-MITTEL
 42
0.0
 10
9.2338098E+001
 20
1.4938643E+002
 70
0
  0
VERTEX
  8
2D_KATALOG-MITTEL
 42
0.0
 10
9.2338098E+001
 20
1.4446006E+002
 70
0
  0
SEQEND
  0
POLYLINE
  8
2D_KATALOG-MITTEL
  6
CONTINUOUS
 62
230
 66
1
 40
5.0E-001
 41
5.0E-001
 70
0
  0
VERTEX
  8
2D_KATALOG-MITTEL
 42
0.0
 10
8.5838098E+001
 20
1.5438643E+002
 70
0
  0
VERTEX
  8
2D_KATALOG-MITTEL
 42
0.0
 10
6.9645214E+001
 20
1.5438643E+002
 70
0
  0
SEQEND
  0
POLYLINE
  8
2D_KATALOG-MITTEL
  6
CONTINUOUS
 62
230
 66
1
 40
5.0E-001
 41
5.0E-001
 70
0
  0
VERTEX
  8
2D_KATALOG-MITTEL
 42
0.0
 10
8.5838098E+001
 20
1.5588643E+002
 70
0
  0
VERTEX
  8
2D_KATALOG-MITTEL
 42
0.0
 10
6.9645214E+001
 20
1.5588643E+002
 70
0
  0
SEQEND
  0
POLYLINE
  8
2D_KATALOG-MITTEL
  6
CONTINUOUS
 62
230
 66
1
 40
5.0E-001
 41
5.0E-001
 70
0
  0
VERTEX
  8
2D_KATALOG-MITTEL
 42
4.1421356E-001
 10
9.0838098E+001
 20
1.4938643E+002
 70
0
  0
VERTEX
  8
2D_KATALOG-MITTEL
 42
0.0
 10
8.5838098E+001
 20
1.5438643E+002
 70
0
  0
SEQEND
  0
POLYLINE
  8
2D_KATALOG-MITTEL
  6
CONTINUOUS
 62
230
 66
1
 40
5.0E-001
 41
5.0E-001
 70
0
  0
VERTEX
  8
2D_KATALOG-MITTEL
 42
4.1421356E-001
 10
9.2338098E+001
 20
1.4938643E+002
 70
0
  0
VERTEX
  8
2D_KATALOG-MITTEL
 42
0.0
 10
8.5838098E+001
 20
1.5588643E+002
 70
0
  0
SEQEND
  0
POLYLINE
  8
LAYER1
  6
CONTINUOUS
 62
5
 66
1
 40
0.0
 41
0.0
 70
2
  0
VERTEX
  8
LAYER1
 42
0.0
 10
6.9645214E+001
 20
1.5588643E+002
 70
0
  0
VERTEX
  8
LAYER1
 42
-4.9761432E-003
 10
6.9660793E+001
 20
1.5586606E+002
 70
1
  0
VERTEX
  8
LAYER1
 42
-4.9188418E-003
 10
6.9675781E+001
 20
1.5584565E+002
 70
0
  0
VERTEX
  8
LAYER1
 42
-5.2303364E-003
 10
6.9690163E+001
 20
1.5582519E+002
 70
1
  0
VERTEX
  8
LAYER1
 42
-5.9946562E-003
 10
6.9703907E+001
 20
1.5580469E+002
 70
0
  0
VERTEX
  8
LAYER1
 42
-6.6533388E-003
 10
6.9716917E+001
 20
1.5578416E+002
 70
1
  0
VERTEX
  8
LAYER1
 42
-7.3004871E-003
 10
6.9729173E+001
 20
1.5576358E+002
 70
0
  0
VERTEX
  8
LAYER1
 42
-7.9726326E-003
 10
6.9740594E+001
 20
1.5574296E+002
 70
1
  0
VERTEX
  8
LAYER1
 42
-8.7636279E-003
 10
6.9751163E+001
 20
1.5572231E+002
 70
0
  0
VERTEX
  8
LAYER1
 42
-9.5430504E-003
 10
6.9760788E+001
 20
1.5570162E+002
 70
1
  0
VERTEX
  8
LAYER1
 42
-1.040407E-002
 10
6.9769458E+001
 20
1.5568089E+002
 70
0
  0
VERTEX
  8
LAYER1
 42
-1.1248046E-002
 10
6.9777079E+001
 20
1.5566013E+002
 70
1
  0
VERTEX
  8
LAYER1
 42
-1.2166343E-002
 10
6.9783641E+001
 20
1.5563933E+002
 70
0
  0
VERTEX
  8
LAYER1
 42
-1.3039834E-002
 10
6.9789049E+001
 20
1.556185E+002
 70
1
  0
VERTEX
  8
LAYER1
 42
-1.3960588E-002
 10
6.9793295E+001
 20
1.5559763E+002
 70
0
  0
VERTEX
  8
LAYER1
 42
-1.4761549E-002
 10
6.9796279E+001
 20
1.5557673E+002
 70
1
  0
VERTEX
  8
LAYER1
 42
-1.5534232E-002
 10
6.9798002E+001
 20
1.5555579E+002
 70
0
  0
VERTEX
  8
LAYER1
 42
-1.6209923E-002
 10
6.9798359E+001
 20
1.5553482E+002
 70
1
  0
VERTEX
  8
LAYER1
 42
-1.691186E-002
 10
6.9797344E+001
 20
1.5551383E+002
 70
0
  0
VERTEX
  8
LAYER1
 42
-1.6211973E-002
 10
6.979487E+001
 20
1.554928E+002
 70
1
  0
VERTEX
  8
LAYER1
 42
-1.4108258E-002
 10
6.9791107E+001
 20
1.5547174E+002
 70
0
  0
VERTEX
  8
LAYER1
 42
-1.2080383E-002
 10
6.9786153E+001
 20
1.5545064E+002
 70
1
  0
VERTEX
  8
LAYER1
 42
-9.7829207E-003
 10
6.9780222E+001
 20
1.5542951E+002
 70
0
  0
VERTEX
  8
LAYER1
 42
-7.8434281E-003
 10
6.9773446E+001
 20
1.5540834E+002
 70
1
  0
VERTEX
  8
LAYER1
 42
-5.8371089E-003
 10
6.9766023E+001
 20
1.5538713E+002
 70
0
  0
VERTEX
  8
LAYER1
 42
-4.1172079E-003
 10
6.9758094E+001
 20
1.5536587E+002
 70
1
  0
VERTEX
  8
LAYER1
 42
-2.2562454E-003
 10
6.9749843E+001
 20
1.5534457E+002
 70
0
  0
VERTEX
  8
LAYER1
 42
-6.490731E-004
 10
6.9741427E+001
 20
1.5532322E+002
 70
1
  0
VERTEX
  8
LAYER1
 42
1.1362183E-003
 10
6.9733016E+001
 20
1.5530183E+002
 70
0
  0
VERTEX
  8
LAYER1
 42
2.7294783E-003
 10
6.9724779E+001
 20
1.5528038E+002
 70
1
  0
VERTEX
  8
LAYER1
 42
4.5611952E-003
 10
6.9716874E+001
 20
1.5525888E+002
 70
0
  0
VERTEX
  8
LAYER1
 42
6.220616E-003
 10
6.9709485E+001
 20
1.5523732E+002
 70
1
  0
VERTEX
  8
LAYER1
 42
8.1273652E-003
 10
6.9702753E+001
 20
1.5521571E+002
 70
0
  0
VERTEX
  8
LAYER1
 42
9.9821051E-003
 10
6.9696873E+001
 20
1.5519403E+002
 70
1
  0
VERTEX
  8
LAYER1
 42
1.221168E-002
 10
6.9691984E+001
 20
1.5517229E+002
 70
0
  0
VERTEX
  8
LAYER1
 42
1.3939253E-002
 10
6.9688301E+001
 20
1.5515049E+002
 70
1
  0
VERTEX
  8
LAYER1
 42
1.5472547E-002
 10
6.96859E+001
 20
1.5512862E+002
 70
0
  0
VERTEX
  8
LAYER1
 42
1.5272814E-002
 10
6.9684908E+001
 20
1.5510668E+002
 70
1
  0
VERTEX
  8
LAYER1
 42
1.3244857E-002
 10
6.9685149E+001
 20
1.5508469E+002
 70
0
  0
VERTEX
  8
LAYER1
 42
1.1542767E-002
 10
6.9686512E+001
 20
1.5506265E+002
 70
1
  0
VERTEX
  8
LAYER1
 42
9.8081504E-003
 10
6.9688812E+001
 20
1.5504056E+002
 70
0
  0
VERTEX
  8
LAYER1
 42
8.2403143E-003
 10
6.9691949E+001
 20
1.5501844E+002
 70
1
  0
VERTEX
  8
LAYER1
 42
6.4924094E-003
 10
6.9695747E+001
 20
1.5499629E+002
 70
0
  0
VERTEX
  8
LAYER1
 42
4.982914E-003
 10
6.9700088E+001
 20
1.5497412E+002
 70
1
  0
VERTEX
  8
LAYER1
 42
3.341703E-003
 10
6.9704811E+001
 20
1.5495193E+002
 70
0
  0
VERTEX
  8
LAYER1
 42
1.910278E-003
 10
6.9709785E+001
 20
1.5492974E+002
 70
1
  0
VERTEX
  8
LAYER1
 42
3.14796E-004
 10
6.9714861E+001
 20
1.5490754E+002
 70
0
  0
VERTEX
  8
LAYER1
 42
-1.1021197E-003
 10
6.9719898E+001
 20
1.5488536E+002
 70
1
  0
VERTEX
  8
LAYER1
 42
-2.7172826E-003
 10
6.9724757E+001
 20
1.5486319E+002
 70
0
  0
VERTEX
  8
LAYER1
 42
-4.1596377E-003
 10
6.9729284E+001
 20
1.5484104E+002
 70
1
  0
VERTEX
  8
LAYER1
 42
-5.7990172E-003
 10
6.9733356E+001
 20
1.5481892E+002
 70
0
  0
VERTEX
  8
LAYER1
 42
-7.3811446E-003
 10
6.9736808E+001
 20
1.5479684E+002
 70
1
  0
VERTEX
  8
LAYER1
 42
-9.2885976E-003
 10
6.9739515E+001
 20
1.547748E+002
 70
0
  0
VERTEX
  8
LAYER1
 42
-1.0704448E-002
 10
6.97413E+001
 20
1.5475282E+002
 70
1
  0
VERTEX
  8
LAYER1
 42
-1.1903308E-002
 10
6.9742101E+001
 20
1.5473089E+002
 70
0
  0
VERTEX
  8
LAYER1
 42
-1.2067585E-002
 10
6.9741809E+001
 20
1.5470902E+002
 70
1
  0
VERTEX
  8
LAYER1
 42
-1.1197094E-002
 10
6.9740517E+001
 20
1.5468721E+002
 70
0
  0
VERTEX
  8
LAYER1
 42
-1.0605157E-002
 10
6.9738252E+001
 20
1.5466547E+002
 70
1
  0
VERTEX
  8
LAYER1
 42
-1.0106714E-002
 10
6.9735091E+001
 20
1.5464376E+002
 70
0
  0
VERTEX
  8
LAYER1
 42
-9.298134E-003
 10
6.973104E+001
 20
1.5462206E+002
 70
1
  0
VERTEX
  8
LAYER1
 42
-8.2087684E-003
 10
6.972624E+001
 20
1.546005E+002
 70
0
  0
VERTEX
  8
LAYER1
 42
-8.1333963E-003
 10
6.9720732E+001
 20
1.5457911E+002
 70
1
  0
VERTEX
  8
LAYER1
 42
-8.3888103E-003
 10
6.9714382E+001
 20
1.5455742E+002
 70
0
  0
VERTEX
  8
LAYER1
 42
-6.2407236E-003
 10
6.970714E+001
 20
1.5453526E+002
 70
1
  0
VERTEX
  8
LAYER1
 42
-3.0446219E-003
 10
6.9699933E+001
 20
1.5451449E+002
 70
0
  0
VERTEX
  8
LAYER1
 42
-6.8759354E-003
 10
6.9693084E+001
 20
1.5449573E+002
 70
1
  0
VERTEX
  8
LAYER1
 42
-9.2535824E-003
 10
6.9683311E+001
 20
1.544717E+002
 70
0
  0
VERTEX
  8
LAYER1
 42
-4.2986793E-003
 10
6.9667117E+001
 20
1.5443476E+002
 70
1
  0
VERTEX
  8
LAYER1
 42
-2.3771533E-003
 10
6.9645214E+001
 20
1.5438643E+002
 70
0
  0
SEQEND
  0
POLYLINE
  8
2D_KATALOG-MITTEL
  6
CONTINUOUS
 62
230
 66
1
 40
5.0E-001
 41
5.0E-001
 70
0
  0
VERTEX
  8
2D_KATALOG-MITTEL
 42
0.0
 10
1.291881E+002
 20
1.4446006E+002
 70
0
  0
VERTEX
  8
2D_KATALOG-MITTEL
 42
0.0
 10
1.281881E+002
 20
1.4446006E+002
 70
0
  0
SEQEND
  0
POLYLINE
  8
2D_KATALOG-MITTEL
  6
CONTINUOUS
 62
230
 66
1
 40
5.0E-001
 41
5.0E-001
 70
0
  0
VERTEX
  8
2D_KATALOG-MITTEL
 42
0.0
 10
1.291881E+002
 20
1.4446006E+002
 70
0
  0
VERTEX
  8
2D_KATALOG-MITTEL
 42
0.0
 10
1.291881E+002
 20
1.3751006E+002
 70
0
  0
SEQEND
  0
POLYLINE
  8
2D_KATALOG-MITTEL
  6
CONTINUOUS
 62
230
 66
1
 40
5.0E-001
 41
5.0E-001
 70
0
  0
VERTEX
  8
2D_KATALOG-MITTEL
 42
0.0
 10
1.281881E+002
 20
1.4246006E+002
 70
0
  0
VERTEX
  8
2D_KATALOG-MITTEL
 42
0.0
 10
1.281881E+002
 20
1.4816006E+002
 70
0
  0
SEQEND
  0
POLYLINE
  8
2D_KATALOG-MITTEL
  6
CONTINUOUS
 62
230
 66
1
 40
5.0E-001
 41
5.0E-001
 70
0
  0
VERTEX
  8
2D_KATALOG-MITTEL
 42
4.1421356E-001
 10
1.281881E+002
 20
1.3651006E+002
 70
0
  0
VERTEX
  8
2D_KATALOG-MITTEL
 42
0.0
 10
1.291881E+002
 20
1.3751006E+002
 70
0
  0
SEQEND
  0
POLYLINE
  8
2D_KATALOG-MITTEL
  6
CONTINUOUS
 62
230
 66
1
 40
5.0E-001
 41
5.0E-001
 70
0
  0
VERTEX
  8
2D_KATALOG-MITTEL
 42
0.0
 10
6.8188098E+001
 20
1.4446006E+002
 70
0
  0
VERTEX
  8
2D_KATALOG-MITTEL
 42
0.0
 10
9.2688098E+001
 20
1.4446006E+002
 70
0
  0
SEQEND
  0
POLYLINE
  8
2D_KATALOG-MITTEL
  6
CONTINUOUS
 62
230
 66
1
 40
5.0E-001
 41
5.0E-001
 70
0
  0
VERTEX
  8
2D_KATALOG-MITTEL
 42
0.0
 10
9.2688098E+001
 20
1.4816006E+002
 70
0
  0
VERTEX
  8
2D_KATALOG-MITTEL
 42
0.0
 10
9.2688098E+001
 20
1.4246006E+002
 70
0
  0
SEQEND
  0
POLYLINE
  8
2D_KATALOG-MITTEL
  6
CONTINUOUS
 62
230
 66
1
 40
5.0E-001
 41
5.0E-001
 70
0
  0
VERTEX
  8
2D_KATALOG-MITTEL
 42
0.0
 10
9.2688098E+001
 20
1.4246006E+002
 70
0
  0
VERTEX
  8
2D_KATALOG-MITTEL
 42
0.0
 10
1.014381E+002
 20
1.4246006E+002
 70
0
  0
SEQEND
  0
POLYLINE
  8
2D_KATALOG-MITTEL
  6
CONTINUOUS
 62
230
 66
1
 40
5.0E-001
 41
5.0E-001
 70
0
  0
VERTEX
  8
2D_KATALOG-MITTEL
 42
0.0
 10
1.014381E+002
 20
1.4246006E+002
 70
0
  0
VERTEX
  8
2D_KATALOG-MITTEL
 42
0.0
 10
1.014381E+002
 20
1.4446006E+002
 70
0
  0
SEQEND
  0
POLYLINE
  8
2D_KATALOG-MITTEL
  6
CONTINUOUS
 62
230
 66
1
 40
5.0E-001
 41
5.0E-001
 70
0
  0
VERTEX
  8
2D_KATALOG-MITTEL
 42
0.0
 10
9.2338098E+001
 20
1.4446006E+002
 70
0
  0
VERTEX
  8
2D_KATALOG-MITTEL
 42
0.0
 10
9.2688098E+001
 20
1.4446006E+002
 70
0
  0
SEQEND
  0
POLYLINE
  8
2D_KATALOG-MITTEL
  6
CONTINUOUS
 62
230
 66
1
 40
5.0E-001
 41
5.0E-001
 70
0
  0
VERTEX
  8
2D_KATALOG-MITTEL
 42
0.0
 10
1.194381E+002
 20
1.4446006E+002
 70
0
  0
VERTEX
  8
2D_KATALOG-MITTEL
 42
0.0
 10
1.194381E+002
 20
1.4246006E+002
 70
0
  0
SEQEND
  0
POLYLINE
  8
2D_KATALOG-MITTEL
  6
CONTINUOUS
 62
230
 66
1
 40
5.0E-001
 41
5.0E-001
 70
0
  0
VERTEX
  8
2D_KATALOG-MITTEL
 42
0.0
 10
1.194381E+002
 20
1.4246006E+002
 70
0
  0
VERTEX
  8
2D_KATALOG-MITTEL
 42
0.0
 10
1.281881E+002
 20
1.4246006E+002
 70
0
  0
SEQEND
  0
POLYLINE
  8
2D_KATALOG-MITTEL
  6
CONTINUOUS
 62
230
 66
1
 40
5.0E-001
 41
5.0E-001
 70
0
  0
VERTEX
  8
2D_KATALOG-MITTEL
 42
0.0
 10
8.4288098E+001
 20
1.4071006E+002
 70
0
  0
VERTEX
  8
2D_KATALOG-MITTEL
 42
0.0
 10
8.5288098E+001
 20
1.4171006E+002
 70
0
  0
SEQEND
  0
POLYLINE
  8
2D_KATALOG-MITTEL
  6
CONTINUOUS
 62
230
 66
1
 40
5.0E-001
 41
5.0E-001
 70
0
  0
VERTEX
  8
2D_KATALOG-MITTEL
 42
0.0
 10
8.4288098E+001
 20
1.3751006E+002
 70
0
  0
VERTEX
  8
2D_KATALOG-MITTEL
 42
0.0
 10
8.4288098E+001
 20
1.4071006E+002
 70
0
  0
SEQEND
  0
POLYLINE
  8
2D_KATALOG-MITTEL
  6
CONTINUOUS
 62
230
 66
1
 40
5.0E-001
 41
5.0E-001
 70
0
  0
VERTEX
  8
2D_KATALOG-MITTEL
 42
4.1421356E-001
 10
8.4288098E+001
 20
1.3751006E+002
 70
0
  0
VERTEX
  8
2D_KATALOG-MITTEL
 42
0.0
 10
8.5288098E+001
 20
1.3651006E+002
 70
0
  0
SEQEND
  0
POLYLINE
  8
2D_KATALOG-MITTEL
  6
CONTINUOUS
 62
230
 66
1
 40
5.0E-001
 41
5.0E-001
 70
0
  0
VERTEX
  8
2D_KATALOG-MITTEL
 42
0.0
 10
1.281881E+002
 20
1.3651006E+002
 70
0
  0
VERTEX
  8
2D_KATALOG-MITTEL
 42
0.0
 10
8.5288098E+001
 20
1.3651006E+002
 70
0
  0
SEQEND
  0
POLYLINE
  8
2D_KATALOG-MITTEL
  6
CONTINUOUS
 62
230
 66
1
 40
5.0E-001
 41
5.0E-001
 70
0
  0
VERTEX
  8
2D_KATALOG-MITTEL
 42
0.0
 10
6.8609638E+001
 20
1.4084403E+002
 70
0
  0
VERTEX
  8
2D_KATALOG-MITTEL
 42
0.0
 10
6.7688098E+001
 20
1.4137608E+002
 70
0
  0
SEQEND
  0
POLYLINE
  8
2D_KATALOG-MITTEL
  6
CONTINUOUS
 62
230
 66
1
 40
5.0E-001
 41
5.0E-001
 70
0
  0
VERTEX
  8
2D_KATALOG-MITTEL
 42
0.0
 10
6.8609638E+001
 20
1.4084403E+002
 70
0
  0
VERTEX
  8
2D_KATALOG-MITTEL
 42
0.0
 10
6.8956048E+001
 20
1.4064403E+002
 70
0
  0
SEQEND
  0
POLYLINE
  8
2D_KATALOG-MITTEL
  6
CONTINUOUS
 62
230
 66
1
 40
5.0E-001
 41
5.0E-001
 70
0
  0
VERTEX
  8
2D_KATALOG-MITTEL
 42
2.6794919E-001
 10
6.7188098E+001
 20
1.4224211E+002
 70
0
  0
VERTEX
  8
2D_KATALOG-MITTEL
 42
0.0
 10
6.7688098E+001
 20
1.4137608E+002
 70
0
  0
SEQEND
  0
POLYLINE
  8
2D_KATALOG-MITTEL
  6
CONTINUOUS
 62
230
 66
1
 40
5.0E-001
 41
5.0E-001
 70
0
  0
VERTEX
  8
2D_KATALOG-MITTEL
 42
0.0
 10
6.7188098E+001
 20
1.4224211E+002
 70
0
  0
VERTEX
  8
2D_KATALOG-MITTEL
 42
0.0
 10
6.7188098E+001
 20
1.4446006E+002
 70
0
  0
SEQEND
  0
POLYLINE
  8
2D_KATALOG-MITTEL
  6
CONTINUOUS
 62
230
 66
1
 40
5.0E-001
 41
5.0E-001
 70
0
  0
VERTEX
  8
2D_KATALOG-MITTEL
 42
0.0
 10
6.8188098E+001
 20
1.4446006E+002
 70
0
  0
VERTEX
  8
2D_KATALOG-MITTEL
 42
0.0
 10
6.7188098E+001
 20
1.4446006E+002
 70
0
  0
SEQEND
  0
POLYLINE
  8
2D_KATALOG-MITTEL
  6
CONTINUOUS
 62
230
 66
1
 40
5.0E-001
 41
5.0E-001
 70
0
  0
VERTEX
  8
2D_KATALOG-MITTEL
 42
1.316525E-001
 10
6.8956048E+001
 20
1.4064403E+002
 70
0
  0
VERTEX
  8
2D_KATALOG-MITTEL
 42
0.0
 10
6.9456048E+001
 20
1.4051006E+002
 70
0
  0
SEQEND
  0
POLYLINE
  8
2D_KATALOG-MITTEL
  6
CONTINUOUS
 62
230
 66
1
 40
5.0E-001
 41
5.0E-001
 70
0
  0
VERTEX
  8
2D_KATALOG-MITTEL
 42
0.0
 10
6.9456048E+001
 20
1.4051006E+002
 70
0
  0
VERTEX
  8
2D_KATALOG-MITTEL
 42
0.0
 10
8.4288098E+001
 20
1.4051006E+002
 70
0
  0
SEQEND
  0
LINE
  8
LAYER1
  6
CONTINUOUS
 62
3
 10
5.256721E+001
 20
1.4816006E+002
 11
9.3138098E+001
 21
1.4816006E+002
  0
LINE
  8
LAYER1
  6
CONTINUOUS
 62
3
 10
1.4427439E+002
 20
1.2366006E+002
 11
5.256721E+001
 21
1.2366006E+002
  0
LINE
  8
LAYER1
  6
CONTINUOUS
 62
3
 10
1.4427439E+002
 20
1.2846006E+002
 11
7.4817764E+001
 21
1.2846006E+002
  0
LINE
  8
2D_MITTELLINIEN
  6
CENTERLINE
 62
3
 10
6.9817764E+001
 20
1.3978288E+002
 11
6.9817764E+001
 21
1.2439794E+002
  0
LINE
  8
LAYER1
  6
CONTINUOUS
 62
3
 10
1.4427439E+002
 20
1.2596006E+002
 11
5.256721E+001
 21
1.2596006E+002
  0
LINE
  8
LAYER1
  6
CONTINUOUS
 62
3
 10
5.256721E+001
 20
1.4566006E+002
 11
9.0838098E+001
 21
1.4566006E+002
  0
LINE
  8
LAYER1
  6
CONTINUOUS
 62
3
 10
5.256721E+001
 20
1.5016006E+002
 11
1.4427439E+002
 21
1.5016006E+002
  0
POLYLINE
  8
2D_KATALOG-MITTEL
  6
CONTINUOUS
 62
230
 66
1
 40
5.0E-001
 41
5.0E-001
 70
0
  0
VERTEX
  8
2D_KATALOG-MITTEL
 42
0.0
 10
9.2688098E+001
 20
1.4531006E+002
 70
0
  0
VERTEX
  8
2D_KATALOG-MITTEL
 42
0.0
 10
1.281881E+002
 20
1.4531006E+002
 70
0
  0
SEQEND
  0
LINE
  8
LAYER1
  6
CONTINUOUS
 62
6
 10
1.2814495E+002
 20
1.4816006E+002
 11
1.281881E+002
 21
1.4811691E+002
  0
LINE
  8
LAYER1
  6
CONTINUOUS
 62
6
 10
1.2673074E+002
 20
1.4816006E+002
 11
1.281881E+002
 21
1.467027E+002
  0
LINE
  8
LAYER1
  6
CONTINUOUS
 62
6
 10
1.2531653E+002
 20
1.4816006E+002
 11
1.281881E+002
 21
1.4528848E+002
  0
LINE
  8
LAYER1
  6
CONTINUOUS
 62
6
 10
1.2390231E+002
 20
1.4816006E+002
 11
1.281881E+002
 21
1.4387427E+002
  0
LINE
  8
LAYER1
  6
CONTINUOUS
 62
6
 10
1.224881E+002
 20
1.4816006E+002
 11
1.281881E+002
 21
1.4246006E+002
  0
LINE
  8
LAYER1
  6
CONTINUOUS
 62
6
 10
1.2107388E+002
 20
1.4816006E+002
 11
1.2677388E+002
 21
1.4246006E+002
  0
LINE
  8
LAYER1
  6
CONTINUOUS
 62
6
 10
1.1965967E+002
 20
1.4816006E+002
 11
1.2535967E+002
 21
1.4246006E+002
  0
LINE
  8
LAYER1
  6
CONTINUOUS
 62
6
 10
1.1824546E+002
 20
1.4816006E+002
 11
1.2394546E+002
 21
1.4246006E+002
  0
TEXT
  8
LAYER1
  6
CONTINUOUS
 62
2
 10
5.0184688E+001
 20
1.7012176E+002
 40
5.0
  1
TKI/ Hueck1.0
 41
8.0E-001
  0
LINE
  8
LAYER1
  6
CONTINUOUS
 62
6
 10
1.1683124E+002
 20
1.4816006E+002
 11
1.2253124E+002
 21
1.4246006E+002
  0
LINE
  8
LAYER1
  6
CONTINUOUS
 62
6
 10
1.1541703E+002
 20
1.4816006E+002
 11
1.1911703E+002
 21
1.4446006E+002
  0
LINE
  8
LAYER1
  6
CONTINUOUS
 62
6
 10
1.194381E+002
 20
1.4413899E+002
 11
1.2111703E+002
 21
1.4246006E+002
  0
LINE
  8
LAYER1
  6
CONTINUOUS
 62
6
 10
1.1400282E+002
 20
1.4816006E+002
 11
1.1770282E+002
 21
1.4446006E+002
  0
LINE
  8
LAYER1
  6
CONTINUOUS
 62
6
 10
1.194381E+002
 20
1.4272478E+002
 11
1.1970282E+002
 21
1.4246006E+002
  0
LINE
  8
LAYER1
  6
CONTINUOUS
 62
6
 10
1.125886E+002
 20
1.4816006E+002
 11
1.162886E+002
 21
1.4446006E+002
  0
LINE
  8
LAYER1
  6
CONTINUOUS
 62
6
 10
1.1117439E+002
 20
1.4816006E+002
 11
1.1487439E+002
 21
1.4446006E+002
  0
LINE
  8
LAYER1
  6
CONTINUOUS
 62
6
 10
1.0976018E+002
 20
1.4816006E+002
 11
1.1346018E+002
 21
1.4446006E+002
  0
LINE
  8
LAYER1
  6
CONTINUOUS
 62
6
 10
1.0834596E+002
 20
1.4816006E+002
 11
1.1204596E+002
 21
1.4446006E+002
  0
LINE
  8
LAYER1
  6
CONTINUOUS
 62
6
 10
1.0693175E+002
 20
1.4816006E+002
 11
1.1063175E+002
 21
1.4446006E+002
  0
LINE
  8
LAYER1
  6
CONTINUOUS
 62
6
 10
1.0551754E+002
 20
1.4816006E+002
 11
1.0921754E+002
 21
1.4446006E+002
  0
LINE
  8
LAYER1
  6
CONTINUOUS
 62
6
 10
1.0410332E+002
 20
1.4816006E+002
 11
1.0780332E+002
 21
1.4446006E+002
  0
LINE
  8
LAYER1
  6
CONTINUOUS
 62
6
 10
1.0268911E+002
 20
1.4816006E+002
 11
1.0638911E+002
 21
1.4446006E+002
  0
LINE
  8
LAYER1
  6
CONTINUOUS
 62
6
 10
1.012749E+002
 20
1.4816006E+002
 11
1.049749E+002
 21
1.4446006E+002
  0
LINE
  8
LAYER1
  6
CONTINUOUS
 62
6
 10
9.9860681E+001
 20
1.4816006E+002
 11
1.0356068E+002
 21
1.4446006E+002
  0
LINE
  8
LAYER1
  6
CONTINUOUS
 62
6
 10
9.8446468E+001
 20
1.4816006E+002
 11
1.0214647E+002
 21
1.4446006E+002
  0
LINE
  8
LAYER1
  6
CONTINUOUS
 62
6
 10
9.7032254E+001
 20
1.4816006E+002
 11
1.014381E+002
 21
1.4375421E+002
  0
LINE
  8
LAYER1
  6
CONTINUOUS
 62
6
 10
9.5618041E+001
 20
1.4816006E+002
 11
1.0131804E+002
 21
1.4246006E+002
  0
LINE
  8
LAYER1
  6
CONTINUOUS
 62
6
 10
9.4203827E+001
 20
1.4816006E+002
 11
9.9903827E+001
 21
1.4246006E+002
  0
LINE
  8
LAYER1
  6
CONTINUOUS
 62
6
 10
9.2789614E+001
 20
1.4816006E+002
 11
9.8489614E+001
 21
1.4246006E+002
  0
LINE
  8
LAYER1
  6
CONTINUOUS
 62
6
 10
9.2688098E+001
 20
1.4684736E+002
 11
9.70754E+001
 21
1.4246006E+002
  0
LINE
  8
LAYER1
  6
CONTINUOUS
 62
6
 10
9.2688098E+001
 20
1.4543315E+002
 11
9.5661187E+001
 21
1.4246006E+002
  0
LINE
  8
LAYER1
  6
CONTINUOUS
 62
6
 10
9.2688098E+001
 20
1.4401893E+002
 11
9.4246973E+001
 21
1.4246006E+002
  0
LINE
  8
LAYER1
  6
CONTINUOUS
 62
6
 10
9.2688098E+001
 20
1.4260472E+002
 11
9.2832759E+001
 21
1.4246006E+002
  0
LINE
  8
LAYER1
  6
CONTINUOUS
 62
6
 10
1.281881E+002
 20
1.4387427E+002
 11
1.2677388E+002
 21
1.4246006E+002
  0
LINE
  8
LAYER1
  6
CONTINUOUS
 62
6
 10
1.281881E+002
 20
1.4528848E+002
 11
1.2535967E+002
 21
1.4246006E+002
  0
LINE
  8
LAYER1
  6
CONTINUOUS
 62
6
 10
1.281881E+002
 20
1.467027E+002
 11
1.2394546E+002
 21
1.4246006E+002
  0
LINE
  8
LAYER1
  6
CONTINUOUS
 62
6
 10
1.281881E+002
 20
1.4811691E+002
 11
1.2253124E+002
 21
1.4246006E+002
  0
LINE
  8
LAYER1
  6
CONTINUOUS
 62
6
 10
1.2681703E+002
 20
1.4816006E+002
 11
1.2111703E+002
 21
1.4246006E+002
  0
LINE
  8
LAYER1
  6
CONTINUOUS
 62
6
 10
1.2540282E+002
 20
1.4816006E+002
 11
1.1970282E+002
 21
1.4246006E+002
  0
LINE
  8
LAYER1
  6
CONTINUOUS
 62
6
 10
1.239886E+002
 20
1.4816006E+002
 11
1.194381E+002
 21
1.4360955E+002
  0
LINE
  8
LAYER1
  6
CONTINUOUS
 62
6
 10
1.2257439E+002
 20
1.4816006E+002
 11
1.1887439E+002
 21
1.4446006E+002
  0
LINE
  8
LAYER1
  6
CONTINUOUS
 62
6
 10
1.2116018E+002
 20
1.4816006E+002
 11
1.1746018E+002
 21
1.4446006E+002
  0
LINE
  8
LAYER1
  6
CONTINUOUS
 62
6
 10
1.1974596E+002
 20
1.4816006E+002
 11
1.1604596E+002
 21
1.4446006E+002
  0
LINE
  8
LAYER1
  6
CONTINUOUS
 62
6
 10
1.1833175E+002
 20
1.4816006E+002
 11
1.1463175E+002
 21
1.4446006E+002
  0
LINE
  8
LAYER1
  6
CONTINUOUS
 62
6
 10
1.1691754E+002
 20
1.4816006E+002
 11
1.1321754E+002
 21
1.4446006E+002
  0
LINE
  8
LAYER1
  6
CONTINUOUS
 62
6
 10
1.1550332E+002
 20
1.4816006E+002
 11
1.1180332E+002
 21
1.4446006E+002
  0
LINE
  8
LAYER1
  6
CONTINUOUS
 62
6
 10
1.1408911E+002
 20
1.4816006E+002
 11
1.1038911E+002
 21
1.4446006E+002
  0
LINE
  8
LAYER1
  6
CONTINUOUS
 62
6
 10
1.126749E+002
 20
1.4816006E+002
 11
1.089749E+002
 21
1.4446006E+002
  0
LINE
  8
LAYER1
  6
CONTINUOUS
 62
6
 10
1.1126068E+002
 20
1.4816006E+002
 11
1.0756068E+002
 21
1.4446006E+002
  0
LINE
  8
LAYER1
  6
CONTINUOUS
 62
6
 10
1.0984647E+002
 20
1.4816006E+002
 11
1.0614647E+002
 21
1.4446006E+002
  0
LINE
  8
LAYER1
  6
CONTINUOUS
 62
6
 10
1.0843225E+002
 20
1.4816006E+002
 11
1.0473225E+002
 21
1.4446006E+002
  0
LINE
  8
LAYER1
  6
CONTINUOUS
 62
6
 10
1.0701804E+002
 20
1.4816006E+002
 11
1.0331804E+002
 21
1.4446006E+002
  0
LINE
  8
LAYER1
  6
CONTINUOUS
 62
6
 10
1.014381E+002
 20
1.4258012E+002
 11
1.0131804E+002
 21
1.4246006E+002
  0
LINE
  8
LAYER1
  6
CONTINUOUS
 62
6
 10
1.0560383E+002
 20
1.4816006E+002
 11
1.0190383E+002
 21
1.4446006E+002
  0
LINE
  8
LAYER1
  6
CONTINUOUS
 62
6
 10
1.014381E+002
 20
1.4399433E+002
 11
9.9903827E+001
 21
1.4246006E+002
  0
LINE
  8
LAYER1
  6
CONTINUOUS
 62
6
 10
1.0418961E+002
 20
1.4816006E+002
 11
9.8489614E+001
 21
1.4246006E+002
  0
LINE
  8
LAYER1
  6
CONTINUOUS
 62
6
 10
1.027754E+002
 20
1.4816006E+002
 11
9.70754E+001
 21
1.4246006E+002
  0
LINE
  8
LAYER1
  6
CONTINUOUS
 62
6
 10
1.0136119E+002
 20
1.4816006E+002
 11
9.5661187E+001
 21
1.4246006E+002
  0
LINE
  8
LAYER1
  6
CONTINUOUS
 62
6
 10
9.9946973E+001
 20
1.4816006E+002
 11
9.4246973E+001
 21
1.4246006E+002
  0
LINE
  8
LAYER1
  6
CONTINUOUS
 62
6
 10
9.8532759E+001
 20
1.4816006E+002
 11
9.2832759E+001
 21
1.4246006E+002
  0
TEXT
  8
LAYER1
  6
CONTINUOUS
 62
2
 10
5.0184688E+001
 20
2.5683817E+002
 40
5.0
  1
STANDARD
 41
8.0E-001
  0
LINE
  8
LAYER1
  6
CONTINUOUS
 62
6
 10
9.7118546E+001
 20
1.4816006E+002
 11
9.2688098E+001
 21
1.4372961E+002
  0
LINE
  8
LAYER1
  6
CONTINUOUS
 62
6
 10
9.5704332E+001
 20
1.4816006E+002
 11
9.2688098E+001
 21
1.4514382E+002
  0
LINE
  8
LAYER1
  6
CONTINUOUS
 62
6
 10
9.4290119E+001
 20
1.4816006E+002
 11
9.2688098E+001
 21
1.4655804E+002
  0
LINE
  8
LAYER1
  6
CONTINUOUS
 62
6
 10
9.2875905E+001
 20
1.4816006E+002
 11
9.2688098E+001
 21
1.4797225E+002
  0
LINE
  8
LAYER1
  6
CONTINUOUS
 62
6
 10
7.4110657E+001
 20
1.3246006E+002
 11
7.4817764E+001
 21
1.3175295E+002
  0
LINE
  8
LAYER1
  6
CONTINUOUS
 62
6
 10
7.340355E+001
 20
1.3246006E+002
 11
7.4817764E+001
 21
1.3104584E+002
  0
LINE
  8
LAYER1
  6
CONTINUOUS
 62
6
 10
7.2696444E+001
 20
1.3246006E+002
 11
7.4817764E+001
 21
1.3033874E+002
  0
LINE
  8
LAYER1
  6
CONTINUOUS
 62
6
 10
7.1989337E+001
 20
1.3246006E+002
 11
7.4817764E+001
 21
1.2963163E+002
  0
LINE
  8
LAYER1
  6
CONTINUOUS
 62
6
 10
7.128223E+001
 20
1.3246006E+002
 11
7.4817764E+001
 21
1.2892452E+002
  0
LINE
  8
LAYER1
  6
CONTINUOUS
 62
6
 10
7.0575123E+001
 20
1.3246006E+002
 11
7.4575123E+001
 21
1.2846006E+002
  0
LINE
  8
LAYER1
  6
CONTINUOUS
 62
6
 10
6.9868017E+001
 20
1.3246006E+002
 11
7.3868017E+001
 21
1.2846006E+002
  0
LINE
  8
LAYER1
  6
CONTINUOUS
 62
6
 10
6.916091E+001
 20
1.3246006E+002
 11
7.316091E+001
 21
1.2846006E+002
  0
LINE
  8
LAYER1
  6
CONTINUOUS
 62
6
 10
6.8453803E+001
 20
1.3246006E+002
 11
7.2453803E+001
 21
1.2846006E+002
  0
LINE
  8
LAYER1
  6
CONTINUOUS
 62
6
 10
6.7746696E+001
 20
1.3246006E+002
 11
7.1746696E+001
 21
1.2846006E+002
  0
LINE
  8
LAYER1
  6
CONTINUOUS
 62
6
 10
6.7039589E+001
 20
1.3246006E+002
 11
7.1039589E+001
 21
1.2846006E+002
  0
LINE
  8
LAYER1
  6
CONTINUOUS
 62
6
 10
6.6332483E+001
 20
1.3246006E+002
 11
7.0332483E+001
 21
1.2846006E+002
  0
LINE
  8
LAYER1
  6
CONTINUOUS
 62
6
 10
6.5625376E+001
 20
1.3246006E+002
 11
6.9625376E+001
 21
1.2846006E+002
  0
LINE
  8
LAYER1
  6
CONTINUOUS
 62
6
 10
6.4918269E+001
 20
1.3246006E+002
 11
6.8918269E+001
 21
1.2846006E+002
  0
LINE
  8
LAYER1
  6
CONTINUOUS
 62
6
 10
6.4817764E+001
 20
1.3185346E+002
 11
6.8211162E+001
 21
1.2846006E+002
  0
LINE
  8
LAYER1
  6
CONTINUOUS
 62
6
 10
6.4817764E+001
 20
1.3114635E+002
 11
6.7504056E+001
 21
1.2846006E+002
  0
LINE
  8
LAYER1
  6
CONTINUOUS
 62
6
 10
6.4817764E+001
 20
1.3043924E+002
 11
6.6796949E+001
 21
1.2846006E+002
  0
LINE
  8
LAYER1
  6
CONTINUOUS
 62
6
 10
6.4817764E+001
 20
1.2973214E+002
 11
6.6089842E+001
 21
1.2846006E+002
  0
LINE
  8
LAYER1
  6
CONTINUOUS
 62
6
 10
6.4817764E+001
 20
1.2902503E+002
 11
6.5382735E+001
 21
1.2846006E+002
  0
LINE
  8
LAYER1
  6
CONTINUOUS
 62
6
 10
7.4817764E+001
 20
1.2892452E+002
 11
7.4353298E+001
 21
1.2846006E+002
  0
LINE
  8
LAYER1
  6
CONTINUOUS
 62
6
 10
7.4817764E+001
 20
1.2963163E+002
 11
7.3646191E+001
 21
1.2846006E+002
  0
LINE
  8
LAYER1
  6
CONTINUOUS
 62
6
 10
7.4817764E+001
 20
1.3033874E+002
 11
7.2939084E+001
 21
1.2846006E+002
  0
LINE
  8
LAYER1
  6
CONTINUOUS
 62
6
 10
7.4817764E+001
 20
1.3104584E+002
 11
7.2231978E+001
 21
1.2846006E+002
  0
LINE
  8
LAYER1
  6
CONTINUOUS
 62
6
 10
7.4817764E+001
 20
1.3175295E+002
 11
7.1524871E+001
 21
1.2846006E+002
  0
LINE
  8
LAYER1
  6
CONTINUOUS
 62
6
 10
7.4817764E+001
 20
1.3246006E+002
 11
7.0817764E+001
 21
1.2846006E+002
  0
LINE
  8
LAYER1
  6
CONTINUOUS
 62
6
 10
7.4110657E+001
 20
1.3246006E+002
 11
7.0110657E+001
 21
1.2846006E+002
  0
LINE
  8
LAYER1
  6
CONTINUOUS
 62
6
 10
7.340355E+001
 20
1.3246006E+002
 11
6.940355E+001
 21
1.2846006E+002
  0
LINE
  8
LAYER1
  6
CONTINUOUS
 62
6
 10
7.2696444E+001
 20
1.3246006E+002
 11
6.8696444E+001
 21
1.2846006E+002
  0
LINE
  8
LAYER1
  6
CONTINUOUS
 62
6
 10
7.1989337E+001
 20
1.3246006E+002
 11
6.7989337E+001
 21
1.2846006E+002
  0
LINE
  8
LAYER1
  6
CONTINUOUS
 62
6
 10
7.128223E+001
 20
1.3246006E+002
 11
6.728223E+001
 21
1.2846006E+002
  0
LINE
  8
LAYER1
  6
CONTINUOUS
 62
6
 10
7.0575123E+001
 20
1.3246006E+002
 11
6.6575123E+001
 21
1.2846006E+002
  0
LINE
  8
LAYER1
  6
CONTINUOUS
 62
6
 10
6.9868017E+001
 20
1.3246006E+002
 11
6.5868017E+001
 21
1.2846006E+002
  0
LINE
  8
LAYER1
  6
CONTINUOUS
 62
6
 10
6.916091E+001
 20
1.3246006E+002
 11
6.516091E+001
 21
1.2846006E+002
  0
LINE
  8
LAYER1
  6
CONTINUOUS
 62
6
 10
6.8453803E+001
 20
1.3246006E+002
 11
6.4817764E+001
 21
1.2882402E+002
  0
LINE
  8
LAYER1
  6
CONTINUOUS
 62
6
 10
6.7746696E+001
 20
1.3246006E+002
 11
6.4817764E+001
 21
1.2953113E+002
  0
LINE
  8
LAYER1
  6
CONTINUOUS
 62
6
 10
6.7039589E+001
 20
1.3246006E+002
 11
6.4817764E+001
 21
1.3023823E+002
  0
LINE
  8
LAYER1
  6
CONTINUOUS
 62
6
 10
6.6332483E+001
 20
1.3246006E+002
 11
6.4817764E+001
 21
1.3094534E+002
  0
LINE
  8
LAYER1
  6
CONTINUOUS
 62
6
 10
6.5625376E+001
 20
1.3246006E+002
 11
6.4817764E+001
 21
1.3165245E+002
  0
LINE
  8
LAYER1
  6
CONTINUOUS
 62
6
 10
6.4918269E+001
 20
1.3246006E+002
 11
6.4817764E+001
 21
1.3235955E+002
  0
LINE
  8
2D_BEMASSUNG
  6
CONTINUOUS
 62
1
 10
7.2507845E+001
 20
1.3002841E+002
 11
8.5490174E+001
 21
1.0801518E+002
  0
LINE
  8
2D_BEMASSUNG
  6
CONTINUOUS
 62
1
 10
1.1459017E+002
 20
1.0801518E+002
 11
8.5490174E+001
 21
1.0801518E+002
  0
TEXT
  8
2D_BEMASSUNG
  6
CONTINUOUS
 62
1
 10
8.9990174E+001
 20
1.0951518E+002
 40
3.5
  1
Distanzring
 41
6.0E-001
  0
LINE
  8
2D_BEMASSUNG
  6
CONTINUOUS
 62
1
 10
6.7188098E+001
 20
1.1092742E+002
 11
6.7188098E+001
 21
1.419452E+002
  0
LINE
  8
2D_BEMASSUNG
  6
CONTINUOUS
 62
1
 10
6.9817764E+001
 20
1.2596006E+002
 11
6.9817764E+001
 21
1.1092742E+002
  0
LINE
  8
2D_BEMASSUNG
  6
CONTINUOUS
 62
1
 10
6.7188098E+001
 20
1.1292742E+002
 11
6.3188098E+001
 21
1.1226075E+002
  0
LINE
  8
2D_BEMASSUNG
  6
CONTINUOUS
 62
1
 10
6.7188098E+001
 20
1.1292742E+002
 11
6.3188098E+001
 21
1.1359409E+002
  0
LINE
  8
2D_BEMASSUNG
  6
CONTINUOUS
 62
1
 10
6.3188098E+001
 20
1.1226075E+002
 11
6.3188098E+001
 21
1.1359409E+002
  0
LINE
  8
2D_BEMASSUNG
  6
CONTINUOUS
 62
1
 10
6.9817764E+001
 20
1.1292742E+002
 11
7.3817764E+001
 21
1.1226075E+002
  0
LINE
  8
2D_BEMASSUNG
  6
CONTINUOUS
 62
1
 10
6.9817764E+001
 20
1.1292742E+002
 11
7.3817764E+001
 21
1.1359409E+002
  0
LINE
  8
2D_BEMASSUNG
  6
CONTINUOUS
 62
1
 10
7.3817764E+001
 20
1.1226075E+002
 11
7.3817764E+001
 21
1.1359409E+002
  0
LINE
  8
2D_BEMASSUNG
  6
CONTINUOUS
 62
1
 10
6.1188098E+001
 20
1.1292742E+002
 11
6.9817764E+001
 21
1.1292742E+002
  0
LINE
  8
2D_BEMASSUNG
  6
CONTINUOUS
 62
1
 10
6.9817764E+001
 20
1.1292742E+002
 11
8.0036377E+001
 21
1.1292742E+002
  0
LINE
  8
2D_BEMASSUNG
  6
CONTINUOUS
 62
1
 10
1.0773088E+002
 20
1.2721646E+002
 11
1.1520689E+002
 21
1.1359023E+002
  0
LINE
  8
2D_BEMASSUNG
  6
CONTINUOUS
 62
1
 10
1.4430689E+002
 20
1.1359023E+002
 11
1.1520689E+002
 21
1.1359023E+002
  0
TEXT
  8
2D_BEMASSUNG
  6
CONTINUOUS
 62
1
 10
1.1970689E+002
 20
1.1509023E+002
 40
3.5
  1
Treibstange
 41
6.0E-001
  0
LINE
  8
2D_BEMASSUNG
  6
CONTINUOUS
 62
1
 10
6.7188098E+001
 20
2.2815852E+002
 11
6.7188098E+001
 21
2.0105218E+002
  0
LINE
  8
2D_BEMASSUNG
  6
CONTINUOUS
 62
1
 10
6.9817764E+001
 20
2.1267647E+002
 11
6.9817764E+001
 21
2.0105218E+002
  0
LINE
  8
2D_BEMASSUNG
  6
CONTINUOUS
 62
1
 10
6.7188098E+001
 20
2.0305218E+002
 11
6.3188098E+001
 21
2.0238552E+002
  0
LINE
  8
2D_BEMASSUNG
  6
CONTINUOUS
 62
1
 10
6.7188098E+001
 20
2.0305218E+002
 11
6.3188098E+001
 21
2.0371885E+002
  0
LINE
  8
2D_BEMASSUNG
  6
CONTINUOUS
 62
1
 10
6.3188098E+001
 20
2.0238552E+002
 11
6.3188098E+001
 21
2.0371885E+002
  0
LINE
  8
2D_BEMASSUNG
  6
CONTINUOUS
 62
1
 10
6.9817764E+001
 20
2.0305218E+002
 11
7.3817764E+001
 21
2.0238552E+002
  0
LINE
  8
2D_BEMASSUNG
  6
CONTINUOUS
 62
1
 10
6.9817764E+001
 20
2.0305218E+002
 11
7.3817764E+001
 21
2.0371885E+002
  0
LINE
  8
2D_BEMASSUNG
  6
CONTINUOUS
 62
1
 10
7.3817764E+001
 20
2.0238552E+002
 11
7.3817764E+001
 21
2.0371885E+002
  0
LINE
  8
2D_BEMASSUNG
  6
CONTINUOUS
 62
1
 10
6.1188098E+001
 20
2.0305218E+002
 11
6.9817764E+001
 21
2.0305218E+002
  0
LINE
  8
2D_BEMASSUNG
  6
CONTINUOUS
 62
1
 10
6.9817764E+001
 20
2.0305218E+002
 11
7.9091766E+001
 21
2.0305218E+002
  0
TEXT
  8
2D_BEMASSUNG
  6
CONTINUOUS
 62
1
 10
7.4791766E+001
 20
2.0485318E+002
 40
3.5
  1
y
 41
8.0E-001
  0
LINE
  8
2D_BEMASSUNG
  6
CONTINUOUS
 62
1
 10
1.037466E+002
 20
1.4816006E+002
 11
1.1588671E+002
 21
1.6360096E+002
  0
LINE
  8
2D_BEMASSUNG
  6
CONTINUOUS
 62
1
 10
1.6669059E+002
 20
1.6360096E+002
 11
1.1588671E+002
 21
1.6360096E+002
  0
TEXT
  8
2D_BEMASSUNG
  6
CONTINUOUS
 62
1
 10
1.2038671E+002
 20
1.6510096E+002
 40
3.5
  1
2 Stck.Profilanpassung  
 41
6.0E-001
  0
POLYLINE
  8
2D_KATALOG-MITTEL
  6
CONTINUOUS
 62
230
 66
1
 40
5.0E-001
 41
5.0E-001
 70
0
  0
VERTEX
  8
2D_KATALOG-MITTEL
 42
0.0
 10
8.5838098E+001
 20
2.4110284E+002
 70
0
  0
VERTEX
  8
2D_KATALOG-MITTEL
 42
0.0
 10
6.9645214E+001
 20
2.4110284E+002
 70
0
  0
SEQEND
  0
POLYLINE
  8
2D_KATALOG-MITTEL
  6
CONTINUOUS
 62
230
 66
1
 40
5.0E-001
 41
5.0E-001
 70
0
  0
VERTEX
  8
2D_KATALOG-MITTEL
 42
0.0
 10
8.5838098E+001
 20
2.4260284E+002
 70
0
  0
VERTEX
  8
2D_KATALOG-MITTEL
 42
0.0
 10
6.9645214E+001
 20
2.4260284E+002
 70
0
  0
SEQEND
  0
POLYLINE
  8
2D_KATALOG-MITTEL
  6
CONTINUOUS
 62
230
 66
1
 40
5.0E-001
 41
5.0E-001
 70
0
  0
VERTEX
  8
2D_KATALOG-MITTEL
 42
4.1421356E-001
 10
9.2338098E+001
 20
2.3610284E+002
 70
0
  0
VERTEX
  8
2D_KATALOG-MITTEL
 42
0.0
 10
8.5838098E+001
 20
2.4260284E+002
 70
0
  0
SEQEND
  0
POLYLINE
  8
2D_KATALOG-MITTEL
  6
CONTINUOUS
 62
230
 66
1
 40
5.0E-001
 41
5.0E-001
 70
0
  0
VERTEX
  8
2D_KATALOG-MITTEL
 42
4.1421356E-001
 10
9.0838098E+001
 20
2.3610284E+002
 70
0
  0
VERTEX
  8
2D_KATALOG-MITTEL
 42
0.0
 10
8.5838098E+001
 20
2.4110284E+002
 70
0
  0
SEQEND
  0
POLYLINE
  8
LAYER1
  6
CONTINUOUS
 62
5
 66
1
 40
0.0
 41
0.0
 70
2
  0
VERTEX
  8
LAYER1
 42
0.0
 10
6.9645214E+001
 20
2.4260284E+002
 70
0
  0
VERTEX
  8
LAYER1
 42
-4.9761432E-003
 10
6.9660793E+001
 20
2.4258247E+002
 70
1
  0
VERTEX
  8
LAYER1
 42
-4.9188418E-003
 10
6.9675781E+001
 20
2.4256206E+002
 70
0
  0
VERTEX
  8
LAYER1
 42
-5.2303364E-003
 10
6.9690163E+001
 20
2.425416E+002
 70
1
  0
VERTEX
  8
LAYER1
 42
-5.9946562E-003
 10
6.9703907E+001
 20
2.425211E+002
 70
0
  0
VERTEX
  8
LAYER1
 42
-6.6533388E-003
 10
6.9716917E+001
 20
2.4250057E+002
 70
1
  0
VERTEX
  8
LAYER1
 42
-7.3004871E-003
 10
6.9729173E+001
 20
2.4247999E+002
 70
0
  0
VERTEX
  8
LAYER1
 42
-7.9726326E-003
 10
6.9740594E+001
 20
2.4245938E+002
 70
1
  0
VERTEX
  8
LAYER1
 42
-8.7636279E-003
 10
6.9751163E+001
 20
2.4243872E+002
 70
0
  0
VERTEX
  8
LAYER1
 42
-9.5430504E-003
 10
6.9760788E+001
 20
2.4241803E+002
 70
1
  0
VERTEX
  8
LAYER1
 42
-1.040407E-002
 10
6.9769458E+001
 20
2.423973E+002
 70
0
  0
VERTEX
  8
LAYER1
 42
-1.1248046E-002
 10
6.9777079E+001
 20
2.4237654E+002
 70
1
  0
VERTEX
  8
LAYER1
 42
-1.2166343E-002
 10
6.9783641E+001
 20
2.4235574E+002
 70
0
  0
VERTEX
  8
LAYER1
 42
-1.3039834E-002
 10
6.9789049E+001
 20
2.4233491E+002
 70
1
  0
VERTEX
  8
LAYER1
 42
-1.3960588E-002
 10
6.9793295E+001
 20
2.4231404E+002
 70
0
  0
VERTEX
  8
LAYER1
 42
-1.4761549E-002
 10
6.9796279E+001
 20
2.4229314E+002
 70
1
  0
VERTEX
  8
LAYER1
 42
-1.5534232E-002
 10
6.9798002E+001
 20
2.422722E+002
 70
0
  0
VERTEX
  8
LAYER1
 42
-1.6209923E-002
 10
6.9798359E+001
 20
2.4225124E+002
 70
1
  0
VERTEX
  8
LAYER1
 42
-1.691186E-002
 10
6.9797344E+001
 20
2.4223024E+002
 70
0
  0
VERTEX
  8
LAYER1
 42
-1.6211973E-002
 10
6.979487E+001
 20
2.4220921E+002
 70
1
  0
VERTEX
  8
LAYER1
 42
-1.4108258E-002
 10
6.9791107E+001
 20
2.4218815E+002
 70
0
  0
VERTEX
  8
LAYER1
 42
-1.2080383E-002
 10
6.9786153E+001
 20
2.4216705E+002
 70
1
  0
VERTEX
  8
LAYER1
 42
-9.7829207E-003
 10
6.9780222E+001
 20
2.4214592E+002
 70
0
  0
VERTEX
  8
LAYER1
 42
-7.8434281E-003
 10
6.9773446E+001
 20
2.4212475E+002
 70
1
  0
VERTEX
  8
LAYER1
 42
-5.8371089E-003
 10
6.9766023E+001
 20
2.4210354E+002
 70
0
  0
VERTEX
  8
LAYER1
 42
-4.1172079E-003
 10
6.9758094E+001
 20
2.4208228E+002
 70
1
  0
VERTEX
  8
LAYER1
 42
-2.2562454E-003
 10
6.9749843E+001
 20
2.4206098E+002
 70
0
  0
VERTEX
  8
LAYER1
 42
-6.490731E-004
 10
6.9741427E+001
 20
2.4203964E+002
 70
1
  0
VERTEX
  8
LAYER1
 42
1.1362183E-003
 10
6.9733016E+001
 20
2.4201824E+002
 70
0
  0
VERTEX
  8
LAYER1
 42
2.7294783E-003
 10
6.9724779E+001
 20
2.4199679E+002
 70
1
  0
VERTEX
  8
LAYER1
 42
4.5611952E-003
 10
6.9716874E+001
 20
2.4197529E+002
 70
0
  0
VERTEX
  8
LAYER1
 42
6.220616E-003
 10
6.9709485E+001
 20
2.4195373E+002
 70
1
  0
VERTEX
  8
LAYER1
 42
8.1273652E-003
 10
6.9702753E+001
 20
2.4193212E+002
 70
0
  0
VERTEX
  8
LAYER1
 42
9.9821051E-003
 10
6.9696873E+001
 20
2.4191044E+002
 70
1
  0
VERTEX
  8
LAYER1
 42
1.221168E-002
 10
6.9691984E+001
 20
2.418887E+002
 70
0
  0
VERTEX
  8
LAYER1
 42
1.3939253E-002
 10
6.9688301E+001
 20
2.418669E+002
 70
1
  0
VERTEX
  8
LAYER1
 42
1.5472547E-002
 10
6.96859E+001
 20
2.4184503E+002
 70
0
  0
VERTEX
  8
LAYER1
 42
1.5272814E-002
 10
6.9684908E+001
 20
2.418231E+002
 70
1
  0
VERTEX
  8
LAYER1
 42
1.3244857E-002
 10
6.9685149E+001
 20
2.418011E+002
 70
0
  0
VERTEX
  8
LAYER1
 42
1.1542767E-002
 10
6.9686512E+001
 20
2.4177906E+002
 70
1
  0
VERTEX
  8
LAYER1
 42
9.8081504E-003
 10
6.9688812E+001
 20
2.4175697E+002
 70
0
  0
VERTEX
  8
LAYER1
 42
8.2403143E-003
 10
6.9691949E+001
 20
2.4173485E+002
 70
1
  0
VERTEX
  8
LAYER1
 42
6.4924094E-003
 10
6.9695747E+001
 20
2.417127E+002
 70
0
  0
VERTEX
  8
LAYER1
 42
4.982914E-003
 10
6.9700088E+001
 20
2.4169053E+002
 70
1
  0
VERTEX
  8
LAYER1
 42
3.341703E-003
 10
6.9704811E+001
 20
2.4166834E+002
 70
0
  0
VERTEX
  8
LAYER1
 42
1.910278E-003
 10
6.9709785E+001
 20
2.4164615E+002
 70
1
  0
VERTEX
  8
LAYER1
 42
3.14796E-004
 10
6.9714861E+001
 20
2.4162395E+002
 70
0
  0
VERTEX
  8
LAYER1
 42
-1.1021197E-003
 10
6.9719898E+001
 20
2.4160177E+002
 70
1
  0
VERTEX
  8
LAYER1
 42
-2.7172826E-003
 10
6.9724757E+001
 20
2.415796E+002
 70
0
  0
VERTEX
  8
LAYER1
 42
-4.1596377E-003
 10
6.9729284E+001
 20
2.4155745E+002
 70
1
  0
VERTEX
  8
LAYER1
 42
-5.7990172E-003
 10
6.9733356E+001
 20
2.4153533E+002
 70
0
  0
VERTEX
  8
LAYER1
 42
-7.3811446E-003
 10
6.9736808E+001
 20
2.4151325E+002
 70
1
  0
VERTEX
  8
LAYER1
 42
-9.2885976E-003
 10
6.9739515E+001
 20
2.4149121E+002
 70
0
  0
VERTEX
  8
LAYER1
 42
-1.0704448E-002
 10
6.97413E+001
 20
2.4146923E+002
 70
1
  0
VERTEX
  8
LAYER1
 42
-1.1903308E-002
 10
6.9742101E+001
 20
2.414473E+002
 70
0
  0
VERTEX
  8
LAYER1
 42
-1.2067585E-002
 10
6.9741809E+001
 20
2.4142543E+002
 70
1
  0
VERTEX
  8
LAYER1
 42
-1.1197094E-002
 10
6.9740517E+001
 20
2.4140363E+002
 70
0
  0
VERTEX
  8
LAYER1
 42
-1.0605157E-002
 10
6.9738252E+001
 20
2.4138188E+002
 70
1
  0
VERTEX
  8
LAYER1
 42
-1.0106714E-002
 10
6.9735091E+001
 20
2.4136017E+002
 70
0
  0
VERTEX
  8
LAYER1
 42
-9.298134E-003
 10
6.973104E+001
 20
2.4133847E+002
 70
1
  0
VERTEX
  8
LAYER1
 42
-8.2087684E-003
 10
6.972624E+001
 20
2.4131691E+002
 70
0
  0
VERTEX
  8
LAYER1
 42
-8.1333963E-003
 10
6.9720732E+001
 20
2.4129552E+002
 70
1
  0
VERTEX
  8
LAYER1
 42
-8.3888103E-003
 10
6.9714382E+001
 20
2.4127383E+002
 70
0
  0
VERTEX
  8
LAYER1
 42
-6.2407236E-003
 10
6.970714E+001
 20
2.4125168E+002
 70
1
  0
VERTEX
  8
LAYER1
 42
-3.0446219E-003
 10
6.9699933E+001
 20
2.412309E+002
 70
0
  0
VERTEX
  8
LAYER1
 42
-6.8759354E-003
 10
6.9693084E+001
 20
2.4121214E+002
 70
1
  0
VERTEX
  8
LAYER1
 42
-9.2535824E-003
 10
6.9683311E+001
 20
2.4118811E+002
 70
0
  0
VERTEX
  8
LAYER1
 42
-4.2986793E-003
 10
6.9667117E+001
 20
2.4115117E+002
 70
1
  0
VERTEX
  8
LAYER1
 42
-2.3771533E-003
 10
6.9645214E+001
 20
2.4110284E+002
 70
0
  0
SEQEND
  0
LINE
  8
LAYER1
  6
CONTINUOUS
 62
3
 10
9.2338098E+001
 20
2.3237647E+002
 11
1.4427439E+002
 21
2.3237647E+002
  0
LINE
  8
LAYER1
  6
CONTINUOUS
 62
3
 10
1.4427439E+002
 20
2.1187647E+002
 11
5.256721E+001
 21
2.1187647E+002
  0
LINE
  8
LAYER1
  6
CONTINUOUS
 62
3
 10
5.256721E+001
 20
2.1387647E+002
 11
5.256721E+001
 21
2.1187647E+002
  0
LINE
  8
LAYER1
  6
CONTINUOUS
 62
3
 10
1.4427439E+002
 20
2.1387647E+002
 11
1.4427439E+002
 21
2.1187647E+002
  0
LINE
  8
LAYER1
  6
CONTINUOUS
 62
3
 10
1.4427439E+002
 20
2.3687647E+002
 11
1.4427439E+002
 21
2.3487647E+002
  0
LINE
  8
LAYER1
  6
CONTINUOUS
 62
3
 10
5.256721E+001
 20
2.3687647E+002
 11
5.256721E+001
 21
2.3487647E+002
  0
POLYLINE
  8
2D_KATALOG-MITTEL
  6
CONTINUOUS
 62
230
 66
1
 40
5.0E-001
 41
5.0E-001
 70
0
  0
VERTEX
  8
2D_KATALOG-MITTEL
 42
0.0
 10
6.4817764E+001
 20
1.3846006E+002
 70
0
  0
VERTEX
  8
2D_KATALOG-MITTEL
 42
0.0
 10
6.4817764E+001
 20
1.3246006E+002
 70
0
  0
SEQEND
  0
POLYLINE
  8
2D_KATALOG-MITTEL
  6
CONTINUOUS
 62
230
 66
1
 40
5.0E-001
 41
5.0E-001
 70
0
  0
VERTEX
  8
2D_KATALOG-MITTEL
 42
0.0
 10
7.4817764E+001
 20
1.3846006E+002
 70
0
  0
VERTEX
  8
2D_KATALOG-MITTEL
 42
0.0
 10
7.4817764E+001
 20
1.3246006E+002
 70
0
  0
SEQEND
  0
POLYLINE
  8
2D_KATALOG-MITTEL
  6
CONTINUOUS
 62
230
 66
1
 40
5.0E-001
 41
5.0E-001
 70
0
  0
VERTEX
  8
2D_KATALOG-MITTEL
 42
0.0
 10
7.4817764E+001
 20
1.2846006E+002
 70
0
  0
VERTEX
  8
2D_KATALOG-MITTEL
 42
0.0
 10
6.4817764E+001
 20
1.2846006E+002
 70
0
  0
SEQEND
  0
LINE
  8
LAYER1
  6
CONTINUOUS
 62
3
 10
6.4817764E+001
 20
1.2846006E+002
 11
5.256721E+001
 21
1.2846006E+002
  0
LINE
  8
LAYER1
  6
CONTINUOUS
 62
3
 10
5.256721E+001
 20
2.3037647E+002
 11
1.4427439E+002
 21
2.3037647E+002
  0
LINE
  8
2D_MITTELLINIEN
  6
CENTERLINE
 62
3
 10
9.7138098E+001
 20
2.2465768E+002
 11
9.7138098E+001
 21
2.4109209E+002
  0
LINE
  8
2D_MITTELLINIEN
  6
CENTERLINE
 62
3
 10
1.241381E+002
 20
2.2465768E+002
 11
1.241381E+002
 21
2.424338E+002
  0
POLYLINE
  8
2D_KATALOG-MITTEL
  6
CONTINUOUS
 62
230
 66
1
 40
5.0E-001
 41
5.0E-001
 70
0
  0
VERTEX
  8
2D_KATALOG-MITTEL
 42
0.0
 10
9.0838098E+001
 20
2.3487647E+002
 70
0
  0
VERTEX
  8
2D_KATALOG-MITTEL
 42
0.0
 10
9.0838098E+001
 20
2.3037647E+002
 70
0
  0
SEQEND
  0
POLYLINE
  8
2D_KATALOG-MITTEL
  6
CONTINUOUS
 62
230
 66
1
 40
5.0E-001
 41
5.0E-001
 70
0
  0
VERTEX
  8
2D_KATALOG-MITTEL
 42
0.0
 10
9.2338098E+001
 20
2.3487647E+002
 70
0
  0
VERTEX
  8
2D_KATALOG-MITTEL
 42
0.0
 10
9.2338098E+001
 20
2.3037647E+002
 70
0
  0
SEQEND
  0
POLYLINE
  8
2D_KATALOG-MITTEL
  6
CONTINUOUS
 62
230
 66
1
 40
5.0E-001
 41
5.0E-001
 70
0
  0
VERTEX
  8
2D_KATALOG-MITTEL
 42
0.0
 10
1.291881E+002
 20
2.3037647E+002
 70
0
  0
VERTEX
  8
2D_KATALOG-MITTEL
 42
0.0
 10
1.281881E+002
 20
2.3037647E+002
 70
0
  0
SEQEND
  0
POLYLINE
  8
2D_KATALOG-MITTEL
  6
CONTINUOUS
 62
230
 66
1
 40
5.0E-001
 41
5.0E-001
 70
0
  0
VERTEX
  8
2D_KATALOG-MITTEL
 42
0.0
 10
1.291881E+002
 20
2.3037647E+002
 70
0
  0
VERTEX
  8
2D_KATALOG-MITTEL
 42
0.0
 10
1.291881E+002
 20
2.2342647E+002
 70
0
  0
SEQEND
  0
POLYLINE
  8
2D_KATALOG-MITTEL
  6
CONTINUOUS
 62
230
 66
1
 40
5.0E-001
 41
5.0E-001
 70
0
  0
VERTEX
  8
2D_KATALOG-MITTEL
 42
0.0
 10
1.281881E+002
 20
2.2837647E+002
 70
0
  0
VERTEX
  8
2D_KATALOG-MITTEL
 42
0.0
 10
1.281881E+002
 20
2.3037647E+002
 70
0
  0
SEQEND
  0
POLYLINE
  8
2D_KATALOG-MITTEL
  6
CONTINUOUS
 62
230
 66
1
 40
5.0E-001
 41
5.0E-001
 70
0
  0
VERTEX
  8
2D_KATALOG-MITTEL
 42
4.1421356E-001
 10
1.281881E+002
 20
2.2242647E+002
 70
0
  0
VERTEX
  8
2D_KATALOG-MITTEL
 42
0.0
 10
1.291881E+002
 20
2.2342647E+002
 70
0
  0
SEQEND
  0
POLYLINE
  8
2D_KATALOG-MITTEL
  6
CONTINUOUS
 62
230
 66
1
 40
5.0E-001
 41
5.0E-001
 70
0
  0
VERTEX
  8
2D_KATALOG-MITTEL
 42
0.0
 10
6.8188098E+001
 20
2.3037647E+002
 70
0
  0
VERTEX
  8
2D_KATALOG-MITTEL
 42
0.0
 10
9.2688098E+001
 20
2.3037647E+002
 70
0
  0
SEQEND
  0
POLYLINE
  8
2D_KATALOG-MITTEL
  6
CONTINUOUS
 62
230
 66
1
 40
5.0E-001
 41
5.0E-001
 70
0
  0
VERTEX
  8
2D_KATALOG-MITTEL
 42
0.0
 10
9.2688098E+001
 20
2.3037647E+002
 70
0
  0
VERTEX
  8
2D_KATALOG-MITTEL
 42
0.0
 10
9.2688098E+001
 20
2.2837647E+002
 70
0
  0
SEQEND
  0
POLYLINE
  8
2D_KATALOG-MITTEL
  6
CONTINUOUS
 62
230
 66
1
 40
5.0E-001
 41
5.0E-001
 70
0
  0
VERTEX
  8
2D_KATALOG-MITTEL
 42
0.0
 10
9.2688098E+001
 20
2.2837647E+002
 70
0
  0
VERTEX
  8
2D_KATALOG-MITTEL
 42
0.0
 10
1.014381E+002
 20
2.2837647E+002
 70
0
  0
SEQEND
  0
POLYLINE
  8
2D_KATALOG-MITTEL
  6
CONTINUOUS
 62
230
 66
1
 40
5.0E-001
 41
5.0E-001
 70
0
  0
VERTEX
  8
2D_KATALOG-MITTEL
 42
0.0
 10
1.014381E+002
 20
2.2837647E+002
 70
0
  0
VERTEX
  8
2D_KATALOG-MITTEL
 42
0.0
 10
1.014381E+002
 20
2.3037647E+002
 70
0
  0
SEQEND
  0
POLYLINE
  8
2D_KATALOG-MITTEL
  6
CONTINUOUS
 62
230
 66
1
 40
5.0E-001
 41
5.0E-001
 70
0
  0
VERTEX
  8
2D_KATALOG-MITTEL
 42
0.0
 10
1.014381E+002
 20
2.3037647E+002
 70
0
  0
VERTEX
  8
2D_KATALOG-MITTEL
 42
0.0
 10
1.194381E+002
 20
2.3037647E+002
 70
0
  0
SEQEND
  0
POLYLINE
  8
2D_KATALOG-MITTEL
  6
CONTINUOUS
 62
230
 66
1
 40
5.0E-001
 41
5.0E-001
 70
0
  0
VERTEX
  8
2D_KATALOG-MITTEL
 42
0.0
 10
1.194381E+002
 20
2.3037647E+002
 70
0
  0
VERTEX
  8
2D_KATALOG-MITTEL
 42
0.0
 10
1.194381E+002
 20
2.2837647E+002
 70
0
  0
SEQEND
  0
POLYLINE
  8
2D_KATALOG-MITTEL
  6
CONTINUOUS
 62
230
 66
1
 40
5.0E-001
 41
5.0E-001
 70
0
  0
VERTEX
  8
2D_KATALOG-MITTEL
 42
0.0
 10
1.194381E+002
 20
2.2837647E+002
 70
0
  0
VERTEX
  8
2D_KATALOG-MITTEL
 42
0.0
 10
1.281881E+002
 20
2.2837647E+002
 70
0
  0
SEQEND
  0
POLYLINE
  8
2D_KATALOG-MITTEL
  6
CONTINUOUS
 62
230
 66
1
 40
5.0E-001
 41
5.0E-001
 70
0
  0
VERTEX
  8
2D_KATALOG-MITTEL
 42
0.0
 10
8.4288098E+001
 20
2.2662647E+002
 70
0
  0
VERTEX
  8
2D_KATALOG-MITTEL
 42
0.0
 10
8.5288098E+001
 20
2.2762647E+002
 70
0
  0
SEQEND
  0
POLYLINE
  8
2D_KATALOG-MITTEL
  6
CONTINUOUS
 62
230
 66
1
 40
5.0E-001
 41
5.0E-001
 70
0
  0
VERTEX
  8
2D_KATALOG-MITTEL
 42
0.0
 10
8.4288098E+001
 20
2.2342647E+002
 70
0
  0
VERTEX
  8
2D_KATALOG-MITTEL
 42
0.0
 10
8.4288098E+001
 20
2.2662647E+002
 70
0
  0
SEQEND
  0
POLYLINE
  8
2D_KATALOG-MITTEL
  6
CONTINUOUS
 62
230
 66
1
 40
5.0E-001
 41
5.0E-001
 70
0
  0
VERTEX
  8
2D_KATALOG-MITTEL
 42
4.1421356E-001
 10
8.4288098E+001
 20
2.2342647E+002
 70
0
  0
VERTEX
  8
2D_KATALOG-MITTEL
 42
0.0
 10
8.5288098E+001
 20
2.2242647E+002
 70
0
  0
SEQEND
  0
POLYLINE
  8
2D_KATALOG-MITTEL
  6
CONTINUOUS
 62
230
 66
1
 40
5.0E-001
 41
5.0E-001
 70
0
  0
VERTEX
  8
2D_KATALOG-MITTEL
 42
0.0
 10
1.281881E+002
 20
2.2242647E+002
 70
0
  0
VERTEX
  8
2D_KATALOG-MITTEL
 42
0.0
 10
8.5288098E+001
 20
2.2242647E+002
 70
0
  0
SEQEND
  0
POLYLINE
  8
2D_KATALOG-MITTEL
  6
CONTINUOUS
 62
230
 66
1
 40
5.0E-001
 41
5.0E-001
 70
0
  0
VERTEX
  8
2D_KATALOG-MITTEL
 42
0.0
 10
6.8609638E+001
 20
2.2676044E+002
 70
0
  0
VERTEX
  8
2D_KATALOG-MITTEL
 42
0.0
 10
6.7688098E+001
 20
2.2729249E+002
 70
0
  0
SEQEND
  0
POLYLINE
  8
2D_KATALOG-MITTEL
  6
CONTINUOUS
 62
230
 66
1
 40
5.0E-001
 41
5.0E-001
 70
0
  0
VERTEX
  8
2D_KATALOG-MITTEL
 42
0.0
 10
6.8609638E+001
 20
2.2676044E+002
 70
0
  0
VERTEX
  8
2D_KATALOG-MITTEL
 42
0.0
 10
6.8956048E+001
 20
2.2656044E+002
 70
0
  0
SEQEND
  0
POLYLINE
  8
2D_KATALOG-MITTEL
  6
CONTINUOUS
 62
230
 66
1
 40
5.0E-001
 41
5.0E-001
 70
0
  0
VERTEX
  8
2D_KATALOG-MITTEL
 42
2.6794919E-001
 10
6.7188098E+001
 20
2.2815852E+002
 70
0
  0
VERTEX
  8
2D_KATALOG-MITTEL
 42
0.0
 10
6.7688098E+001
 20
2.2729249E+002
 70
0
  0
SEQEND
  0
POLYLINE
  8
2D_KATALOG-MITTEL
  6
CONTINUOUS
 62
230
 66
1
 40
5.0E-001
 41
5.0E-001
 70
0
  0
VERTEX
  8
2D_KATALOG-MITTEL
 42
0.0
 10
6.7188098E+001
 20
2.2815852E+002
 70
0
  0
VERTEX
  8
2D_KATALOG-MITTEL
 42
0.0
 10
6.7188098E+001
 20
2.3037647E+002
 70
0
  0
SEQEND
  0
POLYLINE
  8
2D_KATALOG-MITTEL
  6
CONTINUOUS
 62
230
 66
1
 40
5.0E-001
 41
5.0E-001
 70
0
  0
VERTEX
  8
2D_KATALOG-MITTEL
 42
0.0
 10
6.8188098E+001
 20
2.3037647E+002
 70
0
  0
VERTEX
  8
2D_KATALOG-MITTEL
 42
0.0
 10
6.7188098E+001
 20
2.3037647E+002
 70
0
  0
SEQEND
  0
POLYLINE
  8
2D_KATALOG-MITTEL
  6
CONTINUOUS
 62
230
 66
1
 40
5.0E-001
 41
5.0E-001
 70
0
  0
VERTEX
  8
2D_KATALOG-MITTEL
 42
1.316525E-001
 10
6.8956048E+001
 20
2.2656044E+002
 70
0
  0
VERTEX
  8
2D_KATALOG-MITTEL
 42
0.0
 10
6.9456048E+001
 20
2.2642647E+002
 70
0
  0
SEQEND
  0
POLYLINE
  8
2D_KATALOG-MITTEL
  6
CONTINUOUS
 62
230
 66
1
 40
5.0E-001
 41
5.0E-001
 70
0
  0
VERTEX
  8
2D_KATALOG-MITTEL
 42
0.0
 10
6.9456048E+001
 20
2.2642647E+002
 70
0
  0
VERTEX
  8
2D_KATALOG-MITTEL
 42
0.0
 10
8.4288098E+001
 20
2.2642647E+002
 70
0
  0
SEQEND
  0
LINE
  8
LAYER1
  6
CONTINUOUS
 62
3
 10
5.256721E+001
 20
2.3487647E+002
 11
1.4427439E+002
 21
2.3487647E+002
  0
LINE
  8
LAYER1
  6
CONTINUOUS
 62
3
 10
1.4427439E+002
 20
2.1387647E+002
 11
5.256721E+001
 21
2.1387647E+002
  0
LINE
  8
LAYER1
  6
CONTINUOUS
 62
3
 10
1.4427439E+002
 20
2.1837647E+002
 11
5.256721E+001
 21
2.1837647E+002
  0
POLYLINE
  8
2D_KATALOG-MITTEL
  6
CONTINUOUS
 62
230
 66
1
 40
5.0E-001
 41
5.0E-001
 70
0
  0
VERTEX
  8
2D_KATALOG-MITTEL
 42
0.0
 10
6.4817764E+001
 20
2.2437647E+002
 70
0
  0
VERTEX
  8
2D_KATALOG-MITTEL
 42
0.0
 10
7.4817764E+001
 20
2.2437647E+002
 70
0
  0
SEQEND
  0
POLYLINE
  8
2D_KATALOG-MITTEL
  6
CONTINUOUS
 62
230
 66
1
 40
5.0E-001
 41
5.0E-001
 70
0
  0
VERTEX
  8
2D_KATALOG-MITTEL
 42
0.0
 10
7.4817764E+001
 20
2.2437647E+002
 70
0
  0
VERTEX
  8
2D_KATALOG-MITTEL
 42
0.0
 10
7.4817764E+001
 20
2.1837647E+002
 70
0
  0
SEQEND
  0
POLYLINE
  8
2D_KATALOG-MITTEL
  6
CONTINUOUS
 62
230
 66
1
 40
5.0E-001
 41
5.0E-001
 70
0
  0
VERTEX
  8
2D_KATALOG-MITTEL
 42
0.0
 10
7.4817764E+001
 20
2.1837647E+002
 70
0
  0
VERTEX
  8
2D_KATALOG-MITTEL
 42
0.0
 10
6.4817764E+001
 20
2.1837647E+002
 70
0
  0
SEQEND
  0
POLYLINE
  8
2D_KATALOG-MITTEL
  6
CONTINUOUS
 62
230
 66
1
 40
5.0E-001
 41
5.0E-001
 70
0
  0
VERTEX
  8
2D_KATALOG-MITTEL
 42
0.0
 10
6.4817764E+001
 20
2.1837647E+002
 70
0
  0
VERTEX
  8
2D_KATALOG-MITTEL
 42
0.0
 10
6.4817764E+001
 20
2.2437647E+002
 70
0
  0
SEQEND
  0
LINE
  8
2D_MITTELLINIEN
  6
CENTERLINE
 62
3
 10
6.9817764E+001
 20
2.2517698E+002
 11
6.9817764E+001
 21
2.1431435E+002
  0
LINE
  8
LAYER1
  6
CONTINUOUS
 62
3
 10
1.4427439E+002
 20
2.1617647E+002
 11
5.256721E+001
 21
2.1617647E+002
  0
LINE
  8
LAYER1
  6
CONTINUOUS
 62
3
 10
5.256721E+001
 20
2.3237647E+002
 11
9.0838098E+001
 21
2.3237647E+002
  0
LINE
  8
LAYER1
  6
CONTINUOUS
 62
3
 10
5.256721E+001
 20
2.3687647E+002
 11
1.4427439E+002
 21
2.3687647E+002
  0
TEXT
  8
2D_BEMASSUNG
  6
CONTINUOUS
 62
1
 10
5.1319664E+001
 20
2.4816749E+002
 40
3.5
  1
y = min 0.5mm/ max. 4mm
 41
7.0E-001
  0
LINE
  8
LAYER1
  6
CONTINUOUS
 62
3
 10
1.4427439E+002
 20
1.2166006E+002
 11
5.256721E+001
 21
1.2166006E+002
  0
LINE
  8
LAYER1
  6
CONTINUOUS
 62
3
 10
1.4427439E+002
 20
1.2366006E+002
 11
1.4427439E+002
 21
1.2166006E+002
  0
LINE
  8
LAYER1
  6
CONTINUOUS
 62
3
 10
5.256721E+001
 20
1.2366006E+002
 11
5.256721E+001
 21
1.2166006E+002
  0
LINE
  8
LAYER1
  6
CONTINUOUS
 62
3
 10
5.256721E+001
 20
1.5016006E+002
 11
5.256721E+001
 21
1.4816006E+002
  0
LINE
  8
LAYER1
  6
CONTINUOUS
 62
3
 10
1.4427439E+002
 20
1.5016006E+002
 11
1.4427439E+002
 21
1.4816006E+002
  0
LINE
  8
LAYER1
  6
CONTINUOUS
 62
3
 10
1.281881E+002
 20
1.4566006E+002
 11
1.4427439E+002
 21
1.4566006E+002
  0
LINE
  8
LAYER1
  6
CONTINUOUS
 62
3
 10
6.7188098E+001
 20
1.4366006E+002
 11
5.256721E+001
 21
1.4366006E+002
  0
POLYLINE
  8
2D_KATALOG-MITTEL
  6
CONTINUOUS
 62
230
 66
1
 40
5.0E-001
 41
5.0E-001
 70
0
  0
VERTEX
  8
2D_KATALOG-MITTEL
 42
0.0
 10
1.014381E+002
 20
1.4446006E+002
 70
0
  0
VERTEX
  8
2D_KATALOG-MITTEL
 42
0.0
 10
1.194381E+002
 20
1.4446006E+002
 70
0
  0
SEQEND
  0
LINE
  8
LAYER1
  6
CONTINUOUS
 62
3
 10
1.281381E+002
 20
1.4816006E+002
 11
1.4427439E+002
 21
1.4816006E+002
  0
LINE
  8
LAYER1
  6
CONTINUOUS
 62
3
 10
9.3138098E+001
 20
1.4816006E+002
 11
1.281381E+002
 21
1.4816006E+002
  0
POLYLINE
  8
2D_KATALOG-MITTEL
  6
CONTINUOUS
 62
230
 66
1
 40
5.0E-001
 41
5.0E-001
 70
0
  0
VERTEX
  8
2D_KATALOG-MITTEL
 42
0.0
 10
9.2688098E+001
 20
1.4816006E+002
 70
0
  0
VERTEX
  8
2D_KATALOG-MITTEL
 42
0.0
 10
1.281881E+002
 20
1.4816006E+002
 70
0
  0
SEQEND
  0
POLYLINE
  8
2D_KATALOG-MITTEL
  6
CONTINUOUS
 62
230
 66
1
 40
5.0E-001
 41
5.0E-001
 70
0
  0
VERTEX
  8
2D_KATALOG-MITTEL
 42
0.0
 10
7.4817764E+001
 20
1.3846006E+002
 70
0
  0
VERTEX
  8
2D_KATALOG-MITTEL
 42
0.0
 10
6.4817764E+001
 20
1.3846006E+002
 70
0
  0
SEQEND
  0
ENDSEC
  0
EOF
